  0
SECTION
  2
HEADER
  9
$ACADVER
  1
AC1021
  9
$ACADMAINTVER
 70
    50
  9
$DWGCODEPAGE
  3
ANSI_936
  9
$LASTSAVEDBY
  1
ko69185
  9
$CUSTOMPROPERTYTAG
  1
AmdtFileType
  9
$CUSTOMPROPERTY
  1
84
  9
$INSBASE
 10
0.0
 20
0.0
 30
0.0
  9
$EXTMIN
 10
-3.359046604768167
 20
18.1861846120083
 30
0.0
  9
$EXTMAX
 10
66.23135620701437
 20
59.69558302064007
 30
0.0
  9
$LIMMIN
 10
0.0
 20
0.0
  9
$LIMMAX
 10
17.0
 20
11.0
  9
$ORTHOMODE
 70
     0
  9
$REGENMODE
 70
     1
  9
$FILLMODE
 70
     1
  9
$QTEXTMODE
 70
     0
  9
$MIRRTEXT
 70
     1
  9
$LTSCALE
 40
1.0
  9
$ATTMODE
 70
     1
  9
$TEXTSIZE
 40
0.2
  9
$TRACEWID
 40
0.05
  9
$TEXTSTYLE
  7
STANDARD
  9
$CLAYER
  8
0
  9
$CELTYPE
  6
ByLayer
  9
$CECOLOR
 62
   256
  9
$CELTSCALE
 40
1.0
  9
$DISPSILH
 70
     0
  9
$DIMSCALE
 40
1.0
  9
$DIMASZ
 40
0.12
  9
$DIMEXO
 40
0.05
  9
$DIMDLI
 40
0.5
  9
$DIMRND
 40
0.0
  9
$DIMDLE
 40
0.0
  9
$DIMEXE
 40
0.1
  9
$DIMTP
 40
0.1
  9
$DIMTM
 40
0.1
  9
$DIMTXT
 40
0.12
  9
$DIMCEN
 40
0.0
  9
$DIMTSZ
 40
0.0
  9
$DIMTOL
 70
     0
  9
$DIMLIM
 70
     0
  9
$DIMTIH
 70
     1
  9
$DIMTOH
 70
     1
  9
$DIMSE1
 70
     0
  9
$DIMSE2
 70
     0
  9
$DIMTAD
 70
     0
  9
$DIMZIN
 70
     7
  9
$DIMBLK
  1

  9
$DIMASO
 70
     1
  9
$DIMSHO
 70
     1
  9
$DIMPOST
  1

  9
$DIMAPOST
  1
mm
  9
$DIMALT
 70
     0
  9
$DIMALTD
 70
     2
  9
$DIMALTF
 40
25.4
  9
$DIMLFAC
 40
1.0
  9
$DIMTOFL
 70
     0
  9
$DIMTVP
 40
0.0
  9
$DIMTIX
 70
     0
  9
$DIMSOXD
 70
     0
  9
$DIMSAH
 70
     0
  9
$DIMBLK1
  1

  9
$DIMBLK2
  1

  9
$DIMSTYLE
  2
AM_ANSI
  9
$DIMCLRD
 70
   256
  9
$DIMCLRE
 70
   256
  9
$DIMCLRT
 70
   140
  9
$DIMTFAC
 40
0.71
  9
$DIMGAP
 40
0.06
  9
$DIMJUST
 70
     0
  9
$DIMSD1
 70
     0
  9
$DIMSD2
 70
     0
  9
$DIMTOLJ
 70
     1
  9
$DIMTZIN
 70
     7
  9
$DIMALTZ
 70
     0
  9
$DIMALTTZ
 70
     0
  9
$DIMUPT
 70
     0
  9
$DIMDEC
 70
     4
  9
$DIMTDEC
 70
     4
  9
$DIMALTU
 70
     2
  9
$DIMALTTD
 70
     4
  9
$DIMTXSTY
  7
STANDARD
  9
$DIMAUNIT
 70
     0
  9
$DIMADEC
 70
     0
  9
$DIMALTRND
 40
0.0
  9
$DIMAZIN
 70
     2
  9
$DIMDSEP
 70
    46
  9
$DIMATFIT
 70
     3
  9
$DIMFRAC
 70
     0
  9
$DIMLDRBLK
  1

  9
$DIMLUNIT
 70
     2
  9
$DIMLWD
 70
    -1
  9
$DIMLWE
 70
    -1
  9
$DIMTMOVE
 70
     0
  9
$DIMFXL
 40
1.0
  9
$DIMFXLON
 70
     0
  9
$DIMJOGANG
 40
0.7853981633974483
  9
$DIMTFILL
 70
     0
  9
$DIMTFILLCLR
 70
     0
  9
$DIMARCSYM
 70
     1
  9
$DIMLTYPE
  6
ByBlock
  9
$DIMLTEX1
  6
ByBlock
  9
$DIMLTEX2
  6
ByBlock
  9
$LUNITS
 70
     2
  9
$LUPREC
 70
     4
  9
$SKETCHINC
 40
0.1
  9
$FILLETRAD
 40
0.125
  9
$AUNITS
 70
     0
  9
$AUPREC
 70
     0
  9
$MENU
  1
.
  9
$ELEVATION
 40
0.0
  9
$PELEVATION
 40
0.0
  9
$THICKNESS
 40
0.0
  9
$LIMCHECK
 70
     0
  9
$CHAMFERA
 40
0.125
  9
$CHAMFERB
 40
0.125
  9
$CHAMFERC
 40
1.0
  9
$CHAMFERD
 40
0.0
  9
$SKPOLY
 70
     0
  9
$TDCREATE
 40
2455366.440708646
  9
$TDUCREATE
 40
2455366.107375313
  9
$TDUPDATE
 40
2455366.441180243
  9
$TDUUPDATE
 40
2455366.107846910
  9
$TDINDWG
 40
0.0004723264
  9
$TDUSRTIMER
 40
0.0004721412
  9
$USRTIMER
 70
     1
  9
$ANGBASE
 50
0.0
  9
$ANGDIR
 70
     0
  9
$PDMODE
 70
     0
  9
$PDSIZE
 40
0.0
  9
$PLINEWID
 40
0.0
  9
$SPLFRAME
 70
     0
  9
$SPLINETYPE
 70
     6
  9
$SPLINESEGS
 70
     8
  9
$HANDSEED
  5
60D
  9
$SURFTAB1
 70
     6
  9
$SURFTAB2
 70
     6
  9
$SURFTYPE
 70
     6
  9
$SURFU
 70
     6
  9
$SURFV
 70
     6
  9
$UCSBASE
  2

  9
$UCSNAME
  2

  9
$UCSORG
 10
0.0
 20
0.0
 30
0.0
  9
$UCSXDIR
 10
1.0
 20
0.0
 30
0.0
  9
$UCSYDIR
 10
0.0
 20
1.0
 30
0.0
  9
$UCSORTHOREF
  2

  9
$UCSORTHOVIEW
 70
     0
  9
$UCSORGTOP
 10
0.0
 20
0.0
 30
0.0
  9
$UCSORGBOTTOM
 10
0.0
 20
0.0
 30
0.0
  9
$UCSORGLEFT
 10
0.0
 20
0.0
 30
0.0
  9
$UCSORGRIGHT
 10
0.0
 20
0.0
 30
0.0
  9
$UCSORGFRONT
 10
0.0
 20
0.0
 30
0.0
  9
$UCSORGBACK
 10
0.0
 20
0.0
 30
0.0
  9
$PUCSBASE
  2

  9
$PUCSNAME
  2

  9
$PUCSORG
 10
0.0
 20
0.0
 30
0.0
  9
$PUCSXDIR
 10
1.0
 20
0.0
 30
0.0
  9
$PUCSYDIR
 10
0.0
 20
1.0
 30
0.0
  9
$PUCSORTHOREF
  2

  9
$PUCSORTHOVIEW
 70
     0
  9
$PUCSORGTOP
 10
0.0
 20
0.0
 30
0.0
  9
$PUCSORGBOTTOM
 10
0.0
 20
0.0
 30
0.0
  9
$PUCSORGLEFT
 10
0.0
 20
0.0
 30
0.0
  9
$PUCSORGRIGHT
 10
0.0
 20
0.0
 30
0.0
  9
$PUCSORGFRONT
 10
0.0
 20
0.0
 30
0.0
  9
$PUCSORGBACK
 10
0.0
 20
0.0
 30
0.0
  9
$USERI1
 70
     0
  9
$USERI2
 70
     0
  9
$USERI3
 70
     0
  9
$USERI4
 70
     0
  9
$USERI5
 70
     0
  9
$USERR1
 40
0.0
  9
$USERR2
 40
0.0
  9
$USERR3
 40
0.0
  9
$USERR4
 40
0.0
  9
$USERR5
 40
0.0
  9
$WORLDVIEW
 70
     1
  9
$SHADEDGE
 70
     3
  9
$SHADEDIF
 70
    70
  9
$TILEMODE
 70
     1
  9
$MAXACTVP
 70
    64
  9
$PINSBASE
 10
0.0
 20
0.0
 30
0.0
  9
$PLIMCHECK
 70
     0
  9
$PEXTMIN
 10
1.000000000000000E+20
 20
1.000000000000000E+20
 30
1.000000000000000E+20
  9
$PEXTMAX
 10
-1.000000000000000E+20
 20
-1.000000000000000E+20
 30
-1.000000000000000E+20
  9
$PLIMMIN
 10
0.0
 20
0.0
  9
$PLIMMAX
 10
12.0
 20
9.0
  9
$UNITMODE
 70
     0
  9
$VISRETAIN
 70
     1
  9
$PLINEGEN
 70
     0
  9
$PSLTSCALE
 70
     1
  9
$TREEDEPTH
 70
  3020
  9
$CMLSTYLE
  2
Standard
  9
$CMLJUST
 70
     0
  9
$CMLSCALE
 40
1.0
  9
$PROXYGRAPHICS
 70
     1
  9
$MEASUREMENT
 70
     0
  9
$CELWEIGHT
370
    -1
  9
$ENDCAPS
280
     0
  9
$JOINSTYLE
280
     0
  9
$LWDISPLAY
290
     0
  9
$INSUNITS
 70
     1
  9
$HYPERLINKBASE
  1

  9
$STYLESHEET
  1

  9
$XEDIT
290
     1
  9
$CEPSNTYPE
380
     0
  9
$PSTYLEMODE
290
     1
  9
$FINGERPRINTGUID
  2
{22403AD9-229E-4A3C-BAB0-1CA7B8871F3A}
  9
$VERSIONGUID
  2
{AB692EE4-D747-4403-B803-AE0CBAC0CD5F}
  9
$EXTNAMES
290
     1
  9
$PSVPSCALE
 40
0.0
  9
$OLESTARTUP
290
     0
  9
$SORTENTS
280
   127
  9
$INDEXCTL
280
     0
  9
$HIDETEXT
280
     0
  9
$XCLIPFRAME
290
     0
  9
$HALOGAP
280
     0
  9
$OBSCOLOR
 70
   257
  9
$OBSLTYPE
280
     0
  9
$INTERSECTIONDISPLAY
280
     0
  9
$INTERSECTIONCOLOR
 70
   257
  9
$DIMASSOC
280
     2
  9
$PROJECTNAME
  1

  9
$CAMERADISPLAY
290
     0
  9
$LENSLENGTH
 40
50.0
  9
$CAMERAHEIGHT
 40
0.0
  9
$STEPSPERSEC
 40
2.0
  9
$STEPSIZE
 40
6.0
  9
$3DDWFPREC
 40
2.0
  9
$PSOLWIDTH
 40
0.25
  9
$PSOLHEIGHT
 40
4.0
  9
$LOFTANG1
 40
1.570796326794896
  9
$LOFTANG2
 40
1.570796326794896
  9
$LOFTMAG1
 40
0.0
  9
$LOFTMAG2
 40
0.0
  9
$LOFTPARAM
 70
     7
  9
$LOFTNORMALS
280
     1
  9
$LATITUDE
 40
37.795
  9
$LONGITUDE
 40
-122.394
  9
$NORTHDIRECTION
 40
0.0
  9
$TIMEZONE
 70
 -8000
  9
$LIGHTGLYPHDISPLAY
280
     1
  9
$TILEMODELIGHTSYNCH
280
     1
  9
$CMATERIAL
347
293
  9
$SOLIDHIST
280
     1
  9
$SHOWHIST
280
     1
  9
$DWFFRAME
280
     2
  9
$DGNFRAME
280
     0
  9
$REALWORLDSCALE
290
     1
  9
$INTERFERECOLOR
 62
     1
  9
$INTERFEREOBJVS
345
2A0
  9
$INTERFEREVPVS
346
29D
  9
$CSHADOW
280
     0
  9
$SHADOWPLANELOCATION
 40
0.0
  0
ENDSEC
  0
SECTION
  2
CLASSES
  0
CLASS
  1
ACDBDICTIONARYWDFLT
  2
AcDbDictionaryWithDefault
  3
ObjectDBX Classes
 90
        0
 91
        1
280
     0
281
     0
  0
CLASS
  1
ACME_DOCUMENT
  2
AcMeDbDoc
  3
AcMeServices
 90
     1024
 91
        2
280
     0
281
     0
  0
CLASS
  1
AMGSETTINGSOBJ
  2
AmgSettingsObj
  3
"AcadM|Product Description: AutoCAD Mechanical|Company: Autodesk, Inc."
 90
     1024
 91
        4
280
     0
281
     0
  0
CLASS
  1
ACMESCOPE
  2
AcMeScope
  3
AcMeServices
 90
     1024
 91
        1
280
     0
281
     0
  0
CLASS
  1
ACMECOMMANDHISTORY
  2
AcMeCommandHistory
  3
AcMeServices
 90
     1024
 91
        1
280
     0
281
     0
  0
CLASS
  1
ACIMSYSVARMAN
  2
AcImSysVarManager
  3
AcMeServices
 90
     1024
 91
        5
280
     0
281
     0
  0
CLASS
  1
ACIMREALSYSVAR
  2
AcImRealSysVar
  3
AcMeServices
 90
     1024
 91
        3
280
     0
281
     0
  0
CLASS
  1
ACIMINTSYSVAR
  2
AcImIntSysVar
  3
AcMeServices
 90
     1024
 91
       27
280
     0
281
     0
  0
CLASS
  1
ACMEDRAWINGMAN
  2
AcMeDrawingMan
  3
AcMeServices
 90
     1024
 91
        1
280
     0
281
     0
  0
CLASS
  1
ACMEVIEW
  2
AcMeView
  3
AcMeServices
 90
     1024
 91
        1
280
     0
281
     0
  0
CLASS
  1
ACDBENTITYCACHE
  2
AcMeEntityCache
  3
AcMeServices
 90
     1024
 91
        1
280
     0
281
     0
  0
CLASS
  1
GSMANAGER
  2
AcMeGSManager
  3
AcMeServices
 90
     1024
 91
        1
280
     0
281
     0
  0
CLASS
  1
AMDTINTERNALREACTOR
  2
AmdtInternalReactor
  3
AcMeServices
 90
     1024
 91
        2
280
     0
281
     0
  0
CLASS
  1
ACMESTATEMGR
  2
AcMeStateMgr
  3
AcMeServices
 90
     1024
 91
        1
280
     0
281
     0
  0
CLASS
  1
ACGREFMASTER
  2
AcGrefMaster
  3
AcAttribServices
 90
     1024
 91
        1
280
     0
281
     0
  0
CLASS
  1
ACME_DATABASE
  2
AcMeDbDatabase
  3
AcMeServices
 90
     1024
 91
        2
280
     0
281
     0
  0
CLASS
  1
ACRFINSADJUSTERMGR
  2
AcRfInsAdjusterMgr
  3
AcMeServices
 90
     1024
 91
        1
280
     0
281
     0
  0
CLASS
  1
ACGREFACADMASTER
  2
AcGrefacadMaster
  3
AcGrefServices
 90
     1024
 91
        1
280
     0
281
     0
  0
CLASS
  1
AMIMASTER
  2
AmiMaster
  3
AmiServices
 90
     1024
 91
        1
280
     0
281
     0
  0
CLASS
  1
ACMDATADICTIONARY
  2
AcmDataDictionary
  3
"AcmSymBB|Product Description: AutoCAD Mechanical|Company: Autodesk, Inc."
 90
     1024
 91
        1
280
     0
281
     0
  0
CLASS
  1
ACMDATAENTRYBLOCK
  2
AcmDataEntryBlock
  3
AcmSymBB|Product Description: AutoCAD Mechanical|Company: Autodesk, Inc.
 90
     1024
 91
        1
280
     0
281
     0
  0
CLASS
  1
ACIMSTRSYSVAR
  2
AcImStrSysVar
  3
AcMeServices
 90
     1024
 91
        5
280
     0
281
     0
  0
CLASS
  1
ACMSTANDARDANSI
  2
AcmStandardANSI
  3
"Amdt_StdImp|Product Description: AutoCAD Mechanical|Company: Autodesk, Inc."
 90
     1024
 91
        1
280
     0
281
     0
  0
CLASS
  1
AMGOBJPROPCFG
  2
AmgObjPropCfg
  3
"AmgLay|Product Description: AutoCAD Mechanical|Company: Autodesk, Inc."
 90
     1025
 91
        1
280
     0
281
     0
  0
CLASS
  1
ACMSURFSTANDARDANSI
  2
AcmSurfTextStdANSI
  3
"Amdt_StdImp|Product Description: AutoCAD Mechanical|Company: Autodesk, Inc."
 90
     1024
 91
        1
280
     0
281
     0
  0
CLASS
  1
ACMFCFSTANDARDANSI
  2
AcmFCFStdANSI
  3
"Amdt_StdImp|Product Description: AutoCAD Mechanical|Company: Autodesk, Inc."
 90
     1024
 91
        1
280
     0
281
     0
  0
CLASS
  1
ACMWELDSTANDARDANSI
  2
AcmWeldingStdANSI
  3
"Amdt_StdImp|Product Description: AutoCAD Mechanical|Company: Autodesk, Inc."
 90
     1024
 91
        1
280
     0
281
     0
  0
CLASS
  1
ACMIDSTANDARDANSI
  2
AcmIdStdANSI
  3
"Amdt_StdImp|Product Description: AutoCAD Mechanical|Company: Autodesk, Inc."
 90
     1024
 91
        1
280
     0
281
     0
  0
CLASS
  1
ACMDATUMSTANDARDANSI
  2
AcmDatumStdANSI
  3
"Amdt_StdImp|Product Description: AutoCAD Mechanical|Company: Autodesk, Inc."
 90
     1024
 91
        1
280
     0
281
     0
  0
CLASS
  1
ACMBOMSTANDARDANSI
  2
AcmBOMStdANSI
  3
"Amdt_StdImp|Product Description: AutoCAD Mechanical|Company: Autodesk, Inc."
 90
     1024
 91
        1
280
     0
281
     0
  0
CLASS
  1
ACMDETAILSTANDARDANSI
  2
AmdtDetailSymStdANSI
  3
"Amdt_StdImp|Product Description: AutoCAD Mechanical|Company: Autodesk, Inc."
 90
     1024
 91
        1
280
     0
281
     0
  0
CLASS
  1
ACMSECTIONSTANDARDANSI
  2
AmdtSectionSymStdANSI
  3
"Amdt_StdImp|Product Description: AutoCAD Mechanical|Company: Autodesk, Inc."
 90
     1024
 91
        1
280
     0
281
     0
  0
CLASS
  1
ACMCENTERLINESTANDARDANSI
  2
AmdtCenterLineStdANSI
  3
"Amdt_StdImp|Product Description: AutoCAD Mechanical|Company: Autodesk, Inc."
 90
     1024
 91
        1
280
     0
281
     0
  0
CLASS
  1
ACMNOTESTANDARDANSI
  2
AmdtNoteStdANSI
  3
"Amdt_StdImp|Product Description: AutoCAD Mechanical|Company: Autodesk, Inc."
 90
     1024
 91
        1
280
     0
281
     0
  0
CLASS
  1
ACAMGLAYSTD
  2
AcAmgLayStd
  3
"AmgLay|Product Description: AutoCAD Mechanical|Company: Autodesk, Inc."
 90
     1024
 91
        1
280
     0
281
     0
  0
CLASS
  1
ACAMGDIMSTD
  2
AcAmgDimStd
  3
"AmgDim|Product Description: AutoCAD Mechanical|Company: Autodesk, Inc."
 90
     1024
 91
        1
280
     0
281
     0
  0
CLASS
  1
ACAMGHOLECHARTSTDANSI
  2
AcAmgHoleChartStdANSI
  3
AmgDim|Product Description: AutoCAD Mechanical|Company: Autodesk, Inc.
 90
     1024
 91
        1
280
     0
281
     0
  0
CLASS
  1
ACAMGTITLESTD
  2
AcAmgTitleStd
  3
"AmgTitle|Product Description: AutoCAD Mechanical|Company: Autodesk, Inc."
 90
     4095
 91
        1
280
     0
281
     0
  0
CLASS
  1
LAYER_INDEX
  2
AcDbLayerIndex
  3
ObjectDBX Classes
 90
        0
 91
        0
280
     0
281
     0
  0
CLASS
  1
IDBUFFER
  2
AcDbIdBuffer
  3
ObjectDBX Classes
 90
        0
 91
        0
280
     0
281
     0
  0
CLASS
  1
DICTIONARYVAR
  2
AcDbDictionaryVar
  3
ObjectDBX Classes
 90
        0
 91
        9
280
     0
281
     0
  0
CLASS
  1
AM_DRAWING_MGR
  2
AcDmDwgMgr
  3
AcMechDwgViewMgmt
 90
     1024
 91
        1
280
     0
281
     0
  0
CLASS
  1
AM_DWG_DOCUMENT
  2
AcDmDwgDocument
  3
AcMechDwgViewMgmt
 90
     1024
 91
        1
280
     0
281
     0
  0
CLASS
  1
AM_DWG_SHEET
  2
AcDmSheet
  3
AcMechDwgViewMgmt
 90
     1024
 91
        2
280
     0
281
     0
  0
CLASS
  1
AM_VIEWDIMPARMAP
  2
AcDmViewDimParMap
  3
AcMechDwgViewMgmt
 90
     1024
 91
        2
280
     0
281
     0
  0
CLASS
  1
AM_DWGMGR_NAME
  2
AcDmDwgMgrName
  3
AcMechDwgViewMgmt
 90
     1024
 91
        1
280
     0
281
     0
  0
CLASS
  1
AMDTMENUSTATEMGR
  2
AmdtMenuStateMgr
  3
McadcomServices
 90
     1024
 91
        1
280
     0
281
     0
  0
CLASS
  1
AMDTMCOMMENUSTATE
  2
AmdtMcomMenuState
  3
McadcomServices
 90
     1024
 91
        1
280
     0
281
     0
  0
CLASS
  1
MAPIAMMOUDLE
  2
MApiAmModule
  3
MApiAmServices
 90
     1024
 91
        1
280
     0
281
     0
  0
CLASS
  1
AMDTADMENUSTATE
  2
AmdtAdMenuState
  3
DesignerServices
 90
     1024
 91
        1
280
     0
281
     0
  0
CLASS
  1
ADAPPL
  2
AcAdAppl
  3
DesignerServices
 90
     1024
 91
        1
280
     0
281
     0
  0
CLASS
  1
DEPMGR
  2
AcAdDepMgr
  3
DesignerServices
 90
     1024
 91
        1
280
     0
281
     0
  0
CLASS
  1
PARAMMGR
  2
AcAdParamMgr
  3
DesignerServices
 90
     1024
 91
        1
280
     0
281
     0
  0
CLASS
  1
PARAMSCOPE
  2
AcAdParamScope
  3
DesignerServices
 90
     1024
 91
        1
280
     0
281
     0
  0
CLASS
  1
NAMEDAPPL
  2
AcAdNamedAppl
  3
DesignerServices
 90
     1024
 91
        1
280
     0
281
     0
  0
CLASS
  1
AMDTDMMENUSTATE
  2
AmdtDmMenuState
  3
AcMechDwgViewMgmt
 90
     1024
 91
        1
280
     0
281
     0
  0
CLASS
  1
AMDTAMMENUSTATE
  2
AmdtAmMenuState
  3
DesignerAssemblies
 90
     1024
 91
        1
280
     0
281
     0
  0
CLASS
  1
ACAMPROJECT
  2
AcAmProject
  3
DesignerAssemblies
 90
     1024
 91
        1
280
     0
281
     0
  0
CLASS
  1
ACAMGRCOMPDEF
  2
AcAmGrCompDef
  3
DesignerAssemblies
 90
     1024
 91
        1
280
     0
281
     0
  0
CLASS
  1
ACCMCONTEXT
  2
AcCmContext
  3
DesignerAssemblies
 90
     1024
 91
        1
280
     0
281
     0
  0
CLASS
  1
ACAMCOMPDEF
  2
AcAmCompDef
  3
DesignerAssemblies
 90
     1024
 91
        1
280
     0
281
     0
  0
CLASS
  1
ACAMCOMPDEFMGR
  2
AcAmCompDefMgr
  3
DesignerAssemblies
 90
     1024
 91
        1
280
     0
281
     0
  0
CLASS
  1
AMCONTEXTMGR
  2
AcAmContextMgr
  3
DesignerAssemblies
 90
     1024
 91
        1
280
     0
281
     0
  0
CLASS
  1
ACAMCONTEXTMODELER
  2
AcAmContextModeler
  3
DesignerAssemblies
 90
     1024
 91
        1
280
     0
281
     0
  0
CLASS
  1
ACMTHREADLINESTANDARDANSI
  2
AmdtThreadLineStdANSI
  3
"Amdt_StdImp|Product Description: AutoCAD Mechanical|Company: Autodesk, Inc."
 90
     1024
 91
        1
280
     0
281
     0
  0
CLASS
  1
CATALOGSTATE
  2
AcAmCatalogState
  3
DesignerAssemblies
 90
     1024
 91
        1
280
     0
281
     0
  0
CLASS
  1
ACAMGRCOMPDEFSET
  2
AcAmGrCompDefSet
  3
DesignerAssemblies
 90
     1024
 91
        1
280
     0
281
     0
  0
CLASS
  1
AMDTBROWSERDBTAB
  2
AmdtBrowserDbTab
  3
McadcomServices
 90
     1024
 91
        1
280
     0
281
     0
  0
CLASS
  1
CBROWSERAPPOBJECT
  2
CBrowserAppObject
  3
McadcomServices
 90
     1024
 91
        3
280
     0
281
     0
  0
CLASS
  1
DM_PLACEHOLDER
  2
AcDmSelsetPlaceholder
  3
AcMechDwgViewMgmt
 90
     1024
 91
        1
280
     0
281
     0
  0
CLASS
  1
TABLESTYLE
  2
AcDbTableStyle
  3
ObjectDBX Classes
 90
     4095
 91
        1
280
     0
281
     0
  0
CLASS
  1
AMDTNOTETEMPLATEDB
  2
AmdtNoteTemplateDB
  3
AcmSymBB|Product Description: AutoCAD Mechanical|Company: Autodesk, Inc.
 90
     1024
 91
        6
280
     0
281
     0
  0
CLASS
  1
MATERIAL
  2
AcDbMaterial
  3
ObjectDBX Classes
 90
     1153
 91
        3
280
     0
281
     0
  0
CLASS
  1
VISUALSTYLE
  2
AcDbVisualStyle
  3
ObjectDBX Classes
 90
     4095
 91
       16
280
     0
281
     0
  0
CLASS
  1
ACRFATTGENMGR
  2
AcRfAttGeneralMgr
  3
AcAttribServices
 90
     1024
 91
        1
280
     0
281
     0
  0
CLASS
  1
ACRFOBJATTMGR
  2
AcRfObjAttGroupMgr
  3
AcAttribServices
 90
     1024
 91
        1
280
     0
281
     0
  0
CLASS
  1
ACRFMCADAPIATTHOLDER
  2
AcRfMCADAPIAttHolder
  3
AcAttribServices
 90
     1024
 91
        1
280
     0
281
     0
  0
CLASS
  1
AMDTSYSATTR
  2
AmdtSystemAttribute
  3
AcAttribServices
 90
     1024
 91
        1
280
     0
281
     0
  0
CLASS
  1
ACMTAPERSTANDARDANSI
  2
AcmTaperStdANSI
  3
"Amdt_StdImp|Product Description: AutoCAD Mechanical|Company: Autodesk, Inc."
 90
     1024
 91
        1
280
     0
281
     0
  0
CLASS
  1
CAMSSTRUCTBTNSTATE
  2
StructBtnState
  3
DesignerAssemblies
 90
     1024
 91
        1
280
     0
281
     0
  0
CLASS
  1
SCALE
  2
AcDbScale
  3
ObjectDBX Classes
 90
     1153
 91
       33
280
     0
281
     0
  0
CLASS
  1
MLEADERSTYLE
  2
AcDbMLeaderStyle
  3
ACDB_MLEADERSTYLE_CLASS
 90
     4095
 91
        1
280
     0
281
     0
  0
CLASS
  1
ACMANOOTATIONVIEWSTANDARDANSI
  2
AmdtAnViewStdANSI
  3
"Amdt_StdImp|Product Description: AutoCAD Mechanical|Company: Autodesk, Inc."
 90
     1024
 91
        1
280
     0
281
     0
  0
CLASS
  1
CELLSTYLEMAP
  2
AcDbCellStyleMap
  3
ObjectDBX Classes
 90
     1152
 91
        2
280
     0
281
     0
  0
CLASS
  1
EXACXREFPANELOBJECT
  2
ExAcXREFPanelObject
  3
EXAC_ESW
 90
     1025
 91
        1
280
     0
281
     0
  0
CLASS
  1
NPOCOLLECTION
  2
AcDbImpNonPersistentObjectsCollection
  3
ObjectDBX Classes
 90
     1153
 91
        1
280
     0
281
     0
  0
CLASS
  1
ACAMGFILTERDAT
  2
AcAmgFilterDat
  3
"AcadM|Product Description: AutoCAD Mechanical|Company: Autodesk, Inc."
 90
     1024
 91
        6
280
     0
281
     0
  0
ENDSEC
  0
SECTION
  2
TABLES
  0
TABLE
  2
VPORT
  5
8
330
0
100
AcDbSymbolTable
 70
     1
  0
VPORT
  5
291
330
8
100
AcDbSymbolTableRecord
100
AcDbViewportTableRecord
  2
*Active
 70
     0
 10
0.0
 20
0.0
 11
1.0
 21
1.0
 12
41.19884609672701
 22
26.03180702193097
 13
0.0
 23
0.0
 14
0.125
 24
0.125
 15
1.0
 25
1.0
 16
0.0
 26
0.0
 36
1.0
 17
0.0
 27
0.0
 37
0.0
 40
49.83706534648082
 41
1.442643391521196
 42
50.0
 43
0.0
 44
0.0
 50
0.0
 51
0.0
 71
     0
 72
   100
 73
     1
 74
     3
 75
     0
 76
     0
 77
     0
 78
     0
281
     0
 65
     1
110
0.0
120
0.0
130
0.0
111
1.0
121
0.0
131
0.0
112
0.0
122
1.0
132
0.0
 79
     0
146
0.0
348
29C
 60
     3
 61
     5
292
     1
282
     0
141
0.0
142
0.0
 63
   250
421
  3355443
  0
ENDTAB
  0
TABLE
  2
LTYPE
  5
5
330
0
100
AcDbSymbolTable
 70
    17
  0
LTYPE
  5
14
330
5
100
AcDbSymbolTableRecord
100
AcDbLinetypeTableRecord
  2
ByBlock
 70
     0
  3

 72
    65
 73
     0
 40
0.0
  0
LTYPE
  5
15
330
5
100
AcDbSymbolTableRecord
100
AcDbLinetypeTableRecord
  2
ByLayer
 70
     0
  3

 72
    65
 73
     0
 40
0.0
  0
LTYPE
  5
16
330
5
100
AcDbSymbolTableRecord
100
AcDbLinetypeTableRecord
  2
Continuous
 70
     0
  3
Solid line
 72
    65
 73
     0
 40
0.0
  0
LTYPE
  5
6C
330
5
100
AcDbSymbolTableRecord
100
AcDbLinetypeTableRecord
  2
AM_ISO02W050
 70
     0
  3
__ __ __ __ __ __ __ __ __ __ __ __ __ __ __
 72
    65
 73
     2
 40
7.5
 49
6.0
 74
     0
 49
-1.5
 74
     0
  0
LTYPE
  5
6D
330
5
100
AcDbSymbolTableRecord
100
AcDbLinetypeTableRecord
  2
AM_ISO08W050
 70
     0
  3
____ . ____ . ____ . ____ . ____ . ____ . ____
 72
    65
 73
     4
 40
18.0
 49
12.0
 74
     0
 49
-1.5
 74
     0
 49
3.0
 74
     0
 49
-1.5
 74
     0
  0
LTYPE
  5
6E
330
5
100
AcDbSymbolTableRecord
100
AcDbLinetypeTableRecord
  2
AM_ISO09W050
 70
     0
  3
_____ . . _____ . . _____ . . ____ .. ____
 72
    65
 73
     6
 40
22.5
 49
12.0
 74
     0
 49
-1.5
 74
     0
 49
3.0
 74
     0
 49
-1.5
 74
     0
 49
3.0
 74
     0
 49
-1.5
 74
     0
  0
LTYPE
  5
6F
330
5
100
AcDbSymbolTableRecord
100
AcDbLinetypeTableRecord
  2
Amconstr
 70
     0
  3
_______________________
 72
    65
 73
     2
 40
9999.0
 49
9999.0
 74
     0
 49
0.0
 74
     0
  0
LTYPE
  5
70
330
5
100
AcDbSymbolTableRecord
100
AcDbLinetypeTableRecord
  2
AM_ISO08W050x2
 70
     0
  3
__ . __ . __ . __ . __ . __
 72
    65
 73
     4
 40
9.0
 49
6.0
 74
     0
 49
-0.75
 74
     0
 49
1.5
 74
     0
 49
-0.75
 74
     0
  0
LTYPE
  5
71
330
5
100
AcDbSymbolTableRecord
100
AcDbLinetypeTableRecord
  2
AM_ISO02W050x2
 70
     0
  3
 _ _ _ _ _ _ _ _ _ _ _ _
 72
    65
 73
     2
 40
3.75
 49
3.0
 74
     0
 49
-0.75
 74
     0
  0
LTYPE
  5
74
330
5
100
AcDbSymbolTableRecord
100
AcDbLinetypeTableRecord
  2
Amzigzag
 70
     0
  3
/\/-/\/-/\/-/\/-/\/-/\/
 72
    65
 73
     2
 40
11.0001
 49
0.0001
 74
     4
 75
   136
340
254
 46
0.04
 50
0.0
 44
0.0
 45
0.0
 49
-11.0
 74
     0
  0
LTYPE
  5
75
330
5
100
AcDbSymbolTableRecord
100
AcDbLinetypeTableRecord
  2
HIDDEN
 70
     0
  3
Hidden __ __ __ __ __ __ __ __ __ __ __ __ __ _
 72
    65
 73
     2
 40
0.375
 49
0.25
 74
     0
 49
-0.125
 74
     0
  0
LTYPE
  5
76
330
5
100
AcDbSymbolTableRecord
100
AcDbLinetypeTableRecord
  2
CENTER
 70
     0
  3
Center ____ _ ____ _ ____ _ ____ _ ____ _ ____
 72
    65
 73
     4
 40
2.0
 49
1.25
 74
     0
 49
-0.25
 74
     0
 49
0.25
 74
     0
 49
-0.25
 74
     0
  0
LTYPE
  5
77
330
5
100
AcDbSymbolTableRecord
100
AcDbLinetypeTableRecord
  2
PHANTOM2
 70
     0
  3
Phantom (.5x) ___ _ _ ___ _ _ ___ _ _ ___ _ _
 72
    65
 73
     6
 40
1.25
 49
0.625
 74
     0
 49
-0.125
 74
     0
 49
0.125
 74
     0
 49
-0.125
 74
     0
 49
0.125
 74
     0
 49
-0.125
 74
     0
  0
LTYPE
  5
78
330
5
100
AcDbSymbolTableRecord
100
AcDbLinetypeTableRecord
  2
CENTER2
 70
     0
  3
Center (.5x) ___ _ ___ _ ___ _ ___ _ ___ _ ___
 72
    65
 73
     4
 40
1.125
 49
0.75
 74
     0
 49
-0.125
 74
     0
 49
0.125
 74
     0
 49
-0.125
 74
     0
  0
LTYPE
  5
79
330
5
100
AcDbSymbolTableRecord
100
AcDbLinetypeTableRecord
  2
HIDDEN2
 70
     0
  3
Hidden (.5x) _ _ _ _ _ _ _ _ _ _ _ _ _ _ _ _ _
 72
    65
 73
     2
 40
0.1875
 49
0.125
 74
     0
 49
-0.0625
 74
     0
  0
LTYPE
  5
7A
330
5
100
AcDbSymbolTableRecord
100
AcDbLinetypeTableRecord
  2
Amzigzag2
 70
     0
  3
/\/-/\/-/\/-/\/-/\/-/\/
 72
    65
 73
     2
 40
0.4401
 49
0.0001
 74
     4
 75
   136
340
254
 46
0.0016
 50
0.0
 44
0.0
 45
0.0
 49
-0.4400000000000001
 74
     0
  0
LTYPE
  5
87
330
5
100
AcDbSymbolTableRecord
100
AcDbLinetypeTableRecord
  2
ACANSTGB
 70
     0
  3
__ . . __ . .
 72
    65
 73
     6
 40
0.35433070866
 49
0.15748031496
 74
     0
 49
-0.03937007874
 74
     0
 49
0.03937007874
 74
     0
 49
-0.03937007874
 74
     0
 49
0.03937007874
 74
     0
 49
-0.03937007874
 74
     0
  0
LTYPE
  5
88
330
5
100
AcDbSymbolTableRecord
100
AcDbLinetypeTableRecord
  2
ACANSTGL
 70
     0
  3
_ _ _ _ _
 72
    65
 73
     2
 40
0.11811023622
 49
0.07874015748
 74
     0
 49
-0.03937007874
 74
     0
  0
ENDTAB
  0
TABLE
  2
LAYER
  5
2
330
0
100
AcDbSymbolTable
 70
     2
  0
LAYER
  5
10
102
{ACAD_XDICTIONARY
360
605
102
}
330
2
100
AcDbSymbolTableRecord
100
AcDbLayerTableRecord
  2
0
 70
     0
 62
     7
  6
Continuous
370
    -3
390
F
347
295
  0
LAYER
  5
38C
102
{ACAD_XDICTIONARY
360
607
102
}
330
2
100
AcDbSymbolTableRecord
100
AcDbLayerTableRecord
  2
LAYER_1
 70
     0
 62
   160
  6
Continuous
370
    -3
390
F
347
295
  0
ENDTAB
  0
TABLE
  2
STYLE
  5
3
330
0
100
AcDbSymbolTable
 70
     8
  0
STYLE
  5
11
330
3
100
AcDbSymbolTableRecord
100
AcDbTextStyleTableRecord
  2
STANDARD
 70
     0
 40
0.0
 41
1.0
 50
0.0
 71
     0
 42
0.2
  3
ROMANS.SHX
  4

  0
STYLE
  5
73
330
3
100
AcDbSymbolTableRecord
100
AcDbTextStyleTableRecord
  2

 70
     1
 40
0.0
 41
1.0
 50
0.0
 71
     0
 42
0.2
  3
ltypeshp.shx
  4

  0
STYLE
  5
7B
330
3
100
AcDbSymbolTableRecord
100
AcDbTextStyleTableRecord
  2
ACANSTS
 70
     0
 40
1.0
 41
1.0
 50
0.0
 71
     0
 42
0.2
  3
romans.shx
  4

  0
STYLE
  5
86
330
3
100
AcDbSymbolTableRecord
100
AcDbTextStyleTableRecord
  2
ACANSGDT
 70
     0
 40
0.0
 41
1.0
 50
0.0
 71
     0
 42
0.2
  3
amgdt.shx
  4

  0
STYLE
  5
13F
330
3
100
AcDbSymbolTableRecord
100
AcDbTextStyleTableRecord
  2
USER1
 70
     0
 40
0.0
 41
1.0
 50
0.0
 71
     0
 42
0.2
  3
TXT.SHX
  4

  0
STYLE
  5
140
330
3
100
AcDbSymbolTableRecord
100
AcDbTextStyleTableRecord
  2
USER2
 70
     0
 40
0.0
 41
1.0
 50
0.0
 71
     0
 42
0.2
  3
SIMPLEX.SHX
  4

  0
STYLE
  5
141
330
3
100
AcDbSymbolTableRecord
100
AcDbTextStyleTableRecord
  2
USER3
 70
     0
 40
0.0
 41
1.0
 50
0.0
 71
     0
 42
0.2
  3
ITALIC.SHX
  4

  0
STYLE
  5
254
330
3
100
AcDbSymbolTableRecord
100
AcDbTextStyleTableRecord
  2

 70
     1
 40
0.0
 41
1.0
 50
0.0
 71
     0
 42
0.2
  3
genltshp.shx
  4

  0
ENDTAB
  0
TABLE
  2
VIEW
  5
6
330
0
100
AcDbSymbolTable
 70
     0
  0
ENDTAB
  0
TABLE
  2
UCS
  5
7
330
0
100
AcDbSymbolTable
 70
     0
  0
ENDTAB
  0
TABLE
  2
APPID
  5
9
330
0
100
AcDbSymbolTable
 70
    13
  0
APPID
  5
12
330
9
100
AcDbSymbolTableRecord
100
AcDbRegAppTableRecord
  2
ACAD
 70
     0
  0
APPID
  5
4E
330
9
100
AcDbSymbolTableRecord
100
AcDbRegAppTableRecord
  2
MCAD_NO_VIS
 70
     0
  0
APPID
  5
4F
330
9
100
AcDbSymbolTableRecord
100
AcDbRegAppTableRecord
  2
ACAD_TEMP_GRAPHIC
 70
     0
  0
APPID
  5
60
330
9
100
AcDbSymbolTableRecord
100
AcDbRegAppTableRecord
  2
ACATTRIBSERVICES
 70
     0
  0
APPID
  5
F7
330
9
100
AcDbSymbolTableRecord
100
AcDbRegAppTableRecord
  2
AD_DRAW
 70
     0
  0
APPID
  5
115
330
9
100
AcDbSymbolTableRecord
100
AcDbRegAppTableRecord
  2
DESIGNERASSEMBLIES
 70
     0
  0
APPID
  5
11A
330
9
100
AcDbSymbolTableRecord
100
AcDbRegAppTableRecord
  2
ACADM_DIM_EDIT
 70
     0
  0
APPID
  5
11B
330
9
100
AcDbSymbolTableRecord
100
AcDbRegAppTableRecord
  2
AMDT_DM_ADJ
 70
     0
  0
APPID
  5
1D3
330
9
100
AcDbSymbolTableRecord
100
AcDbRegAppTableRecord
  2
ACAD_DSTYLE_DIMARC_LENGTH_SYMBOL
 70
     0
  0
APPID
  5
1D4
330
9
100
AcDbSymbolTableRecord
100
AcDbRegAppTableRecord
  2
ACAD_DSTYLE_DIMJOGGED_JOGANGLE_SYMBOL
 70
     0
  0
APPID
  5
2EE
330
9
100
AcDbSymbolTableRecord
100
AcDbRegAppTableRecord
  2
ACAD_MLEADERVER
 70
     0
  0
APPID
  5
38D
330
9
100
AcDbSymbolTableRecord
100
AcDbRegAppTableRecord
  2
DCO15
 70
     0
  0
APPID
  5
5FE
330
9
100
AcDbSymbolTableRecord
100
AcDbRegAppTableRecord
  2
ACAD_EXEMPT_FROM_CAD_STANDARDS
 70
     0
  0
ENDTAB
  0
TABLE
  2
DIMSTYLE
  5
A
330
0
100
AcDbSymbolTable
 70
     8
100
AcDbDimStyleTable
 71
     1
340
8C
  0
DIMSTYLE
105
27
330
A
100
AcDbSymbolTableRecord
100
AcDbDimStyleTableRecord
  2
Standard
 70
     0
340
11
  0
DIMSTYLE
105
8C
102
{ACAD_REACTORS
330
6A
102
}
330
A
100
AcDbSymbolTableRecord
100
AcDbDimStyleTableRecord
  2
AM_ANSI
 70
     0
  4
mm
 41
0.12
 42
0.05
 43
0.5
 44
0.1
 47
0.1
 48
0.1
 78
     7
 79
     2
 90
     1
140
0.12
141
0.0
146
0.71
147
0.06
176
   256
177
   256
178
   140
274
     4
284
     7
340
11
345
14
346
14
347
14
371
    -1
372
    -1
1001
ACAD_DSTYLE_DIMJOGGED_JOGANGLE_SYMBOL
1070
   384
1040
0.7853981633974483
  0
DIMSTYLE
105
8D
330
A
100
AcDbSymbolTableRecord
100
AcDbDimStyleTableRecord
  2
AM_ANSI$3
 70
     0
  4
mm
 41
0.12
 42
0.05
 43
0.5
 44
0.1
 47
0.1
 48
0.1
 78
     7
 79
     2
 90
     1
140
0.12
141
0.0
146
0.71
147
0.06
176
   256
177
   256
178
   140
274
     4
284
     7
288
     1
289
     0
340
11
345
14
346
14
347
14
371
    -1
372
    -1
1001
ACAD_DSTYLE_DIMJOGGED_JOGANGLE_SYMBOL
1070
   384
1040
0.7853981633974483
  0
DIMSTYLE
105
8E
330
A
100
AcDbSymbolTableRecord
100
AcDbDimStyleTableRecord
  2
AM_ANSI$4
 70
     0
  4
mm
 41
0.12
 42
0.05
 43
0.5
 44
0.1
 47
0.1
 48
0.1
 78
     7
 79
     2
 90
     1
140
0.12
141
0.0
146
0.71
147
0.06
176
   256
177
   256
178
   140
274
     4
284
     7
340
11
345
14
346
14
347
14
371
    -1
372
    -1
1001
ACAD_DSTYLE_DIMJOGGED_JOGANGLE_SYMBOL
1070
   384
1040
0.7853981633974483
  0
DIMSTYLE
105
8F
330
A
100
AcDbSymbolTableRecord
100
AcDbDimStyleTableRecord
  2
AM_ANSI$7
 70
     0
  4
mm
 41
0.12
 42
0.05
 43
0.5
 44
0.1
 47
0.1
 48
0.1
 78
     7
 79
     2
 90
     1
140
0.12
141
0.0
146
0.71
147
0.06
176
   256
177
   256
178
   140
274
     4
284
     7
340
11
345
14
346
14
347
14
371
    -1
372
    -1
1001
ACAD_DSTYLE_DIMJOGGED_JOGANGLE_SYMBOL
1070
   384
1040
0.7853981633974483
  0
DIMSTYLE
105
90
330
A
100
AcDbSymbolTableRecord
100
AcDbDimStyleTableRecord
  2
AM_ANSI$SF
 70
     0
  4
mm
 41
0.12
 42
0.05
 43
0.5
 44
0.1
 47
0.1
 48
0.1
 75
     1
 76
     1
 78
     7
 79
     2
 90
     1
140
0.12
141
0.0
146
0.71
147
0.06
176
   256
177
   256
178
   140
274
     4
284
     7
340
11
345
14
346
14
347
14
371
    -1
372
    -1
1001
ACAD_DSTYLE_DIMJOGGED_JOGANGLE_SYMBOL
1070
   384
1040
0.7853981633974483
  0
DIMSTYLE
105
95
330
A
100
AcDbSymbolTableRecord
100
AcDbDimStyleTableRecord
  2
AM_ANSI$SH
 70
     0
  4
mm
 41
0.12
 42
0.05
 43
0.5
 44
0.1
 47
0.1
 48
0.1
 75
     1
 76
     1
 78
     7
 79
     2
 90
     1
140
0.12
141
0.0
146
0.71
147
0.06
173
     1
176
   256
177
   256
178
   140
274
     4
284
     7
340
11
343
91
345
14
346
14
347
14
371
    -1
372
    -1
1001
ACAD_DSTYLE_DIMJOGGED_JOGANGLE_SYMBOL
1070
   384
1040
0.7853981633974483
  0
ENDTAB
  0
TABLE
  2
BLOCK_RECORD
  5
1
330
0
100
AcDbSymbolTable
 70
     5
  0
BLOCK_RECORD
  5
1F
102
{ACAD_XDICTIONARY
360
99
102
}
330
1
100
AcDbSymbolTableRecord
100
AcDbBlockTableRecord
  2
*Model_Space
340
22
 70
     0
280
     1
281
     0
  0
BLOCK_RECORD
  5
1B
330
1
100
AcDbSymbolTableRecord
100
AcDbBlockTableRecord
  2
*Paper_Space
340
1E
 70
     0
280
     1
281
     0
  0
BLOCK_RECORD
  5
23
330
1
100
AcDbSymbolTableRecord
100
AcDbBlockTableRecord
  2
*Paper_Space0
340
26
 70
     0
280
     1
281
     0
  0
BLOCK_RECORD
  5
91
330
1
100
AcDbSymbolTableRecord
100
AcDbBlockTableRecord
  2
GENAXEH
340
0
 70
     0
280
     1
281
     0
  0
ENDTAB
  0
ENDSEC
  0
SECTION
  2
BLOCKS
  0
BLOCK
  5
20
330
1F
100
AcDbEntity
  8
0
100
AcDbBlockBegin
  2
*Model_Space
 70
     0
 10
0.0
 20
0.0
 30
0.0
  3
*Model_Space
  1

  0
ENDBLK
  5
21
330
1F
100
AcDbEntity
  8
0
100
AcDbBlockEnd
  0
BLOCK
  5
1C
330
1B
100
AcDbEntity
 67
     1
  8
0
100
AcDbBlockBegin
  2
*Paper_Space
 70
     0
 10
0.0
 20
0.0
 30
0.0
  3
*Paper_Space
  1

  0
ENDBLK
  5
1D
330
1B
100
AcDbEntity
 67
     1
  8
0
100
AcDbBlockEnd
  0
BLOCK
  5
24
330
23
100
AcDbEntity
 67
     1
  8
0
100
AcDbBlockBegin
  2
*Paper_Space0
 70
     0
 10
0.0
 20
0.0
 30
0.0
  3
*Paper_Space0
  1

  0
ENDBLK
  5
25
330
23
100
AcDbEntity
 67
     1
  8
0
100
AcDbBlockEnd
  0
BLOCK
  5
93
330
91
100
AcDbEntity
  8
0
100
AcDbBlockBegin
  2
GENAXEH
 70
     0
 10
0.0
 20
0.0
 30
0.0
  3
GENAXEH
  1

  0
LINE
  5
92
330
91
100
AcDbEntity
  8
0
100
AcDbLine
 10
-1.0
 20
0.0
 30
0.0
 11
1.0
 21
0.0
 31
0.0
  0
ENDBLK
  5
94
330
91
100
AcDbEntity
  8
0
100
AcDbBlockEnd
  0
ENDSEC
  0
SECTION
  2
ENTITIES
  0
POLYLINE
  5
4CB
330
1F
100
AcDbEntity
  8
0
100
AcDb2dPolyline
 66
     1
 10
0.0
 20
0.0
 30
0.0
  0
VERTEX
  5
4CC
330
4CB
100
AcDbEntity
  8
0
100
AcDbVertex
100
AcDb2dVertex
 10
66.23135620701437
 20
41.81816161200829
 30
0.0
  0
VERTEX
  5
4CD
330
4CB
100
AcDbEntity
  8
0
100
AcDbVertex
100
AcDb2dVertex
 10
66.02413320701437
 20
42.30254261200829
 30
0.0
  0
VERTEX
  5
4CE
330
4CB
100
AcDbEntity
  8
0
100
AcDbVertex
100
AcDb2dVertex
 10
65.53940820701438
 20
42.50993761200828
 30
0.0
  0
SEQEND
  5
4CF
330
4CB
100
AcDbEntity
  8
0
  0
POLYLINE
  5
4D0
330
1F
100
AcDbEntity
  8
0
100
AcDb2dPolyline
 66
     1
 10
0.0
 20
0.0
 30
0.0
  0
VERTEX
  5
4D1
330
4D0
100
AcDbEntity
  8
0
100
AcDbVertex
100
AcDb2dVertex
 10
65.53940820701438
 20
18.1861846120083
 30
0.0
  0
VERTEX
  5
4D2
330
4D0
100
AcDbEntity
  8
0
100
AcDbVertex
100
AcDb2dVertex
 10
66.02413320701437
 20
18.39323561200829
 30
0.0
  0
VERTEX
  5
4D3
330
4D0
100
AcDbEntity
  8
0
100
AcDbVertex
100
AcDb2dVertex
 10
66.23135620701437
 20
18.8776156120083
 30
0.0
  0
SEQEND
  5
4D4
330
4D0
100
AcDbEntity
  8
0
  0
LINE
  5
4D5
330
1F
100
AcDbEntity
  8
0
100
AcDbLine
 10
66.23135620701437
 20
41.81816161200829
 30
0.0
 11
66.23135620701437
 21
18.8776156120083
 31
0.0
  0
POLYLINE
  5
4D6
330
1F
100
AcDbEntity
  8
0
100
AcDb2dPolyline
 66
     1
 10
0.0
 20
0.0
 30
0.0
  0
VERTEX
  5
4D7
330
4D6
100
AcDbEntity
  8
0
100
AcDbVertex
100
AcDb2dVertex
 10
59.11189420701437
 20
40.80289261200829
 30
0.0
  0
VERTEX
  5
4D8
330
4D6
100
AcDbEntity
  8
0
100
AcDbVertex
100
AcDb2dVertex
 10
58.88813520701439
 20
40.83630961200831
 30
0.0
  0
VERTEX
  5
4D9
330
4D6
100
AcDbEntity
  8
0
100
AcDbVertex
100
AcDb2dVertex
 10
58.67264420701437
 20
40.8569806120083
 30
0.0
  0
VERTEX
  5
4DA
330
4D6
100
AcDbEntity
  8
0
100
AcDbVertex
100
AcDb2dVertex
 10
58.46593820701437
 20
40.8735166120083
 30
0.0
  0
SEQEND
  5
4DB
330
4D6
100
AcDbEntity
  8
0
  0
POLYLINE
  5
4DC
330
1F
100
AcDbEntity
  8
0
100
AcDb2dPolyline
 66
     1
 10
0.0
 20
0.0
 30
0.0
  0
VERTEX
  5
4DD
330
4DC
100
AcDbEntity
  8
0
100
AcDbVertex
100
AcDb2dVertex
 10
58.46593820701437
 20
40.8735166120083
 30
0.0
  0
VERTEX
  5
4DE
330
4DC
100
AcDbEntity
  8
0
100
AcDbVertex
100
AcDb2dVertex
 10
58.43665520701437
 20
40.87833961200828
 30
0.0
  0
VERTEX
  5
4DF
330
4DC
100
AcDbEntity
  8
0
100
AcDbVertex
100
AcDb2dVertex
 10
58.38687320701438
 20
40.87833961200828
 30
0.0
  0
SEQEND
  5
4E0
330
4DC
100
AcDbEntity
  8
0
  0
POLYLINE
  5
4E1
330
1F
100
AcDbEntity
  8
0
100
AcDb2dPolyline
 66
     1
 10
0.0
 20
0.0
 30
0.0
  0
VERTEX
  5
4E2
330
4E1
100
AcDbEntity
  8
0
100
AcDbVertex
100
AcDb2dVertex
 10
62.06881920701437
 20
39.54818861200829
 30
0.0
  0
VERTEX
  5
4E3
330
4E1
100
AcDbEntity
  8
0
100
AcDbVertex
100
AcDb2dVertex
 10
62.01094220701438
 20
39.5936636120083
 30
0.0
  0
VERTEX
  5
4E4
330
4E1
100
AcDbEntity
  8
0
100
AcDbVertex
100
AcDb2dVertex
 10
61.94893020701437
 20
39.6398286120083
 30
0.0
  0
VERTEX
  5
4E5
330
4E1
100
AcDbEntity
  8
0
100
AcDbVertex
100
AcDb2dVertex
 10
61.89070820701438
 20
39.6804806120083
 30
0.0
  0
SEQEND
  5
4E6
330
4E1
100
AcDbEntity
  8
0
  0
POLYLINE
  5
4E7
330
1F
100
AcDbEntity
  8
0
100
AcDb2dPolyline
 66
     1
 10
0.0
 20
0.0
 30
0.0
  0
VERTEX
  5
4E8
330
4E7
100
AcDbEntity
  8
0
100
AcDbVertex
100
AcDb2dVertex
 10
61.54292520701438
 20
38.9887056120083
 30
0.0
  0
VERTEX
  5
4E9
330
4E7
100
AcDbEntity
  8
0
100
AcDbVertex
100
AcDb2dVertex
 10
61.49727820701437
 20
39.0345246120083
 30
0.0
  0
VERTEX
  5
4EA
330
4E7
100
AcDbEntity
  8
0
100
AcDbVertex
100
AcDb2dVertex
 10
61.45180320701438
 20
39.0765546120083
 30
0.0
  0
VERTEX
  5
4EB
330
4E7
100
AcDbEntity
  8
0
100
AcDbVertex
100
AcDb2dVertex
 10
61.40632720701437
 20
39.12168561200829
 30
0.0
  0
SEQEND
  5
4EC
330
4E7
100
AcDbEntity
  8
0
  0
SPLINE
  5
4ED
330
1F
100
AcDbEntity
  8
0
100
AcDbSpline
210
0.0
220
0.0
230
1.0
 70
     8
 71
     3
 72
     8
 73
     4
 74
     0
 42
0.0000000001
 43
0.0000000001
 40
0.0
 40
0.0
 40
0.0
 40
0.0
 40
1.0
 40
1.0
 40
1.0
 40
1.0
 10
61.89070788626785
 20
39.68048032728606
 30
0.0
 10
61.63043092229215
 20
39.8706495981194
 30
0.0
 10
61.38238404729214
 20
40.02051125176523
 30
0.0
 10
61.09971396265672
 20
40.16968388631383
 30
0.0
  0
SPLINE
  5
4EE
330
1F
100
AcDbEntity
  8
0
100
AcDbSpline
210
0.0
220
0.0
230
1.0
 70
     8
 71
     3
 72
     8
 73
     4
 74
     0
 42
0.0000000001
 43
0.0000000001
 40
0.0
 40
0.0
 40
0.0
 40
0.0
 40
1.0
 40
1.0
 40
1.0
 40
1.0
 10
61.40632746092061
 20
39.12168583943884
 30
0.0
 10
61.20530613930603
 20
39.30806550523745
 30
0.0
 10
60.98860963322966
 20
39.47618616495969
 30
0.0
 10
60.76002754772616
 20
39.62673683770274
 30
0.0
  0
LINE
  5
4EF
330
1F
100
AcDbEntity
  8
0
100
AcDbLine
 10
62.15132920701437
 20
38.2359516120083
 30
0.0
 11
61.54292520701438
 21
38.9887056120083
 31
0.0
  0
SPLINE
  5
4F0
330
1F
100
AcDbEntity
  8
0
100
AcDbSpline
210
0.0
220
0.0
230
1.0
 70
     8
 71
     3
 72
     8
 73
     4
 74
     0
 42
0.0000000001
 43
0.0000000001
 40
0.0
 40
0.0
 40
0.0
 40
0.0
 40
1.0
 40
1.0
 40
1.0
 40
1.0
 10
64.26799602645883
 20
36.243308560793
 30
0.0
 10
64.22923870224008
 20
36.3911031571472
 30
0.0
 10
64.17945707246575
 20
36.522361295168
 30
0.0
 10
64.13535985024353
 20
36.66602177693884
 30
0.0
  0
SPLINE
  5
4F1
330
1F
100
AcDbEntity
  8
0
100
AcDbSpline
210
0.0
220
0.0
230
1.0
 70
     8
 71
     3
 72
     8
 73
     4
 74
     0
 42
0.0000000001
 43
0.0000000001
 40
0.0
 40
0.0
 40
0.0
 40
0.0
 40
1.0
 40
1.0
 40
1.0
 40
1.0
 10
62.94662965276089
 20
36.02385597832772
 30
0.0
 10
62.93922269746575
 20
36.14064471530691
 30
0.0
 10
62.91441800996574
 20
36.25571090454299
 30
0.0
 10
62.89719253253519
 20
36.37215513197356
 30
0.0
  0
POLYLINE
  5
4F2
330
1F
100
AcDbEntity
  8
0
100
AcDb2dPolyline
 66
     1
 10
0.0
 20
0.0
 30
0.0
  0
VERTEX
  5
4F3
330
4F2
100
AcDbEntity
  8
0
100
AcDbVertex
100
AcDb2dVertex
 10
64.13536020701439
 20
36.66602161200831
 30
0.0
  0
VERTEX
  5
4F4
330
4F2
100
AcDbEntity
  8
0
100
AcDbVertex
100
AcDb2dVertex
 10
63.62600220701437
 20
37.7677636120083
 30
0.0
  0
VERTEX
  5
4F5
330
4F2
100
AcDbEntity
  8
0
100
AcDbVertex
100
AcDb2dVertex
 10
62.92613120701438
 20
38.73686861200829
 30
0.0
  0
VERTEX
  5
4F6
330
4F2
100
AcDbEntity
  8
0
100
AcDbVertex
100
AcDb2dVertex
 10
62.06881920701437
 20
39.54818861200829
 30
0.0
  0
SEQEND
  5
4F7
330
4F2
100
AcDbEntity
  8
0
  0
POLYLINE
  5
4F8
330
1F
100
AcDbEntity
  8
0
100
AcDb2dPolyline
 66
     1
 10
0.0
 20
0.0
 30
0.0
  0
VERTEX
  5
4F9
330
4F8
100
AcDbEntity
  8
0
100
AcDbVertex
100
AcDb2dVertex
 10
62.89719220701437
 20
36.3721556120083
 30
0.0
  0
VERTEX
  5
4FA
330
4F8
100
AcDbEntity
  8
0
100
AcDbVertex
100
AcDb2dVertex
 10
62.61142220701438
 20
37.35366261200829
 30
0.0
  0
VERTEX
  5
4FB
330
4F8
100
AcDbEntity
  8
0
100
AcDbVertex
100
AcDb2dVertex
 10
62.15132920701437
 20
38.2359516120083
 30
0.0
  0
SEQEND
  5
4FC
330
4F8
100
AcDbEntity
  8
0
  0
SPLINE
  5
4FD
330
1F
100
AcDbEntity
  8
0
100
AcDbSpline
210
0.0
220
0.0
230
1.0
 70
     8
 71
     3
 72
     8
 73
     4
 74
     0
 42
0.0000000001
 43
0.0000000001
 40
0.0
 40
0.0
 40
0.0
 40
0.0
 40
1.0
 40
1.0
 40
1.0
 40
1.0
 10
60.76002754772616
 20
39.62673683770274
 30
0.0
 10
60.05877836152825
 20
40.08286748006383
 30
0.0
 10
59.26502836152825
 20
40.34159415107079
 30
0.0
 10
58.43234878253518
 20
40.38879195923051
 30
0.0
  0
POLYLINE
  5
4FE
330
1F
100
AcDbEntity
  8
0
100
AcDb2dPolyline
 66
     1
 10
0.0
 20
0.0
 30
0.0
  0
VERTEX
  5
4FF
330
4FE
100
AcDbEntity
  8
0
100
AcDbVertex
100
AcDb2dVertex
 10
61.09971420701437
 20
40.1696836120083
 30
0.0
  0
VERTEX
  5
500
330
4FE
100
AcDbEntity
  8
0
100
AcDbVertex
100
AcDb2dVertex
 10
60.47046720701438
 20
40.44701361200829
 30
0.0
  0
VERTEX
  5
501
330
4FE
100
AcDbEntity
  8
0
100
AcDbVertex
100
AcDb2dVertex
 10
59.80763120701438
 20
40.66267661200829
 30
0.0
  0
VERTEX
  5
502
330
4FE
100
AcDbEntity
  8
0
100
AcDbVertex
100
AcDb2dVertex
 10
59.11189420701437
 20
40.80289261200829
 30
0.0
  0
SEQEND
  5
503
330
4FE
100
AcDbEntity
  8
0
  0
LINE
  5
504
330
1F
100
AcDbEntity
  8
0
100
AcDbLine
 10
38.55311420701438
 20
40.87833961200828
 30
0.0
 11
37.21951820701438
 21
40.87833961200828
 31
0.0
  0
LINE
  5
505
330
1F
100
AcDbEntity
  8
0
100
AcDbLine
 10
38.55311420701438
 20
41.3706446120083
 30
0.0
 11
37.21951820701438
 21
41.3706446120083
 31
0.0
  0
POLYLINE
  5
506
330
1F
100
AcDbEntity
  8
0
100
AcDb2dPolyline
 66
     1
 10
0.0
 20
0.0
 30
0.0
  0
VERTEX
  5
507
330
506
100
AcDbEntity
  8
0
100
AcDbVertex
100
AcDb2dVertex
 10
38.99184720701438
 20
37.60963361200829
 30
0.0
  0
VERTEX
  5
508
330
506
100
AcDbEntity
  8
0
100
AcDbVertex
100
AcDb2dVertex
 10
38.99184720701438
 20
37.6061886120083
 30
0.0
  0
VERTEX
  5
509
330
506
100
AcDbEntity
  8
0
100
AcDbVertex
100
AcDb2dVertex
 10
39.00028720701437
 20
37.6020546120083
 30
0.0
  0
SEQEND
  5
50A
330
506
100
AcDbEntity
  8
0
  0
SPLINE
  5
50B
330
1F
100
AcDbEntity
  8
0
100
AcDbSpline
210
0.0
220
0.0
230
1.0
 70
     8
 71
     3
 72
     8
 73
     4
 74
     0
 42
0.0000000001
 43
0.0000000001
 40
0.0
 40
0.0
 40
0.0
 40
0.0
 40
1.0
 40
1.0
 40
1.0
 40
1.0
 10
38.99184720918451
 20
37.60963343058467
 30
0.0
 10
38.95619047090326
 20
37.68955964586246
 30
0.0
 10
38.82544909720535
 20
37.79808015367496
 30
0.0
 10
38.75172405380256
 20
37.83838777086244
 30
0.0
  0
LINE
  5
50C
330
1F
100
AcDbEntity
  8
0
100
AcDbLine
 10
38.99649820701439
 20
37.60963361200829
 30
0.0
 11
37.22347920701437
 21
40.87833961200828
 31
0.0
  0
POLYLINE
  5
50D
330
1F
100
AcDbEntity
  8
0
100
AcDb2dPolyline
 66
     1
 10
0.0
 20
0.0
 30
0.0
  0
VERTEX
  5
50E
330
50D
100
AcDbEntity
  8
0
100
AcDbVertex
100
AcDb2dVertex
 10
33.32621520701437
 20
39.49926861200829
 30
0.0
  0
VERTEX
  5
50F
330
50D
100
AcDbEntity
  8
0
100
AcDbVertex
100
AcDb2dVertex
 10
33.18100420701437
 20
39.3828236120083
 30
0.0
  0
VERTEX
  5
510
330
50D
100
AcDbEntity
  8
0
100
AcDbVertex
100
AcDb2dVertex
 10
33.01977420701437
 20
39.27464761200831
 30
0.0
  0
VERTEX
  5
511
330
50D
100
AcDbEntity
  8
0
100
AcDbVertex
100
AcDb2dVertex
 10
32.84579720701437
 20
39.18817661200829
 30
0.0
  0
SEQEND
  5
512
330
50D
100
AcDbEntity
  8
0
  0
POLYLINE
  5
513
330
1F
100
AcDbEntity
  8
0
100
AcDb2dPolyline
 66
     1
 10
0.0
 20
0.0
 30
0.0
  0
VERTEX
  5
514
330
513
100
AcDbEntity
  8
0
100
AcDbVertex
100
AcDb2dVertex
 10
33.18100420701437
 20
39.99570661200831
 30
0.0
  0
VERTEX
  5
515
330
513
100
AcDbEntity
  8
0
100
AcDbVertex
100
AcDb2dVertex
 10
32.93295820701438
 20
39.80071461200829
 30
0.0
  0
VERTEX
  5
516
330
513
100
AcDbEntity
  8
0
100
AcDbVertex
100
AcDb2dVertex
 10
32.81220720701437
 20
39.72251061200829
 30
0.0
  0
VERTEX
  5
517
330
513
100
AcDbEntity
  8
0
100
AcDbVertex
100
AcDb2dVertex
 10
32.65958920701437
 20
39.6436176120083
 30
0.0
  0
SEQEND
  5
518
330
513
100
AcDbEntity
  8
0
  0
POLYLINE
  5
519
330
1F
100
AcDbEntity
  8
0
100
AcDb2dPolyline
 66
     1
 10
0.0
 20
0.0
 30
0.0
  0
VERTEX
  5
51A
330
519
100
AcDbEntity
  8
0
100
AcDbVertex
100
AcDb2dVertex
 10
32.84579720701437
 20
39.18817661200829
 30
0.0
  0
VERTEX
  5
51B
330
519
100
AcDbEntity
  8
0
100
AcDbVertex
100
AcDb2dVertex
 10
32.66768520701437
 20
39.11376261200829
 30
0.0
  0
VERTEX
  5
51C
330
519
100
AcDbEntity
  8
0
100
AcDbVertex
100
AcDb2dVertex
 10
32.47355420701437
 20
39.0558846120083
 30
0.0
  0
VERTEX
  5
51D
330
519
100
AcDbEntity
  8
0
100
AcDbVertex
100
AcDb2dVertex
 10
32.27012120701437
 20
39.0145436120083
 30
0.0
  0
VERTEX
  5
51E
330
519
100
AcDbEntity
  8
0
100
AcDbVertex
100
AcDb2dVertex
 10
32.06341520701438
 20
38.9931836120083
 30
0.0
  0
SEQEND
  5
51F
330
519
100
AcDbEntity
  8
0
  0
POLYLINE
  5
520
330
1F
100
AcDbEntity
  8
0
100
AcDb2dPolyline
 66
     1
 10
0.0
 20
0.0
 30
0.0
  0
VERTEX
  5
521
330
520
100
AcDbEntity
  8
0
100
AcDbVertex
100
AcDb2dVertex
 10
32.65958920701437
 20
39.6436176120083
 30
0.0
  0
VERTEX
  5
522
330
520
100
AcDbEntity
  8
0
100
AcDbVertex
100
AcDb2dVertex
 10
32.50249320701438
 20
39.5771276120083
 30
0.0
  0
VERTEX
  5
523
330
520
100
AcDbEntity
  8
0
100
AcDbVertex
100
AcDb2dVertex
 10
32.35297620701438
 20
39.5316526120083
 30
0.0
  0
VERTEX
  5
524
330
520
100
AcDbEntity
  8
0
100
AcDbVertex
100
AcDb2dVertex
 10
32.19570720701438
 20
39.5030576120083
 30
0.0
  0
VERTEX
  5
525
330
520
100
AcDbEntity
  8
0
100
AcDbVertex
100
AcDb2dVertex
 10
32.02982620701438
 20
39.48652161200831
 30
0.0
  0
SEQEND
  5
526
330
520
100
AcDbEntity
  8
0
  0
SPLINE
  5
527
330
1F
100
AcDbEntity
  8
0
100
AcDbSpline
210
0.0
220
0.0
230
1.0
 70
     8
 71
     3
 72
     8
 73
     4
 74
     0
 42
0.0000000001
 43
0.0000000001
 40
0.0
 40
0.0
 40
0.0
 40
0.0
 40
1.0
 40
1.0
 40
1.0
 40
1.0
 10
37.21951783635466
 20
40.8783400278069
 30
0.0
 10
35.79118124781298
 20
40.87971806600136
 30
0.0
 10
34.4427708745491
 20
40.39154803561939
 30
0.0
 10
33.32621542750047
 20
39.49926830471661
 30
0.0
  0
SPLINE
  5
528
330
1F
100
AcDbEntity
  8
0
100
AcDbSpline
210
0.0
220
0.0
230
1.0
 70
     8
 71
     3
 72
     8
 73
     4
 74
     0
 42
0.0000000001
 43
0.0000000001
 40
0.0
 40
0.0
 40
0.0
 40
0.0
 40
1.0
 40
1.0
 40
1.0
 40
1.0
 10
38.75172405380256
 20
37.83838777086244
 30
0.0
 10
37.24501154295187
 20
38.64212854777218
 30
0.0
 10
34.97762194876784
 20
39.0641527448208
 30
0.0
 10
33.32621542750047
 20
39.49926830471661
 30
0.0
  0
SPLINE
  5
529
330
1F
100
AcDbEntity
  8
0
100
AcDbSpline
210
0.0
220
0.0
230
1.0
 70
     8
 71
     3
 72
     8
 73
     4
 74
     0
 42
0.0000000001
 43
0.0000000001
 40
0.0
 40
0.0
 40
0.0
 40
0.0
 40
1.0
 40
1.0
 40
1.0
 40
1.0
 10
37.19867500866367
 20
41.37064417277217
 30
0.0
 10
35.7605198979866
 20
41.36340947225136
 30
0.0
 10
34.31116822697966
 20
40.89625452433466
 30
0.0
 10
33.18100465276091
 20
39.99570656426524
 30
0.0
  0
POLYLINE
  5
52A
330
1F
100
AcDbEntity
  8
0
100
AcDb2dPolyline
 66
     1
 10
0.0
 20
0.0
 30
0.0
  0
VERTEX
  5
52B
330
52A
100
AcDbEntity
  8
0
100
AcDbVertex
100
AcDb2dVertex
 10
58.36224120701437
 20
40.39327061200829
 30
0.0
  0
VERTEX
  5
52C
330
52A
100
AcDbEntity
  8
0
100
AcDbVertex
100
AcDb2dVertex
 10
51.90148120701437
 20
40.66267661200829
 30
0.0
  0
VERTEX
  5
52D
330
52A
100
AcDbEntity
  8
0
100
AcDbVertex
100
AcDb2dVertex
 10
45.44451120701437
 20
40.8242516120083
 30
0.0
  0
VERTEX
  5
52E
330
52A
100
AcDbEntity
  8
0
100
AcDbVertex
100
AcDb2dVertex
 10
38.55311420701438
 20
40.87833961200828
 30
0.0
  0
SEQEND
  5
52F
330
52A
100
AcDbEntity
  8
0
  0
POLYLINE
  5
530
330
1F
100
AcDbEntity
  8
0
100
AcDb2dPolyline
 66
     1
 10
0.0
 20
0.0
 30
0.0
  0
VERTEX
  5
531
330
530
100
AcDbEntity
  8
0
100
AcDbVertex
100
AcDb2dVertex
 10
58.38308420701437
 20
40.88591961200829
 30
0.0
  0
VERTEX
  5
532
330
530
100
AcDbEntity
  8
0
100
AcDbVertex
100
AcDb2dVertex
 10
51.91836220701437
 20
41.1549816120083
 30
0.0
  0
VERTEX
  5
533
330
530
100
AcDbEntity
  8
0
100
AcDbVertex
100
AcDb2dVertex
 10
45.45295120701436
 20
41.3165566120083
 30
0.0
  0
VERTEX
  5
534
330
530
100
AcDbEntity
  8
0
100
AcDbVertex
100
AcDb2dVertex
 10
38.55759320701438
 20
41.3706446120083
 30
0.0
  0
SEQEND
  5
535
330
530
100
AcDbEntity
  8
0
  0
SPLINE
  5
536
330
1F
100
AcDbEntity
  8
0
100
AcDbSpline
210
0.0
220
0.0
230
1.0
 70
     8
 71
     3
 72
     8
 73
     4
 74
     0
 42
0.0000000001
 43
0.0000000001
 40
0.0
 40
0.0
 40
0.0
 40
0.0
 40
1.0
 40
1.0
 40
1.0
 40
1.0
 10
64.13535985024353
 20
24.03010055298052
 30
0.0
 10
64.17945707246575
 20
24.17307201565413
 30
0.0
 10
64.22923870224008
 20
24.30433015367496
 30
0.0
 10
64.26799602645883
 20
24.45212475002913
 30
0.0
  0
SPLINE
  5
537
330
1F
100
AcDbEntity
  8
0
100
AcDbSpline
210
0.0
220
0.0
230
1.0
 70
     8
 71
     3
 72
     8
 73
     4
 74
     0
 42
0.0000000001
 43
0.0000000001
 40
0.0
 40
0.0
 40
0.0
 40
0.0
 40
1.0
 40
1.0
 40
1.0
 40
1.0
 10
62.89719253253519
 20
24.32362268839718
 30
0.0
 10
62.91441800996574
 20
24.44075593492495
 30
0.0
 10
62.9402562261116
 20
24.55685565280691
 30
0.0
 10
62.94662965276089
 20
24.67536693752912
 30
0.0
  0
POLYLINE
  5
538
330
1F
100
AcDbEntity
  8
0
100
AcDb2dPolyline
 66
     1
 10
0.0
 20
0.0
 30
0.0
  0
VERTEX
  5
539
330
538
100
AcDbEntity
  8
0
100
AcDbVertex
100
AcDb2dVertex
 10
61.09971420701437
 20
20.52643861200829
 30
0.0
  0
VERTEX
  5
53A
330
538
100
AcDbEntity
  8
0
100
AcDbVertex
100
AcDb2dVertex
 10
61.17877920701437
 20
20.5715696120083
 30
0.0
  0
VERTEX
  5
53B
330
538
100
AcDbEntity
  8
0
100
AcDbVertex
100
AcDb2dVertex
 10
61.26128920701437
 20
20.6132546120083
 30
0.0
  0
VERTEX
  5
53C
330
538
100
AcDbEntity
  8
0
100
AcDbVertex
100
AcDb2dVertex
 10
61.34397120701438
 20
20.65872961200829
 30
0.0
  0
SEQEND
  5
53D
330
538
100
AcDbEntity
  8
0
  0
SPLINE
  5
53E
330
1F
100
AcDbEntity
  8
0
100
AcDbSpline
210
0.0
220
0.0
230
1.0
 70
     8
 71
     3
 72
     8
 73
     4
 74
     0
 42
0.0000000001
 43
0.0000000001
 40
0.0
 40
0.0
 40
0.0
 40
0.0
 40
1.0
 40
1.0
 40
1.0
 40
1.0
 10
61.343971232622
 20
20.65873011027219
 30
0.0
 10
61.59253487194492
 20
20.80549117798052
 30
0.0
 10
61.84092625649353
 20
20.96982223266802
 30
0.0
 10
62.06881932289978
 20
21.14724465020274
 30
0.0
  0
POLYLINE
  5
53F
330
1F
100
AcDbEntity
  8
0
100
AcDb2dPolyline
 66
     1
 10
0.0
 20
0.0
 30
0.0
  0
VERTEX
  5
540
330
53F
100
AcDbEntity
  8
0
100
AcDbVertex
100
AcDb2dVertex
 10
61.40632720701437
 20
21.57374761200831
 30
0.0
  0
VERTEX
  5
541
330
53F
100
AcDbEntity
  8
0
100
AcDbVertex
100
AcDb2dVertex
 10
61.45180320701438
 20
21.61887861200829
 30
0.0
  0
VERTEX
  5
542
330
53F
100
AcDbEntity
  8
0
100
AcDbVertex
100
AcDb2dVertex
 10
61.49727820701437
 20
21.6602196120083
 30
0.0
  0
VERTEX
  5
543
330
53F
100
AcDbEntity
  8
0
100
AcDbVertex
100
AcDb2dVertex
 10
61.54292520701438
 20
21.7067286120083
 30
0.0
  0
SEQEND
  5
544
330
53F
100
AcDbEntity
  8
0
  0
POLYLINE
  5
545
330
1F
100
AcDbEntity
  8
0
100
AcDb2dPolyline
 66
     1
 10
0.0
 20
0.0
 30
0.0
  0
VERTEX
  5
546
330
545
100
AcDbEntity
  8
0
100
AcDbVertex
100
AcDb2dVertex
 10
60.76002720701437
 20
21.0686966120083
 30
0.0
  0
VERTEX
  5
547
330
545
100
AcDbEntity
  8
0
100
AcDbVertex
100
AcDb2dVertex
 10
60.83065220701437
 20
21.11451661200829
 30
0.0
  0
VERTEX
  5
548
330
545
100
AcDbEntity
  8
0
100
AcDbVertex
100
AcDb2dVertex
 10
60.89697020701438
 20
21.1637806120083
 30
0.0
  0
VERTEX
  5
549
330
545
100
AcDbEntity
  8
0
100
AcDbVertex
100
AcDb2dVertex
 10
60.96294320701438
 20
21.2092566120083
 30
0.0
  0
SEQEND
  5
54A
330
545
100
AcDbEntity
  8
0
  0
POLYLINE
  5
54B
330
1F
100
AcDbEntity
  8
0
100
AcDb2dPolyline
 66
     1
 10
0.0
 20
0.0
 30
0.0
  0
VERTEX
  5
54C
330
54B
100
AcDbEntity
  8
0
100
AcDbVertex
100
AcDb2dVertex
 10
60.96294320701438
 20
21.2092566120083
 30
0.0
  0
VERTEX
  5
54D
330
54B
100
AcDbEntity
  8
0
100
AcDbVertex
100
AcDb2dVertex
 10
61.11642220701438
 20
21.32570061200829
 30
0.0
  0
VERTEX
  5
54E
330
54B
100
AcDbEntity
  8
0
100
AcDbVertex
100
AcDb2dVertex
 10
61.26128920701437
 20
21.4459346120083
 30
0.0
  0
VERTEX
  5
54F
330
54B
100
AcDbEntity
  8
0
100
AcDbVertex
100
AcDb2dVertex
 10
61.40632720701437
 20
21.57374761200831
 30
0.0
  0
SEQEND
  5
550
330
54B
100
AcDbEntity
  8
0
  0
POLYLINE
  5
551
330
1F
100
AcDbEntity
  8
0
100
AcDb2dPolyline
 66
     1
 10
0.0
 20
0.0
 30
0.0
  0
VERTEX
  5
552
330
551
100
AcDbEntity
  8
0
100
AcDbVertex
100
AcDb2dVertex
 10
58.43234920701437
 20
20.3062966120083
 30
0.0
  0
VERTEX
  5
553
330
551
100
AcDbEntity
  8
0
100
AcDbVertex
100
AcDb2dVertex
 10
58.63147520701438
 20
20.3228336120083
 30
0.0
  0
VERTEX
  5
554
330
551
100
AcDbEntity
  8
0
100
AcDbVertex
100
AcDb2dVertex
 10
58.82646720701437
 20
20.3441926120083
 30
0.0
  0
VERTEX
  5
555
330
551
100
AcDbEntity
  8
0
100
AcDbVertex
100
AcDb2dVertex
 10
59.02042620701436
 20
20.3769216120083
 30
0.0
  0
SEQEND
  5
556
330
551
100
AcDbEntity
  8
0
  0
POLYLINE
  5
557
330
1F
100
AcDbEntity
  8
0
100
AcDb2dPolyline
 66
     1
 10
0.0
 20
0.0
 30
0.0
  0
VERTEX
  5
558
330
557
100
AcDbEntity
  8
0
100
AcDbVertex
100
AcDb2dVertex
 10
58.46593820701437
 20
19.82191661200829
 30
0.0
  0
VERTEX
  5
559
330
557
100
AcDbEntity
  8
0
100
AcDbVertex
100
AcDb2dVertex
 10
58.67264420701437
 20
19.8384526120083
 30
0.0
  0
VERTEX
  5
55A
330
557
100
AcDbEntity
  8
0
100
AcDbVertex
100
AcDb2dVertex
 10
58.88813520701439
 20
19.85981261200829
 30
0.0
  0
VERTEX
  5
55B
330
557
100
AcDbEntity
  8
0
100
AcDbVertex
100
AcDb2dVertex
 10
59.11189420701437
 20
19.89288561200829
 30
0.0
  0
SEQEND
  5
55C
330
557
100
AcDbEntity
  8
0
  0
LINE
  5
55D
330
1F
100
AcDbEntity
  8
0
100
AcDbLine
 10
58.36224120701437
 20
20.3028516120083
 30
0.0
 11
58.40771620701437
 21
20.3062966120083
 31
0.0
  0
LINE
  5
55E
330
1F
100
AcDbEntity
  8
0
100
AcDbLine
 10
58.40771620701437
 20
20.3062966120083
 30
0.0
 11
58.43234920701437
 21
20.3062966120083
 31
0.0
  0
POLYLINE
  5
55F
330
1F
100
AcDbEntity
  8
0
100
AcDb2dPolyline
 66
     1
 10
0.0
 20
0.0
 30
0.0
  0
VERTEX
  5
560
330
55F
100
AcDbEntity
  8
0
100
AcDbVertex
100
AcDb2dVertex
 10
58.38687320701438
 20
19.81812661200829
 30
0.0
  0
VERTEX
  5
561
330
55F
100
AcDbEntity
  8
0
100
AcDbVertex
100
AcDb2dVertex
 10
58.43665520701437
 20
19.81812661200829
 30
0.0
  0
VERTEX
  5
562
330
55F
100
AcDbEntity
  8
0
100
AcDbVertex
100
AcDb2dVertex
 10
58.46593820701437
 20
19.82191661200829
 30
0.0
  0
SEQEND
  5
563
330
55F
100
AcDbEntity
  8
0
  0
POLYLINE
  5
564
330
1F
100
AcDbEntity
  8
0
100
AcDb2dPolyline
 66
     1
 10
0.0
 20
0.0
 30
0.0
  0
VERTEX
  5
565
330
564
100
AcDbEntity
  8
0
100
AcDbVertex
100
AcDb2dVertex
 10
59.02042620701436
 20
20.3769216120083
 30
0.0
  0
VERTEX
  5
566
330
564
100
AcDbEntity
  8
0
100
AcDbVertex
100
AcDb2dVertex
 10
59.63399820701439
 20
20.5302276120083
 30
0.0
  0
VERTEX
  5
567
330
564
100
AcDbEntity
  8
0
100
AcDbVertex
100
AcDb2dVertex
 10
60.21329120701437
 20
20.7620826120083
 30
0.0
  0
VERTEX
  5
568
330
564
100
AcDbEntity
  8
0
100
AcDbVertex
100
AcDb2dVertex
 10
60.76002720701437
 20
21.0686966120083
 30
0.0
  0
SEQEND
  5
569
330
564
100
AcDbEntity
  8
0
  0
POLYLINE
  5
56A
330
1F
100
AcDbEntity
  8
0
100
AcDb2dPolyline
 66
     1
 10
0.0
 20
0.0
 30
0.0
  0
VERTEX
  5
56B
330
56A
100
AcDbEntity
  8
0
100
AcDbVertex
100
AcDb2dVertex
 10
59.11189420701437
 20
19.89288561200829
 30
0.0
  0
VERTEX
  5
56C
330
56A
100
AcDbEntity
  8
0
100
AcDbVertex
100
AcDb2dVertex
 10
59.80332420701437
 20
20.03310061200829
 30
0.0
  0
VERTEX
  5
56D
330
56A
100
AcDbEntity
  8
0
100
AcDbVertex
100
AcDb2dVertex
 10
60.47046720701438
 20
20.2484196120083
 30
0.0
  0
VERTEX
  5
56E
330
56A
100
AcDbEntity
  8
0
100
AcDbVertex
100
AcDb2dVertex
 10
61.09971420701437
 20
20.52643861200829
 30
0.0
  0
SEQEND
  5
56F
330
56A
100
AcDbEntity
  8
0
  0
POLYLINE
  5
570
330
1F
100
AcDbEntity
  8
0
100
AcDb2dPolyline
 66
     1
 10
0.0
 20
0.0
 30
0.0
  0
VERTEX
  5
571
330
570
100
AcDbEntity
  8
0
100
AcDbVertex
100
AcDb2dVertex
 10
45.44451120701437
 20
19.8718706120083
 30
0.0
  0
VERTEX
  5
572
330
570
100
AcDbEntity
  8
0
100
AcDbVertex
100
AcDb2dVertex
 10
51.90148120701437
 20
20.03310061200829
 30
0.0
  0
VERTEX
  5
573
330
570
100
AcDbEntity
  8
0
100
AcDbVertex
100
AcDb2dVertex
 10
58.36224120701437
 20
20.3028516120083
 30
0.0
  0
SEQEND
  5
574
330
570
100
AcDbEntity
  8
0
  0
POLYLINE
  5
575
330
1F
100
AcDbEntity
  8
0
100
AcDb2dPolyline
 66
     1
 10
0.0
 20
0.0
 30
0.0
  0
VERTEX
  5
576
330
575
100
AcDbEntity
  8
0
100
AcDbVertex
100
AcDb2dVertex
 10
45.45691320701436
 20
19.3792216120083
 30
0.0
  0
VERTEX
  5
577
330
575
100
AcDbEntity
  8
0
100
AcDbVertex
100
AcDb2dVertex
 10
51.91371120701437
 20
19.5407966120083
 30
0.0
  0
VERTEX
  5
578
330
575
100
AcDbEntity
  8
0
100
AcDbVertex
100
AcDb2dVertex
 10
58.38308420701437
 20
19.80951361200829
 30
0.0
  0
SEQEND
  5
579
330
575
100
AcDbEntity
  8
0
  0
POLYLINE
  5
57A
330
1F
100
AcDbEntity
  8
0
100
AcDb2dPolyline
 66
     1
 10
0.0
 20
0.0
 30
0.0
  0
VERTEX
  5
57B
330
57A
100
AcDbEntity
  8
0
100
AcDbVertex
100
AcDb2dVertex
 10
61.54292520701438
 20
21.7067286120083
 30
0.0
  0
VERTEX
  5
57C
330
57A
100
AcDbEntity
  8
0
100
AcDbVertex
100
AcDb2dVertex
 10
62.15132920701437
 20
22.4601706120083
 30
0.0
  0
VERTEX
  5
57D
330
57A
100
AcDbEntity
  8
0
100
AcDbVertex
100
AcDb2dVertex
 10
62.61142220701438
 20
23.3428036120083
 30
0.0
  0
VERTEX
  5
57E
330
57A
100
AcDbEntity
  8
0
100
AcDbVertex
100
AcDb2dVertex
 10
62.89719220701437
 20
24.32362261200831
 30
0.0
  0
SEQEND
  5
57F
330
57A
100
AcDbEntity
  8
0
  0
POLYLINE
  5
580
330
1F
100
AcDbEntity
  8
0
100
AcDb2dPolyline
 66
     1
 10
0.0
 20
0.0
 30
0.0
  0
VERTEX
  5
581
330
580
100
AcDbEntity
  8
0
100
AcDbVertex
100
AcDb2dVertex
 10
62.06881920701437
 20
21.1472446120083
 30
0.0
  0
VERTEX
  5
582
330
580
100
AcDbEntity
  8
0
100
AcDbVertex
100
AcDb2dVertex
 10
62.92613120701438
 20
21.9589096120083
 30
0.0
  0
VERTEX
  5
583
330
580
100
AcDbEntity
  8
0
100
AcDbVertex
100
AcDb2dVertex
 10
63.62169620701438
 20
22.9280146120083
 30
0.0
  0
VERTEX
  5
584
330
580
100
AcDbEntity
  8
0
100
AcDbVertex
100
AcDb2dVertex
 10
64.13536020701439
 20
24.0301006120083
 30
0.0
  0
SEQEND
  5
585
330
580
100
AcDbEntity
  8
0
  0
POLYLINE
  5
586
330
1F
100
AcDbEntity
  8
0
100
AcDb2dPolyline
 66
     1
 10
0.0
 20
0.0
 30
0.0
  0
VERTEX
  5
587
330
586
100
AcDbEntity
  8
0
100
AcDbVertex
100
AcDb2dVertex
 10
39.00028720701437
 20
23.09406761200829
 30
0.0
  0
VERTEX
  5
588
330
586
100
AcDbEntity
  8
0
100
AcDbVertex
100
AcDb2dVertex
 10
38.96290820701438
 20
23.03997961200829
 30
0.0
  0
VERTEX
  5
589
330
586
100
AcDbEntity
  8
0
100
AcDbVertex
100
AcDb2dVertex
 10
38.90899220701437
 20
22.9783126120083
 30
0.0
  0
VERTEX
  5
58A
330
586
100
AcDbEntity
  8
0
100
AcDbVertex
100
AcDb2dVertex
 10
38.83836820701438
 20
22.92009061200829
 30
0.0
  0
VERTEX
  5
58B
330
586
100
AcDbEntity
  8
0
100
AcDbVertex
100
AcDb2dVertex
 10
38.75172420701437
 20
22.8577346120083
 30
0.0
  0
SEQEND
  5
58C
330
586
100
AcDbEntity
  8
0
  0
LINE
  5
591
330
1F
100
AcDbEntity
  8
0
100
AcDbLine
 10
37.21951820701438
 20
19.81812661200829
 30
0.0
 11
38.55311420701438
 21
19.81812661200829
 31
0.0
  0
LINE
  5
592
330
1F
100
AcDbEntity
  8
0
100
AcDbLine
 10
37.21951820701438
 20
19.32478961200829
 30
0.0
 11
38.55311420701438
 21
19.32478961200829
 31
0.0
  0
POLYLINE
  5
593
330
1F
100
AcDbEntity
  8
0
100
AcDb2dPolyline
 66
     1
 10
0.0
 20
0.0
 30
0.0
  0
VERTEX
  5
594
330
593
100
AcDbEntity
  8
0
100
AcDbVertex
100
AcDb2dVertex
 10
32.84579720701437
 20
21.5079466120083
 30
0.0
  0
VERTEX
  5
595
330
593
100
AcDbEntity
  8
0
100
AcDbVertex
100
AcDb2dVertex
 10
33.01977420701437
 20
21.42078561200829
 30
0.0
  0
VERTEX
  5
596
330
593
100
AcDbEntity
  8
0
100
AcDbVertex
100
AcDb2dVertex
 10
33.18100420701437
 20
21.31295361200829
 30
0.0
  0
VERTEX
  5
597
330
593
100
AcDbEntity
  8
0
100
AcDbVertex
100
AcDb2dVertex
 10
33.32621520701437
 20
21.19719861200829
 30
0.0
  0
SEQEND
  5
598
330
593
100
AcDbEntity
  8
0
  0
POLYLINE
  5
599
330
1F
100
AcDbEntity
  8
0
100
AcDb2dPolyline
 66
     1
 10
0.0
 20
0.0
 30
0.0
  0
VERTEX
  5
59A
330
599
100
AcDbEntity
  8
0
100
AcDbVertex
100
AcDb2dVertex
 10
32.63874620701437
 20
21.0525046120083
 30
0.0
  0
VERTEX
  5
59B
330
599
100
AcDbEntity
  8
0
100
AcDbVertex
100
AcDb2dVertex
 10
32.79222520701438
 20
20.97361161200829
 30
0.0
  0
VERTEX
  5
59C
330
599
100
AcDbEntity
  8
0
100
AcDbVertex
100
AcDb2dVertex
 10
32.91245920701437
 20
20.89437461200829
 30
0.0
  0
VERTEX
  5
59D
330
599
100
AcDbEntity
  8
0
100
AcDbVertex
100
AcDb2dVertex
 10
33.04061720701437
 20
20.7910216120083
 30
0.0
  0
SEQEND
  5
59E
330
599
100
AcDbEntity
  8
0
  0
POLYLINE
  5
59F
330
1F
100
AcDbEntity
  8
0
100
AcDb2dPolyline
 66
     1
 10
0.0
 20
0.0
 30
0.0
  0
VERTEX
  5
5A0
330
59F
100
AcDbEntity
  8
0
100
AcDbVertex
100
AcDb2dVertex
 10
32.06341520701438
 20
21.7025936120083
 30
0.0
  0
VERTEX
  5
5A1
330
59F
100
AcDbEntity
  8
0
100
AcDbVertex
100
AcDb2dVertex
 10
32.27012120701437
 20
21.6815786120083
 30
0.0
  0
VERTEX
  5
5A2
330
59F
100
AcDbEntity
  8
0
100
AcDbVertex
100
AcDb2dVertex
 10
32.47355420701437
 20
21.64023761200829
 30
0.0
  0
VERTEX
  5
5A3
330
59F
100
AcDbEntity
  8
0
100
AcDbVertex
100
AcDb2dVertex
 10
32.66768520701437
 20
21.5827046120083
 30
0.0
  0
VERTEX
  5
5A4
330
59F
100
AcDbEntity
  8
0
100
AcDbVertex
100
AcDb2dVertex
 10
32.84579720701437
 20
21.5079466120083
 30
0.0
  0
SEQEND
  5
5A5
330
59F
100
AcDbEntity
  8
0
  0
POLYLINE
  5
5A6
330
1F
100
AcDbEntity
  8
0
100
AcDb2dPolyline
 66
     1
 10
0.0
 20
0.0
 30
0.0
  0
VERTEX
  5
5A7
330
5A6
100
AcDbEntity
  8
0
100
AcDbVertex
100
AcDb2dVertex
 10
32.09149320701437
 20
21.2092566120083
 30
0.0
  0
VERTEX
  5
5A8
330
5A6
100
AcDbEntity
  8
0
100
AcDbVertex
100
AcDb2dVertex
 10
32.18743920701437
 20
21.19719861200829
 30
0.0
  0
VERTEX
  5
5A9
330
5A6
100
AcDbEntity
  8
0
100
AcDbVertex
100
AcDb2dVertex
 10
32.34057320701437
 20
21.1637806120083
 30
0.0
  0
VERTEX
  5
5AA
330
5A6
100
AcDbEntity
  8
0
100
AcDbVertex
100
AcDb2dVertex
 10
32.48905720701438
 20
21.11451661200829
 30
0.0
  0
VERTEX
  5
5AB
330
5A6
100
AcDbEntity
  8
0
100
AcDbVertex
100
AcDb2dVertex
 10
32.64718720701438
 20
21.0483706120083
 30
0.0
  0
SEQEND
  5
5AC
330
5A6
100
AcDbEntity
  8
0
  0
SPLINE
  5
5AD
330
1F
100
AcDbEntity
  8
0
100
AcDbSpline
210
0.0
220
0.0
230
1.0
 70
     8
 71
     3
 72
     8
 73
     4
 74
     0
 42
0.0000000001
 43
0.0000000001
 40
0.0
 40
0.0
 40
0.0
 40
0.0
 40
1.0
 40
1.0
 40
1.0
 40
1.0
 10
33.32621542750047
 20
21.19719853475134
 30
0.0
 10
34.41641589408034
 20
20.31077546617496
 30
0.0
 10
35.81512466144145
 20
19.81502622572357
 30
0.0
 10
37.21951783635466
 20
19.81812681166107
 30
0.0
  0
SPLINE
  5
5AE
330
1F
100
AcDbEntity
  8
0
100
AcDbSpline
210
0.0
220
0.0
230
1.0
 70
     8
 71
     3
 72
     8
 73
     4
 74
     0
 42
0.0000000001
 43
0.0000000001
 40
0.0
 40
0.0
 40
0.0
 40
0.0
 40
1.0
 40
1.0
 40
1.0
 40
1.0
 10
33.04475112628521
 20
20.79481138197357
 30
0.0
 10
34.20971016491367
 20
19.85051070923052
 30
0.0
 10
35.70436484156297
 20
19.32410011895273
 30
0.0
 10
37.20298137802132
 20
19.32478913804995
 30
0.0
  0
LINE
  5
5AF
330
1F
100
AcDbEntity
  8
0
100
AcDbLine
 10
39.00028720701437
 20
23.09406761200829
 30
0.0
 11
37.22347920701437
 21
19.81812661200829
 31
0.0
  0
SPLINE
  5
5B0
330
1F
100
AcDbEntity
  8
0
100
AcDbSpline
210
0.0
220
0.0
230
1.0
 70
     8
 71
     3
 72
     8
 73
     4
 74
     0
 42
0.0000000001
 43
0.0000000001
 40
0.0
 40
0.0
 40
0.0
 40
0.0
 40
1.0
 40
1.0
 40
1.0
 40
1.0
 10
38.75172405380256
 20
22.8577345590569
 30
0.0
 10
37.22020685545188
 20
22.04503653388329
 30
0.0
 10
34.99777575736159
 20
21.63817075697357
 30
0.0
 10
33.32621542750047
 20
21.19719853475134
 30
0.0
  0
LINE
  5
5B1
330
1F
100
AcDbEntity
  8
0
100
AcDbLine
 10
38.55311420701438
 20
19.81812661200829
 30
0.0
 11
45.44451120701437
 21
19.8718706120083
 31
0.0
  0
LINE
  5
5B2
330
1F
100
AcDbEntity
  8
0
100
AcDbLine
 10
38.55759320701438
 20
19.32478961200829
 30
0.0
 11
45.44881720701437
 21
19.3792216120083
 31
0.0
  0
POLYLINE
  5
5B3
330
1F
100
AcDbEntity
  8
0
100
AcDb2dPolyline
 66
     1
 10
0.0
 20
0.0
 30
0.0
  0
VERTEX
  5
5B4
330
5B3
100
AcDbEntity
  8
0
100
AcDbVertex
100
AcDb2dVertex
 10
62.94662920701437
 20
24.67536661200829
 30
0.0
  0
VERTEX
  5
5B5
330
5B3
100
AcDbEntity
  8
0
100
AcDbVertex
100
AcDb2dVertex
 10
63.22034220701437
 20
27.6539966120083
 30
0.0
  0
VERTEX
  5
5B6
330
5B3
100
AcDbEntity
  8
0
100
AcDbVertex
100
AcDb2dVertex
 10
63.28666020701438
 20
30.35839661200831
 30
0.0
  0
VERTEX
  5
5B7
330
5B3
100
AcDbEntity
  8
0
100
AcDbVertex
100
AcDb2dVertex
 10
63.21603620701437
 20
33.05039361200829
 30
0.0
  0
VERTEX
  5
5B8
330
5B3
100
AcDbEntity
  8
0
100
AcDbVertex
100
AcDb2dVertex
 10
62.94662920701437
 20
36.02385561200831
 30
0.0
  0
SEQEND
  5
5B9
330
5B3
100
AcDbEntity
  8
0
  0
POLYLINE
  5
5BA
330
1F
100
AcDbEntity
  8
0
100
AcDb2dPolyline
 66
     1
 10
0.0
 20
0.0
 30
0.0
  0
VERTEX
  5
5BB
330
5BA
100
AcDbEntity
  8
0
100
AcDbVertex
100
AcDb2dVertex
 10
14.56060820701437
 20
42.50993761200828
 30
0.0
  0
VERTEX
  5
5BC
330
5BA
100
AcDbEntity
  8
0
100
AcDbVertex
100
AcDb2dVertex
 10
14.07622720701437
 20
42.30254261200829
 30
0.0
  0
VERTEX
  5
5BD
330
5BA
100
AcDbEntity
  8
0
100
AcDbVertex
100
AcDb2dVertex
 10
13.86917720701437
 20
41.81816161200829
 30
0.0
  0
SEQEND
  5
5BE
330
5BA
100
AcDbEntity
  8
0
  0
SPLINE
  5
5BF
330
1F
100
AcDbEntity
  8
0
100
AcDbSpline
210
0.0
220
0.0
230
1.0
 70
     8
 71
     3
 72
     8
 73
     4
 74
     0
 42
0.0000000001
 43
0.0000000001
 40
0.0
 40
0.0
 40
0.0
 40
0.0
 40
1.0
 40
1.0
 40
1.0
 40
1.0
 10
21.78411202038242
 20
38.45505986287633
 30
0.0
 10
19.7866456575352
 20
38.3200121198208
 30
0.0
 10
18.18536527559076
 20
36.81588343058468
 30
0.0
 10
17.93215075736159
 20
34.83081941148745
 30
0.0
  0
SPLINE
  5
5C0
330
1F
100
AcDbEntity
  8
0
100
AcDbSpline
210
0.0
220
0.0
230
1.0
 70
     8
 71
     3
 72
     8
 73
     4
 74
     0
 42
0.0000000001
 43
0.0000000001
 40
0.0
 40
0.0
 40
0.0
 40
0.0
 40
1.0
 40
1.0
 40
1.0
 40
1.0
 10
21.70056845484422
 20
38.93944028822358
 30
0.0
 10
19.52740222220534
 20
38.79199020141802
 30
0.0
 10
17.73061267142409
 20
37.10733850870968
 30
0.0
 10
17.45121542750046
 20
34.94312952433467
 30
0.0
  0
LINE
  5
5C7
330
1F
100
AcDbEntity
  8
0
100
AcDbLine
 10
17.73319620701437
 20
32.0974806120083
 30
0.0
 11
17.73319620701437
 21
28.5979526120083
 31
0.0
  0
LINE
  5
5C8
330
1F
100
AcDbEntity
  8
0
100
AcDbLine
 10
17.24037520701437
 20
32.1064376120083
 30
0.0
 11
17.24037520701437
 21
28.5896846120083
 31
0.0
  0
POLYLINE
  5
5C9
330
1F
100
AcDbEntity
  8
0
100
AcDb2dPolyline
 66
     1
 10
0.0
 20
0.0
 30
0.0
  0
VERTEX
  5
5CA
330
5C9
100
AcDbEntity
  8
0
100
AcDbVertex
100
AcDb2dVertex
 10
18.39603320701437
 20
29.46783961200829
 30
0.0
  0
VERTEX
  5
5CB
330
5C9
100
AcDbEntity
  8
0
100
AcDbVertex
100
AcDb2dVertex
 10
18.60308320701437
 20
29.6046096120083
 30
0.0
  0
VERTEX
  5
5CC
330
5C9
100
AcDbEntity
  8
0
100
AcDbVertex
100
AcDb2dVertex
 10
18.74416020701437
 20
29.9732346120083
 30
0.0
  0
VERTEX
  5
5CD
330
5C9
100
AcDbEntity
  8
0
100
AcDbVertex
100
AcDb2dVertex
 10
18.77309820701437
 20
30.4576156120083
 30
0.0
  0
VERTEX
  5
5CE
330
5C9
100
AcDbEntity
  8
0
100
AcDbVertex
100
AcDb2dVertex
 10
18.68559320701438
 20
30.90478861200829
 30
0.0
  0
VERTEX
  5
5CF
330
5C9
100
AcDbEntity
  8
0
100
AcDbVertex
100
AcDb2dVertex
 10
18.50369220701437
 20
31.1697166120083
 30
0.0
  0
VERTEX
  5
5D0
330
5C9
100
AcDbEntity
  8
0
100
AcDbVertex
100
AcDb2dVertex
 10
18.28802920701437
 20
31.1697166120083
 30
0.0
  0
VERTEX
  5
5D1
330
5C9
100
AcDbEntity
  8
0
100
AcDbVertex
100
AcDb2dVertex
 10
18.10595620701437
 20
30.90478861200829
 30
0.0
  0
VERTEX
  5
5D2
330
5C9
100
AcDbEntity
  8
0
100
AcDbVertex
100
AcDb2dVertex
 10
18.01896720701438
 20
30.4576156120083
 30
0.0
  0
VERTEX
  5
5D3
330
5C9
100
AcDbEntity
  8
0
100
AcDbVertex
100
AcDb2dVertex
 10
18.04790620701438
 20
29.9732346120083
 30
0.0
  0
VERTEX
  5
5D4
330
5C9
100
AcDbEntity
  8
0
100
AcDbVertex
100
AcDb2dVertex
 10
18.18863820701437
 20
29.6046096120083
 30
0.0
  0
VERTEX
  5
5D5
330
5C9
100
AcDbEntity
  8
0
100
AcDbVertex
100
AcDb2dVertex
 10
18.39603320701437
 20
29.46783961200829
 30
0.0
  0
SEQEND
  5
5D6
330
5C9
100
AcDbEntity
  8
0
  0
SPLINE
  5
5D7
330
1F
100
AcDbEntity
  8
0
100
AcDbSpline
210
0.0
220
0.0
230
1.0
 70
     8
 71
     3
 72
     8
 73
     4
 74
     0
 42
0.0000000001
 43
0.0000000001
 40
0.0
 40
0.0
 40
0.0
 40
0.0
 40
1.0
 40
1.0
 40
1.0
 40
1.0
 10
17.73319649303867
 20
28.59795265801523
 30
0.0
 10
17.61279040579909
 20
25.52423846530691
 30
0.0
 10
18.30508234373311
 20
22.6341478620083
 30
0.0
 10
21.78411202038242
 20
22.24519658162634
 30
0.0
  0
LINE
  5
5D8
330
1F
100
AcDbEntity
  8
0
100
AcDbLine
 10
17.24037520701437
 20
28.5896846120083
 30
0.0
 11
17.44346420701437
 21
25.7984676120083
 31
0.0
  0
POLYLINE
  5
5DA
330
1F
100
AcDbEntity
  8
0
100
AcDb2dPolyline
 66
     1
 10
0.0
 20
0.0
 30
0.0
  0
VERTEX
  5
5DB
330
5DA
100
AcDbEntity
  8
0
100
AcDbVertex
100
AcDb2dVertex
 10
13.86917720701437
 20
18.8776156120083
 30
0.0
  0
VERTEX
  5
5DC
330
5DA
100
AcDbEntity
  8
0
100
AcDbVertex
100
AcDb2dVertex
 10
14.07622720701437
 20
18.39357961200829
 30
0.0
  0
VERTEX
  5
5DD
330
5DA
100
AcDbEntity
  8
0
100
AcDbVertex
100
AcDb2dVertex
 10
14.56060820701437
 20
18.1865296120083
 30
0.0
  0
SEQEND
  5
5DE
330
5DA
100
AcDbEntity
  8
0
  0
SPLINE
  5
5DF
330
1F
100
AcDbEntity
  8
0
100
AcDbSpline
210
0.0
220
0.0
230
1.0
 70
     8
 71
     3
 72
     8
 73
     4
 74
     0
 42
0.0000000001
 43
0.0000000001
 40
0.0
 40
0.0
 40
0.0
 40
0.0
 40
1.0
 40
1.0
 40
1.0
 40
1.0
 10
17.45121542750046
 20
25.7529928055847
 30
0.0
 10
17.73061267142409
 20
23.58843931166108
 30
0.0
 10
19.52740222220534
 20
21.90447663804996
 30
0.0
 10
21.70056845484422
 20
21.75668204169579
 30
0.0
  0
LINE
  5
5E0
330
1F
100
AcDbEntity
  8
0
100
AcDbLine
 10
13.86917720701437
 20
18.8776156120083
 30
0.0
 11
13.86917720701437
 21
41.81816161200829
 31
0.0
  0
LINE
  5
5E1
330
1F
100
AcDbEntity
  8
0
100
AcDbLine
 10
17.93215120701438
 20
34.8308196120083
 30
0.0
 11
17.73319620701437
 21
32.0974806120083
 31
0.0
  0
LINE
  5
5E2
330
1F
100
AcDbEntity
  8
0
100
AcDbLine
 10
17.44346420701437
 20
34.8976546120083
 30
0.0
 11
17.24037520701437
 21
32.1064376120083
 31
0.0
  0
LINE
  5
5E3
330
1F
100
AcDbEntity
  8
0
100
AcDbLine
 10
32.06376020701438
 20
38.99352861200829
 30
0.0
 11
21.78411220701438
 21
38.4550596120083
 31
0.0
  0
LINE
  5
5E4
330
1F
100
AcDbEntity
  8
0
100
AcDbLine
 10
21.78411220701438
 20
22.2448516120083
 30
0.0
 11
32.06376020701438
 21
21.7022496120083
 31
0.0
  0
LINE
  5
5E5
330
1F
100
AcDbEntity
  8
0
100
AcDbLine
 10
32.02982620701438
 20
39.4861766120083
 30
0.0
 11
21.75052220701437
 21
38.94357461200829
 31
0.0
  0
LINE
  5
5E6
330
1F
100
AcDbEntity
  8
0
100
AcDbLine
 10
21.70056820701438
 20
21.75633761200829
 30
0.0
 11
32.09183820701438
 21
21.20891161200829
 31
0.0
  0
POLYLINE
  5
5E7
330
1F
100
AcDbEntity
  8
0
100
AcDb2dPolyline
 66
     1
 10
0.0
 20
0.0
 30
0.0
  0
VERTEX
  5
5E8
330
5E7
100
AcDbEntity
  8
0
100
AcDbVertex
100
AcDb2dVertex
 10
25.00596520701437
 20
30.33703661200829
 30
0.0
  0
VERTEX
  5
5E9
330
5E7
100
AcDbEntity
  8
0
100
AcDbVertex
100
AcDb2dVertex
 10
24.75378420701437
 20
30.94234061200829
 30
0.0
  0
VERTEX
  5
5EA
330
5E7
100
AcDbEntity
  8
0
100
AcDbVertex
100
AcDb2dVertex
 10
24.14848120701438
 20
31.1900426120083
 30
0.0
  0
VERTEX
  5
5EB
330
5E7
100
AcDbEntity
  8
0
100
AcDbVertex
100
AcDb2dVertex
 10
23.54369420701438
 20
30.94234061200829
 30
0.0
  0
VERTEX
  5
5EC
330
5E7
100
AcDbEntity
  8
0
100
AcDbVertex
100
AcDb2dVertex
 10
23.29116920701438
 20
30.33703661200829
 30
0.0
  0
VERTEX
  5
5ED
330
5E7
100
AcDbEntity
  8
0
100
AcDbVertex
100
AcDb2dVertex
 10
23.54369420701438
 20
29.73311161200829
 30
0.0
  0
VERTEX
  5
5EE
330
5E7
100
AcDbEntity
  8
0
100
AcDbVertex
100
AcDb2dVertex
 10
24.14848120701438
 20
29.4802416120083
 30
0.0
  0
VERTEX
  5
5EF
330
5E7
100
AcDbEntity
  8
0
100
AcDbVertex
100
AcDb2dVertex
 10
24.75378420701437
 20
29.73311161200829
 30
0.0
  0
VERTEX
  5
5F0
330
5E7
100
AcDbEntity
  8
0
100
AcDbVertex
100
AcDb2dVertex
 10
25.00596520701437
 20
30.33703661200829
 30
0.0
  0
SEQEND
  5
5F1
330
5E7
100
AcDbEntity
  8
0
  0
LINE
  5
5F3
330
1F
100
AcDbEntity
  8
0
100
AcDbLine
 10
14.56060820701437
 20
42.50959261200828
 30
0.0
 11
65.53940820701438
 21
42.50959261200828
 31
0.0
  0
LINE
  5
5F4
330
1F
100
AcDbEntity
  8
0
100
AcDbLine
 10
65.53940820701438
 20
18.1861846120083
 30
0.0
 11
14.56060820701437
 21
18.1861846120083
 31
0.0
  0
POLYLINE
  5
5F5
330
1F
100
AcDbEntity
  8
0
100
AcDb2dPolyline
 66
     1
 10
0.0
 20
0.0
 30
0.0
  0
VERTEX
  5
5F6
330
5F5
100
AcDbEntity
  8
0
100
AcDbVertex
100
AcDb2dVertex
 10
64.26799620701437
 20
24.45212461200829
 30
0.0
  0
VERTEX
  5
5F7
330
5F5
100
AcDbEntity
  8
0
100
AcDbVertex
100
AcDb2dVertex
 10
64.88156720701437
 20
26.99116061200829
 30
0.0
  0
VERTEX
  5
5F8
330
5F5
100
AcDbEntity
  8
0
100
AcDbVertex
100
AcDb2dVertex
 10
65.18353020701437
 20
29.2855936120083
 30
0.0
  0
VERTEX
  5
5F9
330
5F5
100
AcDbEntity
  8
0
100
AcDbVertex
100
AcDb2dVertex
 10
65.18353020701437
 20
31.4098396120083
 30
0.0
  0
VERTEX
  5
5FA
330
5F5
100
AcDbEntity
  8
0
100
AcDbVertex
100
AcDb2dVertex
 10
64.88156720701437
 20
33.70461761200829
 30
0.0
  0
VERTEX
  5
5FB
330
5F5
100
AcDbEntity
  8
0
100
AcDbVertex
100
AcDb2dVertex
 10
64.26799620701437
 20
36.24330861200831
 30
0.0
  0
SEQEND
  5
5FC
330
5F5
100
AcDbEntity
  8
0
  0
ENDSEC
  0
SECTION
  2
OBJECTS
  0
DICTIONARY
  5
C
330
0
100
AcDbDictionary
281
     1
  3
ACAD_COLOR
350
C9
  3
ACAD_GROUP
350
D
  3
ACAD_LAYOUT
350
1A
  3
ACAD_MATERIAL
350
C8
  3
ACAD_MLEADERSTYLE
350
2EC
  3
ACAD_MLINESTYLE
350
17
  3
ACAD_PLOTSETTINGS
350
19
  3
ACAD_PLOTSTYLENAME
350
E
  3
ACAD_SCALELIST
350
2CA
  3
ACAD_TABLESTYLE
350
123
  3
ACAD_VISUALSTYLE
350
296
  3
ACDB_RECOMPOSE_DATA
350
30D
  3
AcDbVariableDictionary
350
9E
  3
AcmDictionary
350
63
  3
AMG
350
49
  3
AMGSNAPSETTINGS
350
4C3
  3
ASE_INDEX_DICTIONARY
350
60A
  0
DICTIONARY
  5
605
330
10
100
AcDbDictionary
280
     1
281
     1
  3
ADSK_XREC_LAYER_RECONCILED
360
606
  0
DICTIONARY
  5
607
330
38C
100
AcDbDictionary
280
     1
281
     1
  3
ADSK_XREC_LAYER_RECONCILED
360
608
  0
DICTIONARY
  5
99
330
1F
100
AcDbDictionary
280
     1
281
     1
  0
DICTIONARY
  5
C9
102
{ACAD_REACTORS
330
C
102
}
330
C
100
AcDbDictionary
281
     1
  0
DICTIONARY
  5
D
102
{ACAD_REACTORS
330
C
102
}
330
C
100
AcDbDictionary
281
     1
  0
DICTIONARY
  5
1A
102
{ACAD_REACTORS
330
C
102
}
330
C
100
AcDbDictionary
281
     1
  3
Layout1
350
1E
  3
Layout2
350
26
  3
Model
350
22
  0
DICTIONARY
  5
C8
102
{ACAD_REACTORS
330
C
102
}
330
C
100
AcDbDictionary
281
     1
  3
ByBlock
350
294
  3
ByLayer
350
293
  3
Global
350
295
  0
DICTIONARY
  5
2EC
102
{ACAD_REACTORS
330
C
102
}
330
C
100
AcDbDictionary
281
     1
  3
Standard
350
2ED
  0
DICTIONARY
  5
17
102
{ACAD_REACTORS
330
C
102
}
330
C
100
AcDbDictionary
281
     1
  3
Standard
350
18
  0
DICTIONARY
  5
19
102
{ACAD_REACTORS
330
C
102
}
330
C
100
AcDbDictionary
281
     1
  0
ACDBDICTIONARYWDFLT
  5
E
102
{ACAD_REACTORS
330
C
102
}
330
C
100
AcDbDictionary
281
     1
  3
Normal
350
F
100
AcDbDictionaryWithDefault
340
F
  0
DICTIONARY
  5
2CA
102
{ACAD_REACTORS
330
C
102
}
330
C
100
AcDbDictionary
281
     1
  3
A0
350
2CB
  3
A1
350
2CC
  3
A2
350
2CD
  3
A3
350
2CE
  3
A4
350
2CF
  3
A5
350
2D0
  3
A6
350
2D1
  3
A7
350
2D2
  3
A8
350
2D3
  3
A9
350
2D4
  3
B0
350
2D5
  3
B1
350
2D6
  3
B2
350
2D7
  3
B3
350
2D8
  3
B4
350
2D9
  3
B5
350
2DA
  3
B6
350
2DB
  3
B7
350
2DC
  3
B8
350
2DD
  3
B9
350
2DE
  3
C0
350
2DF
  3
C1
350
2E0
  3
C2
350
2E1
  3
C3
350
2E2
  3
C4
350
2E3
  3
C5
350
2E4
  3
C6
350
2E5
  3
C7
350
2E6
  3
C8
350
2E7
  3
C9
350
2E8
  3
D0
350
2E9
  3
D1
350
2EA
  3
D2
350
2EB
  0
DICTIONARY
  5
123
102
{ACAD_REACTORS
330
C
102
}
330
C
100
AcDbDictionary
281
     1
  3
Standard
350
124
  0
DICTIONARY
  5
296
102
{ACAD_REACTORS
330
C
102
}
330
C
100
AcDbDictionary
281
     1
  3
2dWireframe
350
29C
  3
3D Hidden
350
29E
  3
3dWireframe
350
29D
  3
Basic
350
29B
  3
Brighten
350
2A2
  3
ColorChange
350
2A6
  3
Conceptual
350
29F
  3
Dim
350
2A1
  3
Facepattern
350
2A5
  3
Flat
350
297
  3
FlatWithEdges
350
298
  3
Gouraud
350
299
  3
GouraudWithEdges
350
29A
  3
Linepattern
350
2A4
  3
Realistic
350
2A0
  3
Thicken
350
2A3
  0
XRECORD
  5
30D
102
{ACAD_REACTORS
330
C
102
}
330
C
100
AcDbXrecord
280
     1
 90
        1
330
124
  0
DICTIONARY
  5
9E
102
{ACAD_REACTORS
330
C
102
}
330
C
100
AcDbDictionary
281
     1
  3
CANNOSCALE
350
310
  3
CMLEADERSTYLE
350
30E
  3
CTABLESTYLE
350
144
  3
DIMASSOC
350
A0
  3
INDEXCTL
350
9F
  3
LAYEREVAL
350
36B
  3
LAYERNOTIFY
350
36C
  3
LIGHTINGUNITS
350
311
  3
MSLTSCALE
350
30F
  0
DICTIONARY
  5
63
102
{ACAD_REACTORS
330
C
102
}
330
C
100
AcDbDictionary
281
     1
  3
AcmStdDictionary
350
69
  3
AMDTSECTSYM_ARROWCOLOR
350
12C
  0
DICTIONARY
  5
49
102
{ACAD_REACTORS
330
C
102
}
330
C
100
AcDbDictionary
281
     1
  0
DICTIONARY
  5
4C3
102
{ACAD_REACTORS
330
C
102
}
330
C
100
AcDbDictionary
281
     1
  0
DICTIONARY
  5
60A
102
{ACAD_REACTORS
330
C
102
}
330
C
100
AcDbDictionary
281
     1
  3
ASEBlockHierarchyIndexRecord
350
60B
1001
DCO15
1040
1690263013.973
  0
XRECORD
  5
606
102
{ACAD_REACTORS
330
605
102
}
330
605
100
AcDbXrecord
280
     1
290
     1
  0
XRECORD
  5
608
102
{ACAD_REACTORS
330
607
102
}
330
607
100
AcDbXrecord
280
     1
290
     1
  0
LAYOUT
  5
1E
102
{ACAD_REACTORS
330
1A
102
}
330
1A
100
AcDbPlotSettings
  1

  2

  4

  6

 40
0.0
 41
0.0
 42
0.0
 43
0.0
 44
0.0
 45
0.0
 46
0.0
 47
0.0
 48
0.0
 49
0.0
140
0.0
141
0.0
142
1.0
143
1.0
 70
   688
 72
     0
 73
     0
 74
     5
  7

 75
    16
147
1.0
 76
     0
 77
     2
 78
   300
148
0.0
149
0.0
100
AcDbLayout
  1
Layout1
 70
     1
 71
     1
 10
0.0
 20
0.0
 11
12.0
 21
9.0
 12
0.0
 22
0.0
 32
0.0
 14
1.000000000000000E+20
 24
1.000000000000000E+20
 34
1.000000000000000E+20
 15
-1.000000000000000E+20
 25
-1.000000000000000E+20
 35
-1.000000000000000E+20
146
0.0
 13
0.0
 23
0.0
 33
0.0
 16
1.0
 26
0.0
 36
0.0
 17
0.0
 27
1.0
 37
0.0
 76
     0
330
1B
  0
LAYOUT
  5
26
102
{ACAD_REACTORS
330
1A
102
}
330
1A
100
AcDbPlotSettings
  1

  2

  4

  6

 40
0.0
 41
0.0
 42
0.0
 43
0.0
 44
0.0
 45
0.0
 46
0.0
 47
0.0
 48
0.0
 49
0.0
140
0.0
141
0.0
142
1.0
143
1.0
 70
   688
 72
     0
 73
     0
 74
     5
  7

 75
    16
147
1.0
 76
     0
 77
     2
 78
   300
148
0.0
149
0.0
100
AcDbLayout
  1
Layout2
 70
     1
 71
     2
 10
0.0
 20
0.0
 11
12.0
 21
9.0
 12
0.0
 22
0.0
 32
0.0
 14
0.0
 24
0.0
 34
0.0
 15
0.0
 25
0.0
 35
0.0
146
0.0
 13
0.0
 23
0.0
 33
0.0
 16
1.0
 26
0.0
 36
0.0
 17
0.0
 27
1.0
 37
0.0
 76
     0
330
23
  0
LAYOUT
  5
22
102
{ACAD_REACTORS
330
1A
102
}
330
1A
100
AcDbPlotSettings
  1

  2

  4

  6

 40
0.0
 41
0.0
 42
0.0
 43
0.0
 44
0.0
 45
0.0
 46
0.0
 47
0.0
 48
0.0
 49
0.0
140
0.0
141
0.0
142
1.0
143
1.0
 70
  1712
 72
     0
 73
     0
 74
     0
  7

 75
     0
147
1.0
 76
     0
 77
     2
 78
   300
148
0.0
149
0.0
100
AcDbLayout
  1
Model
 70
     1
 71
     0
 10
0.0
 20
0.0
 11
12.0
 21
9.0
 12
0.0
 22
0.0
 32
0.0
 14
0.0
 24
0.0
 34
0.0
 15
0.0
 25
0.0
 35
0.0
146
0.0
 13
0.0
 23
0.0
 33
0.0
 16
1.0
 26
0.0
 36
0.0
 17
0.0
 27
1.0
 37
0.0
 76
     0
330
1F
331
291
  0
MATERIAL
  5
294
102
{ACAD_REACTORS
330
C8
102
}
330
C8
100
AcDbMaterial
  1
ByBlock
 73
     1
 78
     1
172
     1
176
     1
270
     1
274
     1
 94
       63
  0
MATERIAL
  5
293
102
{ACAD_REACTORS
330
C8
102
}
330
C8
100
AcDbMaterial
  1
ByLayer
 73
     1
 78
     1
172
     1
176
     1
270
     1
274
     1
 94
       63
  0
MATERIAL
  5
295
102
{ACAD_REACTORS
330
C8
102
}
330
C8
100
AcDbMaterial
  1
Global
 73
     1
 78
     1
172
     1
176
     1
270
     1
274
     1
 94
       63
  0
MLEADERSTYLE
  5
2ED
102
{ACAD_REACTORS
330
2EC
102
}
330
2EC
100
AcDbMLeaderStyle
170
     2
171
     1
172
     0
 90
        2
 40
0.0
 41
0.0
173
     1
 91
-1056964608
340
14
 92
       -2
290
     1
 42
0.09
291
     1
 43
0.36
  3
Standard
 44
0.18
300

342
11
174
     1
178
     6
175
     1
176
     0
 93
-1056964608
 45
0.18
292
     0
297
     0
 46
0.18
 94
-1056964608
 47
1.0
 49
1.0
140
1.0
293
     1
141
0.0
294
     1
177
     0
142
1.0
295
     0
296
     0
143
0.125
1001
ACAD_MLEADERVER
1070
     2
  0
MLINESTYLE
  5
18
102
{ACAD_REACTORS
330
17
102
}
330
17
100
AcDbMlineStyle
  2
STANDARD
 70
     0
  3

 62
   256
 51
90.0
 52
90.0
 71
     2
 49
0.5
 62
   256
  6
BYLAYER
 49
-0.5
 62
   256
  6
BYLAYER
  0
ACDBPLACEHOLDER
  5
F
102
{ACAD_REACTORS
330
E
102
}
330
E
  0
SCALE
  5
2CB
102
{ACAD_REACTORS
330
2CA
102
}
330
2CA
100
AcDbScale
 70
     0
300
1:1
140
1.0
141
1.0
290
     1
  0
SCALE
  5
2CC
102
{ACAD_REACTORS
330
2CA
102
}
330
2CA
100
AcDbScale
 70
     0
300
1:2
140
1.0
141
2.0
290
     0
  0
SCALE
  5
2CD
102
{ACAD_REACTORS
330
2CA
102
}
330
2CA
100
AcDbScale
 70
     0
300
1:4
140
1.0
141
4.0
290
     0
  0
SCALE
  5
2CE
102
{ACAD_REACTORS
330
2CA
102
}
330
2CA
100
AcDbScale
 70
     0
300
1:5
140
1.0
141
5.0
290
     0
  0
SCALE
  5
2CF
102
{ACAD_REACTORS
330
2CA
102
}
330
2CA
100
AcDbScale
 70
     0
300
1:8
140
1.0
141
8.0
290
     0
  0
SCALE
  5
2D0
102
{ACAD_REACTORS
330
2CA
102
}
330
2CA
100
AcDbScale
 70
     0
300
1:10
140
1.0
141
10.0
290
     0
  0
SCALE
  5
2D1
102
{ACAD_REACTORS
330
2CA
102
}
330
2CA
100
AcDbScale
 70
     0
300
1:16
140
1.0
141
16.0
290
     0
  0
SCALE
  5
2D2
102
{ACAD_REACTORS
330
2CA
102
}
330
2CA
100
AcDbScale
 70
     0
300
1:20
140
1.0
141
20.0
290
     0
  0
SCALE
  5
2D3
102
{ACAD_REACTORS
330
2CA
102
}
330
2CA
100
AcDbScale
 70
     0
300
1:30
140
1.0
141
30.0
290
     0
  0
SCALE
  5
2D4
102
{ACAD_REACTORS
330
2CA
102
}
330
2CA
100
AcDbScale
 70
     0
300
1:40
140
1.0
141
40.0
290
     0
  0
SCALE
  5
2D5
102
{ACAD_REACTORS
330
2CA
102
}
330
2CA
100
AcDbScale
 70
     0
300
1:50
140
1.0
141
50.0
290
     0
  0
SCALE
  5
2D6
102
{ACAD_REACTORS
330
2CA
102
}
330
2CA
100
AcDbScale
 70
     0
300
1:100
140
1.0
141
100.0
290
     0
  0
SCALE
  5
2D7
102
{ACAD_REACTORS
330
2CA
102
}
330
2CA
100
AcDbScale
 70
     0
300
2:1
140
2.0
141
1.0
290
     0
  0
SCALE
  5
2D8
102
{ACAD_REACTORS
330
2CA
102
}
330
2CA
100
AcDbScale
 70
     0
300
4:1
140
4.0
141
1.0
290
     0
  0
SCALE
  5
2D9
102
{ACAD_REACTORS
330
2CA
102
}
330
2CA
100
AcDbScale
 70
     0
300
8:1
140
8.0
141
1.0
290
     0
  0
SCALE
  5
2DA
102
{ACAD_REACTORS
330
2CA
102
}
330
2CA
100
AcDbScale
 70
     0
300
10:1
140
10.0
141
1.0
290
     0
  0
SCALE
  5
2DB
102
{ACAD_REACTORS
330
2CA
102
}
330
2CA
100
AcDbScale
 70
     0
300
100:1
140
100.0
141
1.0
290
     0
  0
SCALE
  5
2DC
102
{ACAD_REACTORS
330
2CA
102
}
330
2CA
100
AcDbScale
 70
     0
300
1/128" = 1'-0"
140
0.0078125
141
12.0
290
     0
  0
SCALE
  5
2DD
102
{ACAD_REACTORS
330
2CA
102
}
330
2CA
100
AcDbScale
 70
     0
300
1/64" = 1'-0"
140
0.015625
141
12.0
290
     0
  0
SCALE
  5
2DE
102
{ACAD_REACTORS
330
2CA
102
}
330
2CA
100
AcDbScale
 70
     0
300
1/32" = 1'-0"
140
0.03125
141
12.0
290
     0
  0
SCALE
  5
2DF
102
{ACAD_REACTORS
330
2CA
102
}
330
2CA
100
AcDbScale
 70
     0
300
1/16" = 1'-0"
140
0.0625
141
12.0
290
     0
  0
SCALE
  5
2E0
102
{ACAD_REACTORS
330
2CA
102
}
330
2CA
100
AcDbScale
 70
     0
300
3/32" = 1'-0"
140
0.09375
141
12.0
290
     0
  0
SCALE
  5
2E1
102
{ACAD_REACTORS
330
2CA
102
}
330
2CA
100
AcDbScale
 70
     0
300
1/8" = 1'-0"
140
0.125
141
12.0
290
     0
  0
SCALE
  5
2E2
102
{ACAD_REACTORS
330
2CA
102
}
330
2CA
100
AcDbScale
 70
     0
300
3/16" = 1'-0"
140
0.1875
141
12.0
290
     0
  0
SCALE
  5
2E3
102
{ACAD_REACTORS
330
2CA
102
}
330
2CA
100
AcDbScale
 70
     0
300
1/4" = 1'-0"
140
0.25
141
12.0
290
     0
  0
SCALE
  5
2E4
102
{ACAD_REACTORS
330
2CA
102
}
330
2CA
100
AcDbScale
 70
     0
300
3/8" = 1'-0"
140
0.375
141
12.0
290
     0
  0
SCALE
  5
2E5
102
{ACAD_REACTORS
330
2CA
102
}
330
2CA
100
AcDbScale
 70
     0
300
1/2" = 1'-0"
140
0.5
141
12.0
290
     0
  0
SCALE
  5
2E6
102
{ACAD_REACTORS
330
2CA
102
}
330
2CA
100
AcDbScale
 70
     0
300
3/4" = 1'-0"
140
0.75
141
12.0
290
     0
  0
SCALE
  5
2E7
102
{ACAD_REACTORS
330
2CA
102
}
330
2CA
100
AcDbScale
 70
     0
300
1" = 1'-0"
140
1.0
141
12.0
290
     0
  0
SCALE
  5
2E8
102
{ACAD_REACTORS
330
2CA
102
}
330
2CA
100
AcDbScale
 70
     0
300
1-1/2" = 1'-0"
140
1.5
141
12.0
290
     0
  0
SCALE
  5
2E9
102
{ACAD_REACTORS
330
2CA
102
}
330
2CA
100
AcDbScale
 70
     0
300
3" = 1'-0"
140
3.0
141
12.0
290
     0
  0
SCALE
  5
2EA
102
{ACAD_REACTORS
330
2CA
102
}
330
2CA
100
AcDbScale
 70
     0
300
6" = 1'-0"
140
6.0
141
12.0
290
     0
  0
SCALE
  5
2EB
102
{ACAD_REACTORS
330
2CA
102
}
330
2CA
100
AcDbScale
 70
     0
300
1'-0" = 1'-0"
140
12.0
141
12.0
290
     0
  0
TABLESTYLE
  5
124
102
{ACAD_XDICTIONARY
360
30B
102
}
102
{ACAD_REACTORS
330
123
102
}
330
123
100
AcDbTableStyle
  3
Standard
 70
     0
 71
     0
 40
0.06
 41
0.06
280
     0
281
     0
  7
STANDARD
140
0.18
170
     2
 62
     0
 63
     7
283
     0
 90
      512
 91
        0
  1

274
    -2
284
     1
 64
     0
275
    -2
285
     1
 65
     0
276
    -2
286
     1
 66
     0
277
    -2
287
     1
 67
     0
278
    -2
288
     1
 68
     0
279
    -2
289
     1
 69
     0
  7
STANDARD
140
0.25
170
     5
 62
     0
 63
     7
283
     0
 90
      512
 91
        0
  1

274
    -2
284
     1
 64
     0
275
    -2
285
     1
 65
     0
276
    -2
286
     1
 66
     0
277
    -2
287
     1
 67
     0
278
    -2
288
     1
 68
     0
279
    -2
289
     1
 69
     0
  7
STANDARD
140
0.18
170
     5
 62
     0
 63
     7
283
     0
 90
      512
 91
        0
  1

274
    -2
284
     1
 64
     0
275
    -2
285
     1
 65
     0
276
    -2
286
     1
 66
     0
277
    -2
287
     1
 67
     0
278
    -2
288
     1
 68
     0
279
    -2
289
     1
 69
     0
  0
VISUALSTYLE
  5
29C
102
{ACAD_REACTORS
330
296
102
}
330
296
100
AcDbVisualStyle
  2
2dWireframe
 70
     4
 71
     0
 72
     2
 73
     0
 90
        0
 40
-0.6
 41
-30.0
 62
     5
 63
     7
421
 16777215
 74
     1
 91
        4
 64
     7
 65
   257
 75
     1
175
     1
 42
1.0
 92
        0
 66
   257
 43
1.0
 76
     1
 77
     6
 78
     2
 67
     7
 79
     5
170
     0
171
     0
290
     0
174
     0
 93
        1
 44
0.0
173
     0
291
     0
 45
0.0
  0
VISUALSTYLE
  5
29E
102
{ACAD_REACTORS
330
296
102
}
330
296
100
AcDbVisualStyle
  2
3D Hidden
 70
     6
 71
     1
 72
     2
 73
     2
 90
        0
 40
-0.6
 41
-30.0
 62
     5
 63
     7
421
 16777215
 74
     2
 91
        2
 64
     7
 65
   257
 75
     2
175
     1
 42
40.0
 92
        0
 66
   257
 43
1.0
 76
     1
 77
     6
 78
     2
 67
     7
 79
     3
170
     0
171
     0
290
     0
174
     0
 93
        1
 44
0.0
173
     0
291
     0
 45
0.0
  0
VISUALSTYLE
  5
29D
102
{ACAD_REACTORS
330
296
102
}
330
296
100
AcDbVisualStyle
  2
3dWireframe
 70
     5
 71
     0
 72
     2
 73
     0
 90
        0
 40
-0.6
 41
-30.0
 62
     5
 63
     7
421
 16777215
 74
     1
 91
        4
 64
     7
 65
   257
 75
     1
175
     1
 42
1.0
 92
        0
 66
   257
 43
1.0
 76
     1
 77
     6
 78
     2
 67
     7
 79
     5
170
     0
171
     0
290
     0
174
     0
 93
        1
 44
0.0
173
     0
291
     0
 45
0.0
  0
VISUALSTYLE
  5
29B
102
{ACAD_REACTORS
330
296
102
}
330
296
100
AcDbVisualStyle
  2
Basic
 70
     7
 71
     1
 72
     0
 73
     1
 90
        0
 40
-0.6
 41
-30.0
 62
     5
 63
     7
421
 16777215
 74
     0
 91
        4
 64
     7
 65
   257
 75
     1
175
     1
 42
1.0
 92
        8
 66
     7
 43
1.0
 76
     1
 77
     6
 78
     2
 67
     7
 79
     5
170
     0
171
     0
290
     0
174
     0
 93
        1
 44
0.0
173
     0
291
     1
 45
0.0
  0
VISUALSTYLE
  5
2A2
102
{ACAD_REACTORS
330
296
102
}
330
296
100
AcDbVisualStyle
  2
Brighten
 70
    12
 71
     2
 72
     2
 73
     0
 90
        0
 40
-0.6
 41
-30.0
 62
     5
 63
     7
421
 16777215
 74
     1
 91
        4
 64
     7
 65
   257
 75
     1
175
     1
 42
1.0
 92
        8
 66
     7
 43
1.0
 76
     1
 77
     6
 78
     2
 67
     7
 79
     5
170
     0
171
     0
290
     0
174
     0
 93
        1
 44
50.0
173
     0
291
     1
 45
0.0
  0
VISUALSTYLE
  5
2A6
102
{ACAD_REACTORS
330
296
102
}
330
296
100
AcDbVisualStyle
  2
ColorChange
 70
    16
 71
     2
 72
     2
 73
     3
 90
        0
 40
-0.6
 41
-30.0
 62
     5
 63
     8
421
  8421504
 74
     1
 91
        4
 64
     7
 65
   257
 75
     1
175
     1
 42
1.0
 92
        8
 66
     8
424
  8421504
 43
1.0
 76
     1
 77
     6
 78
     2
 67
     7
 79
     5
170
     0
171
     0
290
     0
174
     0
 93
        1
 44
0.0
173
     0
291
     1
 45
0.0
  0
VISUALSTYLE
  5
29F
102
{ACAD_REACTORS
330
296
102
}
330
296
100
AcDbVisualStyle
  2
Conceptual
 70
     9
 71
     3
 72
     2
 73
     0
 90
        0
 40
-0.6
 41
-30.0
 62
     5
 63
     7
421
 16777215
 74
     2
 91
        2
 64
     7
 65
   257
 75
     1
175
     1
 42
40.0
 92
        8
 66
     7
 43
1.0
 76
     1
 77
     6
 78
     2
 67
     7
 79
     3
170
     0
171
     0
290
     0
174
     0
 93
        1
 44
0.0
173
     0
291
     0
 45
0.0
  0
VISUALSTYLE
  5
2A1
102
{ACAD_REACTORS
330
296
102
}
330
296
100
AcDbVisualStyle
  2
Dim
 70
    11
 71
     2
 72
     2
 73
     0
 90
        0
 40
-0.6
 41
-30.0
 62
     5
 63
     7
421
 16777215
 74
     1
 91
        4
 64
     7
 65
   257
 75
     1
175
     1
 42
1.0
 92
        8
 66
     7
 43
1.0
 76
     1
 77
     6
 78
     2
 67
     7
 79
     5
170
     0
171
     0
290
     0
174
     0
 93
        1
 44
-50.0
173
     0
291
     1
 45
0.0
  0
VISUALSTYLE
  5
2A5
102
{ACAD_REACTORS
330
296
102
}
330
296
100
AcDbVisualStyle
  2
Facepattern
 70
    15
 71
     2
 72
     2
 73
     0
 90
        0
 40
-0.6
 41
-30.0
 62
     5
 63
     7
421
 16777215
 74
     1
 91
        4
 64
     7
 65
   257
 75
     1
175
     1
 42
1.0
 92
        8
 66
     7
 43
1.0
 76
     1
 77
     6
 78
     2
 67
     7
 79
     5
170
     0
171
     0
290
     0
174
     0
 93
        1
 44
0.0
173
     0
291
     1
 45
0.0
  0
VISUALSTYLE
  5
297
102
{ACAD_REACTORS
330
296
102
}
330
296
100
AcDbVisualStyle
  2
Flat
 70
     0
 71
     2
 72
     1
 73
     1
 90
        2
 40
-0.6
 41
30.0
 62
     5
 63
     7
421
 16777215
 74
     0
 91
        4
 64
     7
 65
   257
 75
     1
175
     1
 42
1.0
 92
        8
 66
     7
 43
1.0
 76
     1
 77
     6
 78
     2
 67
     7
 79
     5
170
     0
171
     0
290
     0
174
     0
 93
       13
 44
0.0
173
     0
291
     1
 45
0.0
  0
VISUALSTYLE
  5
298
102
{ACAD_REACTORS
330
296
102
}
330
296
100
AcDbVisualStyle
  2
FlatWithEdges
 70
     1
 71
     2
 72
     1
 73
     1
 90
        2
 40
-0.6
 41
30.0
 62
     5
 63
     7
421
 16777215
 74
     1
 91
        4
 64
     7
 65
   257
 75
     1
175
     1
 42
1.0
 92
        0
 66
   257
 43
1.0
 76
     1
 77
     6
 78
     2
 67
     7
 79
     5
170
     0
171
     0
290
     0
174
     0
 93
       13
 44
0.0
173
     0
291
     1
 45
0.0
  0
VISUALSTYLE
  5
299
102
{ACAD_REACTORS
330
296
102
}
330
296
100
AcDbVisualStyle
  2
Gouraud
 70
     2
 71
     2
 72
     2
 73
     1
 90
        2
 40
-0.6
 41
30.0
 62
     5
 63
     7
421
 16777215
 74
     0
 91
        4
 64
     7
 65
   257
 75
     1
175
     1
 42
1.0
 92
        0
 66
     7
 43
1.0
 76
     1
 77
     6
 78
     2
 67
     7
 79
     5
170
     0
171
     0
290
     0
174
     0
 93
       13
 44
0.0
173
     0
291
     1
 45
0.0
  0
VISUALSTYLE
  5
29A
102
{ACAD_REACTORS
330
296
102
}
330
296
100
AcDbVisualStyle
  2
GouraudWithEdges
 70
     3
 71
     2
 72
     2
 73
     1
 90
        2
 40
-0.6
 41
30.0
 62
     5
 63
     7
421
 16777215
 74
     1
 91
        4
 64
     7
 65
   257
 75
     1
175
     1
 42
1.0
 92
        0
 66
   257
 43
1.0
 76
     1
 77
     6
 78
     2
 67
     7
 79
     5
170
     0
171
     0
290
     0
174
     0
 93
       13
 44
0.0
173
     0
291
     1
 45
0.0
  0
VISUALSTYLE
  5
2A4
102
{ACAD_REACTORS
330
296
102
}
330
296
100
AcDbVisualStyle
  2
Linepattern
 70
    14
 71
     2
 72
     2
 73
     0
 90
        0
 40
-0.6
 41
-30.0
 62
     5
 63
     7
421
 16777215
 74
     1
 91
        4
 64
     7
 65
   257
 75
     7
175
     7
 42
1.0
 92
        8
 66
     7
 43
1.0
 76
     1
 77
     6
 78
     2
 67
     7
 79
     5
170
     0
171
     0
290
     0
174
     0
 93
        1
 44
0.0
173
     0
291
     1
 45
0.0
  0
VISUALSTYLE
  5
2A0
102
{ACAD_REACTORS
330
296
102
}
330
296
100
AcDbVisualStyle
  2
Realistic
 70
     8
 71
     2
 72
     2
 73
     0
 90
        0
 40
-0.6
 41
-30.0
 62
     5
 63
     7
421
 16777215
 74
     1
 91
        0
 64
     7
 65
   257
 75
     1
175
     1
 42
1.0
 92
        8
 66
     8
424
  7895160
 43
1.0
 76
     1
 77
     6
 78
     2
 67
     7
 79
     5
170
     0
171
     0
290
     0
174
     0
 93
       13
 44
0.0
173
     0
291
     0
 45
0.0
  0
VISUALSTYLE
  5
2A3
102
{ACAD_REACTORS
330
296
102
}
330
296
100
AcDbVisualStyle
  2
Thicken
 70
    13
 71
     2
 72
     2
 73
     0
 90
        0
 40
-0.6
 41
-30.0
 62
     5
 63
     7
421
 16777215
 74
     1
 91
        4
 64
     7
 65
   257
 75
     1
175
     1
 42
1.0
 92
       12
 66
     7
 43
1.0
 76
     1
 77
     6
 78
     2
 67
     7
 79
     5
170
     0
171
     0
290
     0
174
     0
 93
        1
 44
0.0
173
     0
291
     1
 45
0.0
  0
DICTIONARYVAR
  5
310
102
{ACAD_REACTORS
330
9E
102
}
330
9E
100
DictionaryVariables
280
     0
  1
1:1
  0
DICTIONARYVAR
  5
30E
102
{ACAD_REACTORS
330
9E
102
}
330
9E
100
DictionaryVariables
280
     0
  1
STANDARD
  0
DICTIONARYVAR
  5
144
102
{ACAD_REACTORS
330
9E
102
}
330
9E
100
DictionaryVariables
280
     0
  1
STANDARD
  0
DICTIONARYVAR
  5
A0
102
{ACAD_REACTORS
330
9E
102
}
330
9E
100
DictionaryVariables
280
     0
  1
2
  0
DICTIONARYVAR
  5
9F
102
{ACAD_REACTORS
330
9E
102
}
330
9E
100
DictionaryVariables
280
     0
  1
1
  0
DICTIONARYVAR
  5
36B
102
{ACAD_REACTORS
330
9E
102
}
330
9E
100
DictionaryVariables
280
     0
  1
1
  0
DICTIONARYVAR
  5
36C
102
{ACAD_REACTORS
330
9E
102
}
330
9E
100
DictionaryVariables
280
     0
  1
15
  0
DICTIONARYVAR
  5
311
102
{ACAD_REACTORS
330
9E
102
}
330
9E
100
DictionaryVariables
280
     0
  1
0
  0
DICTIONARYVAR
  5
30F
102
{ACAD_REACTORS
330
9E
102
}
330
9E
100
DictionaryVariables
280
     0
  1
0
  0
DICTIONARY
  5
69
102
{ACAD_REACTORS
330
63
102
}
330
63
100
AcDbDictionary
281
     1
  0
XRECORD
  5
12C
102
{ACAD_REACTORS
330
63
102
}
330
63
100
AcDbXrecord
280
     1
 90
-1023410169
  0
XRECORD
  5
60B
102
{ACAD_REACTORS
330
60A
102
}
330
60A
100
AcDbXrecord
280
     1
  0
DICTIONARY
  5
30B
330
124
100
AcDbDictionary
280
     1
281
     1
  3
ACAD_ROUNDTRIP_2008_TABLESTYLE_CELLSTYLEMAP
360
60C
  0
CELLSTYLEMAP
  5
60C
102
{ACAD_REACTORS
330
30B
102
}
330
30B
100
AcDbCellStyleMap
 90
        3
300
CELLSTYLE
  1
TABLEFORMAT_BEGIN
 90
        5
170
     1
 91
        0
 92
    32768
 62
   257
 93
        1
300
CONTENTFORMAT
  1
CONTENTFORMAT_BEGIN
 90
        0
 91
        0
 92
      512
 93
        0
300

 40
0.0
140
1.0
 94
        5
 62
     0
340
11
144
0.25
309
CONTENTFORMAT_END
171
     0
 94
        6
 95
        1
302
GRIDFORMAT
  1
GRIDFORMAT_BEGIN
 90
        0
 91
        1
 62
     0
 92
       -2
340
0
 93
        0
 40
0.045
309
GRIDFORMAT_END
 95
        2
302
GRIDFORMAT
  1
GRIDFORMAT_BEGIN
 90
        0
 91
        1
 62
     0
 92
       -2
340
0
 93
        0
 40
0.045
309
GRIDFORMAT_END
 95
        4
302
GRIDFORMAT
  1
GRIDFORMAT_BEGIN
 90
        0
 91
        1
 62
     0
 92
       -2
340
0
 93
        0
 40
0.045
309
GRIDFORMAT_END
 95
        8
302
GRIDFORMAT
  1
GRIDFORMAT_BEGIN
 90
        0
 91
        1
 62
     0
 92
       -2
340
0
 93
        0
 40
0.045
309
GRIDFORMAT_END
 95
       16
302
GRIDFORMAT
  1
GRIDFORMAT_BEGIN
 90
        0
 91
        1
 62
     0
 92
       -2
340
0
 93
        0
 40
0.045
309
GRIDFORMAT_END
 95
       32
302
GRIDFORMAT
  1
GRIDFORMAT_BEGIN
 90
        0
 91
        1
 62
     0
 92
       -2
340
0
 93
        0
 40
0.045
309
GRIDFORMAT_END
309
TABLEFORMAT_END
  1
CELLSTYLE_BEGIN
 90
        1
 91
        1
300
_TITLE
309
CELLSTYLE_END
300
CELLSTYLE
  1
TABLEFORMAT_BEGIN
 90
        5
170
     1
 91
        0
 92
        0
 62
   257
 93
        1
300
CONTENTFORMAT
  1
CONTENTFORMAT_BEGIN
 90
        0
 91
        0
 92
      512
 93
        0
300

 40
0.0
140
1.0
 94
        5
 62
     0
340
11
144
0.18
309
CONTENTFORMAT_END
171
     0
 94
        6
 95
        1
302
GRIDFORMAT
  1
GRIDFORMAT_BEGIN
 90
        0
 91
        1
 62
     0
 92
       -2
340
0
 93
        0
 40
0.045
309
GRIDFORMAT_END
 95
        2
302
GRIDFORMAT
  1
GRIDFORMAT_BEGIN
 90
        0
 91
        1
 62
     0
 92
       -2
340
0
 93
        0
 40
0.045
309
GRIDFORMAT_END
 95
        4
302
GRIDFORMAT
  1
GRIDFORMAT_BEGIN
 90
        0
 91
        1
 62
     0
 92
       -2
340
0
 93
        0
 40
0.045
309
GRIDFORMAT_END
 95
        8
302
GRIDFORMAT
  1
GRIDFORMAT_BEGIN
 90
        0
 91
        1
 62
     0
 92
       -2
340
0
 93
        0
 40
0.045
309
GRIDFORMAT_END
 95
       16
302
GRIDFORMAT
  1
GRIDFORMAT_BEGIN
 90
        0
 91
        1
 62
     0
 92
       -2
340
0
 93
        0
 40
0.045
309
GRIDFORMAT_END
 95
       32
302
GRIDFORMAT
  1
GRIDFORMAT_BEGIN
 90
        0
 91
        1
 62
     0
 92
       -2
340
0
 93
        0
 40
0.045
309
GRIDFORMAT_END
309
TABLEFORMAT_END
  1
CELLSTYLE_BEGIN
 90
        2
 91
        1
300
_HEADER
309
CELLSTYLE_END
300
CELLSTYLE
  1
TABLEFORMAT_BEGIN
 90
        5
170
     1
 91
        0
 92
        0
 62
   257
 93
        1
300
CONTENTFORMAT
  1
CONTENTFORMAT_BEGIN
 90
        0
 91
        0
 92
      512
 93
        0
300

 40
0.0
140
1.0
 94
        2
 62
     0
340
11
144
0.18
309
CONTENTFORMAT_END
171
     0
 94
        6
 95
        1
302
GRIDFORMAT
  1
GRIDFORMAT_BEGIN
 90
        0
 91
        1
 62
     0
 92
       -2
340
0
 93
        0
 40
0.045
309
GRIDFORMAT_END
 95
        2
302
GRIDFORMAT
  1
GRIDFORMAT_BEGIN
 90
        0
 91
        1
 62
     0
 92
       -2
340
0
 93
        0
 40
0.045
309
GRIDFORMAT_END
 95
        4
302
GRIDFORMAT
  1
GRIDFORMAT_BEGIN
 90
        0
 91
        1
 62
     0
 92
       -2
340
0
 93
        0
 40
0.045
309
GRIDFORMAT_END
 95
        8
302
GRIDFORMAT
  1
GRIDFORMAT_BEGIN
 90
        0
 91
        1
 62
     0
 92
       -2
340
0
 93
        0
 40
0.045
309
GRIDFORMAT_END
 95
       16
302
GRIDFORMAT
  1
GRIDFORMAT_BEGIN
 90
        0
 91
        1
 62
     0
 92
       -2
340
0
 93
        0
 40
0.045
309
GRIDFORMAT_END
 95
       32
302
GRIDFORMAT
  1
GRIDFORMAT_BEGIN
 90
        0
 91
        1
 62
     0
 92
       -2
340
0
 93
        0
 40
0.045
309
GRIDFORMAT_END
309
TABLEFORMAT_END
  1
CELLSTYLE_BEGIN
 90
        3
 91
        2
300
_DATA
309
CELLSTYLE_END
  0
ENDSEC
  0
EOF
