  0
SECTION
  2
HEADER
  9
$ACADVER
  1
AC1021
  9
$ACADMAINTVER
 70
    50
  9
$DWGCODEPAGE
  3
ANSI_936
  9
$LASTSAVEDBY
  1
kocb568
  9
$INSBASE
 10
0.0
 20
0.0
 30
0.0
  9
$EXTMIN
 10
-5.043880668075683
 20
1.6547397427
 30
0.0
  9
$EXTMAX
 10
17.2188360791
 20
18.3433941168
 30
0.0
  9
$LIMMIN
 10
0.0
 20
0.0
  9
$LIMMAX
 10
34.0
 20
22.0
  9
$ORTHOMODE
 70
     1
  9
$REGENMODE
 70
     1
  9
$FILLMODE
 70
     1
  9
$QTEXTMODE
 70
     0
  9
$MIRRTEXT
 70
     0
  9
$LTSCALE
 40
1.87
  9
$ATTMODE
 70
     1
  9
$TEXTSIZE
 40
0.2
  9
$TRACEWID
 40
0.05
  9
$TEXTSTYLE
  7
STANDARD
  9
$CLAYER
  8
0
  9
$CELTYPE
  6
BYLAYER
  9
$CECOLOR
 62
   256
  9
$CELTSCALE
 40
1.0
  9
$DISPSILH
 70
     0
  9
$DIMSCALE
 40
1.0
  9
$DIMASZ
 40
0.12
  9
$DIMEXO
 40
0.05
  9
$DIMDLI
 40
0.5
  9
$DIMRND
 40
0.0
  9
$DIMDLE
 40
0.0
  9
$DIMEXE
 40
0.1
  9
$DIMTP
 40
0.1
  9
$DIMTM
 40
0.1
  9
$DIMTXT
 40
0.12
  9
$DIMCEN
 40
0.0
  9
$DIMTSZ
 40
0.0
  9
$DIMTOL
 70
     0
  9
$DIMLIM
 70
     0
  9
$DIMTIH
 70
     1
  9
$DIMTOH
 70
     1
  9
$DIMSE1
 70
     0
  9
$DIMSE2
 70
     0
  9
$DIMTAD
 70
     0
  9
$DIMZIN
 70
     7
  9
$DIMBLK
  1

  9
$DIMASO
 70
     1
  9
$DIMSHO
 70
     1
  9
$DIMPOST
  1

  9
$DIMAPOST
  1
mm
  9
$DIMALT
 70
     0
  9
$DIMALTD
 70
     2
  9
$DIMALTF
 40
25.4
  9
$DIMLFAC
 40
1.0
  9
$DIMTOFL
 70
     0
  9
$DIMTVP
 40
0.0
  9
$DIMTIX
 70
     0
  9
$DIMSOXD
 70
     0
  9
$DIMSAH
 70
     0
  9
$DIMBLK1
  1

  9
$DIMBLK2
  1

  9
$DIMSTYLE
  2
AM_ANSI
  9
$DIMCLRD
 70
   256
  9
$DIMCLRE
 70
   256
  9
$DIMCLRT
 70
   140
  9
$DIMTFAC
 40
0.71
  9
$DIMGAP
 40
0.06
  9
$DIMJUST
 70
     0
  9
$DIMSD1
 70
     0
  9
$DIMSD2
 70
     0
  9
$DIMTOLJ
 70
     1
  9
$DIMTZIN
 70
     7
  9
$DIMALTZ
 70
     0
  9
$DIMALTTZ
 70
     0
  9
$DIMUPT
 70
     0
  9
$DIMDEC
 70
     4
  9
$DIMTDEC
 70
     4
  9
$DIMALTU
 70
     2
  9
$DIMALTTD
 70
     4
  9
$DIMTXSTY
  7
STANDARD
  9
$DIMAUNIT
 70
     0
  9
$DIMADEC
 70
     0
  9
$DIMALTRND
 40
0.0
  9
$DIMAZIN
 70
     2
  9
$DIMDSEP
 70
    46
  9
$DIMATFIT
 70
     3
  9
$DIMFRAC
 70
     0
  9
$DIMLDRBLK
  1

  9
$DIMLUNIT
 70
     2
  9
$DIMLWD
 70
    -1
  9
$DIMLWE
 70
    -1
  9
$DIMTMOVE
 70
     0
  9
$DIMFXL
 40
1.0
  9
$DIMFXLON
 70
     0
  9
$DIMJOGANG
 40
0.7853981633974483
  9
$DIMTFILL
 70
     0
  9
$DIMTFILLCLR
 70
     0
  9
$DIMARCSYM
 70
     1
  9
$DIMLTYPE
  6
BYBLOCK
  9
$DIMLTEX1
  6
BYBLOCK
  9
$DIMLTEX2
  6
BYBLOCK
  9
$LUNITS
 70
     2
  9
$LUPREC
 70
     4
  9
$SKETCHINC
 40
0.1
  9
$FILLETRAD
 40
0.0
  9
$AUNITS
 70
     0
  9
$AUPREC
 70
     0
  9
$MENU
  1
.
  9
$ELEVATION
 40
0.0
  9
$PELEVATION
 40
0.0
  9
$THICKNESS
 40
0.0
  9
$LIMCHECK
 70
     0
  9
$CHAMFERA
 40
0.0
  9
$CHAMFERB
 40
0.0
  9
$CHAMFERC
 40
0.0
  9
$CHAMFERD
 40
0.0
  9
$SKPOLY
 70
     0
  9
$TDCREATE
 40
2455875.411755752
  9
$TDUCREATE
 40
2455875.078422419
  9
$TDUPDATE
 40
2455875.644460810
  9
$TDUUPDATE
 40
2455875.311127477
  9
$TDINDWG
 40
0.0012527083
  9
$TDUSRTIMER
 40
0.0012527083
  9
$USRTIMER
 70
     1
  9
$ANGBASE
 50
0.0
  9
$ANGDIR
 70
     0
  9
$PDMODE
 70
     3
  9
$PDSIZE
 40
0.3125
  9
$PLINEWID
 40
0.0
  9
$SPLFRAME
 70
     0
  9
$SPLINETYPE
 70
     6
  9
$SPLINESEGS
 70
     8
  9
$HANDSEED
  5
10E9
  9
$SURFTAB1
 70
     6
  9
$SURFTAB2
 70
     6
  9
$SURFTYPE
 70
     6
  9
$SURFU
 70
     6
  9
$SURFV
 70
     6
  9
$UCSBASE
  2

  9
$UCSNAME
  2

  9
$UCSORG
 10
0.0
 20
0.0
 30
0.0
  9
$UCSXDIR
 10
1.0
 20
0.0
 30
0.0
  9
$UCSYDIR
 10
0.0
 20
1.0
 30
0.0
  9
$UCSORTHOREF
  2

  9
$UCSORTHOVIEW
 70
     0
  9
$UCSORGTOP
 10
0.0
 20
0.0
 30
0.0
  9
$UCSORGBOTTOM
 10
0.0
 20
0.0
 30
0.0
  9
$UCSORGLEFT
 10
0.0
 20
0.0
 30
0.0
  9
$UCSORGRIGHT
 10
0.0
 20
0.0
 30
0.0
  9
$UCSORGFRONT
 10
0.0
 20
0.0
 30
0.0
  9
$UCSORGBACK
 10
0.0
 20
0.0
 30
0.0
  9
$PUCSBASE
  2

  9
$PUCSNAME
  2

  9
$PUCSORG
 10
0.0
 20
0.0
 30
0.0
  9
$PUCSXDIR
 10
1.0
 20
0.0
 30
0.0
  9
$PUCSYDIR
 10
0.0
 20
1.0
 30
0.0
  9
$PUCSORTHOREF
  2

  9
$PUCSORTHOVIEW
 70
     0
  9
$PUCSORGTOP
 10
0.0
 20
0.0
 30
0.0
  9
$PUCSORGBOTTOM
 10
0.0
 20
0.0
 30
0.0
  9
$PUCSORGLEFT
 10
0.0
 20
0.0
 30
0.0
  9
$PUCSORGRIGHT
 10
0.0
 20
0.0
 30
0.0
  9
$PUCSORGFRONT
 10
0.0
 20
0.0
 30
0.0
  9
$PUCSORGBACK
 10
0.0
 20
0.0
 30
0.0
  9
$USERI1
 70
     0
  9
$USERI2
 70
     0
  9
$USERI3
 70
     0
  9
$USERI4
 70
     0
  9
$USERI5
 70
     0
  9
$USERR1
 40
0.0
  9
$USERR2
 40
0.0
  9
$USERR3
 40
0.0
  9
$USERR4
 40
0.0
  9
$USERR5
 40
0.0
  9
$WORLDVIEW
 70
     1
  9
$SHADEDGE
 70
     3
  9
$SHADEDIF
 70
    70
  9
$TILEMODE
 70
     1
  9
$MAXACTVP
 70
    64
  9
$PINSBASE
 10
0.0
 20
0.0
 30
0.0
  9
$PLIMCHECK
 70
     0
  9
$PEXTMIN
 10
1.000000000000000E+20
 20
1.000000000000000E+20
 30
1.000000000000000E+20
  9
$PEXTMAX
 10
-1.000000000000000E+20
 20
-1.000000000000000E+20
 30
-1.000000000000000E+20
  9
$PLIMMIN
 10
0.0
 20
0.0
  9
$PLIMMAX
 10
12.0
 20
9.0
  9
$UNITMODE
 70
     0
  9
$VISRETAIN
 70
     1
  9
$PLINEGEN
 70
     0
  9
$PSLTSCALE
 70
     1
  9
$TREEDEPTH
 70
  3020
  9
$CMLSTYLE
  2
Standard
  9
$CMLJUST
 70
     0
  9
$CMLSCALE
 40
1.0
  9
$PROXYGRAPHICS
 70
     1
  9
$MEASUREMENT
 70
     0
  9
$CELWEIGHT
370
    -1
  9
$ENDCAPS
280
     0
  9
$JOINSTYLE
280
     0
  9
$LWDISPLAY
290
     0
  9
$INSUNITS
 70
     1
  9
$HYPERLINKBASE
  1

  9
$STYLESHEET
  1

  9
$XEDIT
290
     1
  9
$CEPSNTYPE
380
     0
  9
$PSTYLEMODE
290
     1
  9
$FINGERPRINTGUID
  2
{A1845D3E-C283-40D1-B346-F281CCE2456C}
  9
$VERSIONGUID
  2
{70E0ECE1-0D02-40CC-B7E0-2011FF5A3128}
  9
$EXTNAMES
290
     1
  9
$PSVPSCALE
 40
0.0
  9
$OLESTARTUP
290
     0
  9
$SORTENTS
280
   127
  9
$INDEXCTL
280
     0
  9
$HIDETEXT
280
     1
  9
$XCLIPFRAME
290
     0
  9
$HALOGAP
280
     0
  9
$OBSCOLOR
 70
   257
  9
$OBSLTYPE
280
     0
  9
$INTERSECTIONDISPLAY
280
     0
  9
$INTERSECTIONCOLOR
 70
   257
  9
$DIMASSOC
280
     2
  9
$PROJECTNAME
  1

  9
$CAMERADISPLAY
290
     0
  9
$LENSLENGTH
 40
50.0
  9
$CAMERAHEIGHT
 40
0.0
  9
$STEPSPERSEC
 40
2.0
  9
$STEPSIZE
 40
6.0
  9
$3DDWFPREC
 40
2.0
  9
$PSOLWIDTH
 40
0.25
  9
$PSOLHEIGHT
 40
4.0
  9
$LOFTANG1
 40
1.570796326794896
  9
$LOFTANG2
 40
1.570796326794896
  9
$LOFTMAG1
 40
0.0
  9
$LOFTMAG2
 40
0.0
  9
$LOFTPARAM
 70
     7
  9
$LOFTNORMALS
280
     1
  9
$LATITUDE
 40
37.795
  9
$LONGITUDE
 40
-122.394
  9
$NORTHDIRECTION
 40
0.0
  9
$TIMEZONE
 70
 -8000
  9
$LIGHTGLYPHDISPLAY
280
     1
  9
$TILEMODELIGHTSYNCH
280
     1
  9
$CMATERIAL
347
EE9
  9
$SOLIDHIST
280
     1
  9
$SHOWHIST
280
     1
  9
$DWFFRAME
280
     2
  9
$DGNFRAME
280
     0
  9
$REALWORLDSCALE
290
     1
  9
$INTERFERECOLOR
 62
     1
  9
$INTERFEREOBJVS
345
F0B
  9
$INTERFEREVPVS
346
F08
  9
$CSHADOW
280
     0
  9
$SHADOWPLANELOCATION
 40
0.0
  0
ENDSEC
  0
SECTION
  2
CLASSES
  0
CLASS
  1
ACDBDICTIONARYWDFLT
  2
AcDbDictionaryWithDefault
  3
ObjectDBX Classes
 90
        0
 91
        1
280
     0
281
     0
  0
CLASS
  1
TABLESTYLE
  2
AcDbTableStyle
  3
ObjectDBX Classes
 90
     4095
 91
        2
280
     0
281
     0
  0
CLASS
  1
ACAD_TABLE
  2
AcDbTable
  3
ObjectDBX Classes
 90
     1025
 91
        0
280
     0
281
     1
  0
CLASS
  1
MATERIAL
  2
AcDbMaterial
  3
ObjectDBX Classes
 90
     1153
 91
        3
280
     0
281
     0
  0
CLASS
  1
VISUALSTYLE
  2
AcDbVisualStyle
  3
ObjectDBX Classes
 90
     4095
 91
       16
280
     0
281
     0
  0
CLASS
  1
SCALE
  2
AcDbScale
  3
ObjectDBX Classes
 90
     1153
 91
       33
280
     0
281
     0
  0
CLASS
  1
MLEADERSTYLE
  2
AcDbMLeaderStyle
  3
ACDB_MLEADERSTYLE_CLASS
 90
     4095
 91
        1
280
     0
281
     0
  0
CLASS
  1
AMGSETTINGSOBJ
  2
AmgSettingsObj
  3
"AcadM|Product Description: AutoCAD Mechanical|Company: Autodesk, Inc."
 90
     1024
 91
        2
280
     0
281
     0
  0
CLASS
  1
ACME_DOCUMENT
  2
AcMeDbDoc
  3
AcMeServices
 90
     1024
 91
        1
280
     0
281
     0
  0
CLASS
  1
ACMESCOPE
  2
AcMeScope
  3
AcMeServices
 90
     1024
 91
        1
280
     0
281
     0
  0
CLASS
  1
ACMECOMMANDHISTORY
  2
AcMeCommandHistory
  3
AcMeServices
 90
     1024
 91
        1
280
     0
281
     0
  0
CLASS
  1
ACIMSYSVARMAN
  2
AcImSysVarManager
  3
AcMeServices
 90
     1024
 91
        5
280
     0
281
     0
  0
CLASS
  1
ACIMINTSYSVAR
  2
AcImIntSysVar
  3
AcMeServices
 90
     1024
 91
       27
280
     0
281
     0
  0
CLASS
  1
ACMEDRAWINGMAN
  2
AcMeDrawingMan
  3
AcMeServices
 90
     1024
 91
        1
280
     0
281
     0
  0
CLASS
  1
ACMEVIEW
  2
AcMeView
  3
AcMeServices
 90
     1024
 91
        1
280
     0
281
     0
  0
CLASS
  1
ACDBENTITYCACHE
  2
AcMeEntityCache
  3
AcMeServices
 90
     1024
 91
        1
280
     0
281
     0
  0
CLASS
  1
GSMANAGER
  2
AcMeGSManager
  3
AcMeServices
 90
     1024
 91
        1
280
     0
281
     0
  0
CLASS
  1
AMDTINTERNALREACTOR
  2
AmdtInternalReactor
  3
AcMeServices
 90
     1024
 91
        2
280
     0
281
     0
  0
CLASS
  1
ACMESTATEMGR
  2
AcMeStateMgr
  3
AcMeServices
 90
     1024
 91
        1
280
     0
281
     0
  0
CLASS
  1
ACGREFMASTER
  2
AcGrefMaster
  3
AcAttribServices
 90
     1024
 91
        1
280
     0
281
     0
  0
CLASS
  1
AM_DRAWING_MGR
  2
AcDmDwgMgr
  3
AcMechDwgViewMgmt
 90
     1024
 91
        1
280
     0
281
     0
  0
CLASS
  1
AM_DWG_DOCUMENT
  2
AcDmDwgDocument
  3
AcMechDwgViewMgmt
 90
     1024
 91
        1
280
     0
281
     0
  0
CLASS
  1
AM_DWG_SHEET
  2
AcDmSheet
  3
AcMechDwgViewMgmt
 90
     1024
 91
        1
280
     0
281
     0
  0
CLASS
  1
AM_VIEWDIMPARMAP
  2
AcDmViewDimParMap
  3
AcMechDwgViewMgmt
 90
     1024
 91
        1
280
     0
281
     0
  0
CLASS
  1
ACIMREALSYSVAR
  2
AcImRealSysVar
  3
AcMeServices
 90
     1024
 91
        1
280
     0
281
     0
  0
CLASS
  1
AM_DWGMGR_NAME
  2
AcDmDwgMgrName
  3
AcMechDwgViewMgmt
 90
     1024
 91
        1
280
     0
281
     0
  0
CLASS
  1
ACME_DATABASE
  2
AcMeDbDatabase
  3
AcMeServices
 90
     1024
 91
        1
280
     0
281
     0
  0
CLASS
  1
ACRFINSADJUSTERMGR
  2
AcRfInsAdjusterMgr
  3
AcMeServices
 90
     1024
 91
        1
280
     0
281
     0
  0
CLASS
  1
ACGREFACADMASTER
  2
AcGrefacadMaster
  3
AcGrefServices
 90
     1024
 91
        1
280
     0
281
     0
  0
CLASS
  1
AMDTMENUSTATEMGR
  2
AmdtMenuStateMgr
  3
McadcomServices
 90
     1024
 91
        1
280
     0
281
     0
  0
CLASS
  1
AMDTMCOMMENUSTATE
  2
AmdtMcomMenuState
  3
McadcomServices
 90
     1024
 91
        1
280
     0
281
     0
  0
CLASS
  1
AMIMASTER
  2
AmiMaster
  3
AmiServices
 90
     1024
 91
        1
280
     0
281
     0
  0
CLASS
  1
MAPIAMMOUDLE
  2
MApiAmModule
  3
MApiAmServices
 90
     1024
 91
        1
280
     0
281
     0
  0
CLASS
  1
ACIMSTRSYSVAR
  2
AcImStrSysVar
  3
AcMeServices
 90
     1024
 91
        5
280
     0
281
     0
  0
CLASS
  1
AMDTADMENUSTATE
  2
AmdtAdMenuState
  3
DesignerServices
 90
     1024
 91
        1
280
     0
281
     0
  0
CLASS
  1
ADAPPL
  2
AcAdAppl
  3
DesignerServices
 90
     1024
 91
        1
280
     0
281
     0
  0
CLASS
  1
DEPMGR
  2
AcAdDepMgr
  3
DesignerServices
 90
     1024
 91
        1
280
     0
281
     0
  0
CLASS
  1
PARAMMGR
  2
AcAdParamMgr
  3
DesignerServices
 90
     1024
 91
        1
280
     0
281
     0
  0
CLASS
  1
PARAMSCOPE
  2
AcAdParamScope
  3
DesignerServices
 90
     1024
 91
        1
280
     0
281
     0
  0
CLASS
  1
NAMEDAPPL
  2
AcAdNamedAppl
  3
DesignerServices
 90
     1024
 91
        1
280
     0
281
     0
  0
CLASS
  1
AMDTDMMENUSTATE
  2
AmdtDmMenuState
  3
AcMechDwgViewMgmt
 90
     1024
 91
        1
280
     0
281
     0
  0
CLASS
  1
AMDTAMMENUSTATE
  2
AmdtAmMenuState
  3
DesignerAssemblies
 90
     1024
 91
        1
280
     0
281
     0
  0
CLASS
  1
ACAMPROJECT
  2
AcAmProject
  3
DesignerAssemblies
 90
     1024
 91
        1
280
     0
281
     0
  0
CLASS
  1
ACAMGRCOMPDEF
  2
AcAmGrCompDef
  3
DesignerAssemblies
 90
     1024
 91
        1
280
     0
281
     0
  0
CLASS
  1
ACCMCONTEXT
  2
AcCmContext
  3
DesignerAssemblies
 90
     1024
 91
        1
280
     0
281
     0
  0
CLASS
  1
ACAMCOMPDEF
  2
AcAmCompDef
  3
DesignerAssemblies
 90
     1024
 91
        1
280
     0
281
     0
  0
CLASS
  1
ACAMCOMPDEFMGR
  2
AcAmCompDefMgr
  3
DesignerAssemblies
 90
     1024
 91
        1
280
     0
281
     0
  0
CLASS
  1
AMCONTEXTMGR
  2
AcAmContextMgr
  3
DesignerAssemblies
 90
     1024
 91
        1
280
     0
281
     0
  0
CLASS
  1
ACAMCONTEXTMODELER
  2
AcAmContextModeler
  3
DesignerAssemblies
 90
     1024
 91
        1
280
     0
281
     0
  0
CLASS
  1
ACMDATADICTIONARY
  2
AcmDataDictionary
  3
"AcmSymBB|Product Description: AutoCAD Mechanical|Company: Autodesk, Inc."
 90
     1024
 91
        1
280
     0
281
     0
  0
CLASS
  1
CATALOGSTATE
  2
AcAmCatalogState
  3
DesignerAssemblies
 90
     1024
 91
        1
280
     0
281
     0
  0
CLASS
  1
ACAMGRCOMPDEFSET
  2
AcAmGrCompDefSet
  3
DesignerAssemblies
 90
     1024
 91
        1
280
     0
281
     0
  0
CLASS
  1
AMDTBROWSERDBTAB
  2
AmdtBrowserDbTab
  3
McadcomServices
 90
     1024
 91
        1
280
     0
281
     0
  0
CLASS
  1
CBROWSERAPPOBJECT
  2
CBrowserAppObject
  3
McadcomServices
 90
     1024
 91
        3
280
     0
281
     0
  0
CLASS
  1
DM_PLACEHOLDER
  2
AcDmSelsetPlaceholder
  3
AcMechDwgViewMgmt
 90
     1024
 91
        1
280
     0
281
     0
  0
CLASS
  1
EXACXREFPANELOBJECT
  2
ExAcXREFPanelObject
  3
EXAC_ESW
 90
     1025
 91
        1
280
     0
281
     0
  0
CLASS
  1
NPOCOLLECTION
  2
AcDbImpNonPersistentObjectsCollection
  3
ObjectDBX Classes
 90
     1153
 91
        1
280
     0
281
     0
  0
CLASS
  1
ACMSTANDARDANSI
  2
AcmStandardANSI
  3
"Amdt_StdImp|Product Description: AutoCAD Mechanical|Company: Autodesk, Inc."
 90
     1024
 91
        1
280
     0
281
     0
  0
CLASS
  1
ACMSURFSTANDARDANSI
  2
AcmSurfTextStdANSI
  3
"Amdt_StdImp|Product Description: AutoCAD Mechanical|Company: Autodesk, Inc."
 90
     1024
 91
        1
280
     0
281
     0
  0
CLASS
  1
ACMFCFSTANDARDANSI
  2
AcmFCFStdANSI
  3
"Amdt_StdImp|Product Description: AutoCAD Mechanical|Company: Autodesk, Inc."
 90
     1024
 91
        1
280
     0
281
     0
  0
CLASS
  1
ACMWELDSTANDARDANSI
  2
AcmWeldingStdANSI
  3
"Amdt_StdImp|Product Description: AutoCAD Mechanical|Company: Autodesk, Inc."
 90
     1024
 91
        1
280
     0
281
     0
  0
CLASS
  1
ACMIDSTANDARDANSI
  2
AcmIdStdANSI
  3
"Amdt_StdImp|Product Description: AutoCAD Mechanical|Company: Autodesk, Inc."
 90
     1024
 91
        1
280
     0
281
     0
  0
CLASS
  1
ACMDATUMSTANDARDANSI
  2
AcmDatumStdANSI
  3
"Amdt_StdImp|Product Description: AutoCAD Mechanical|Company: Autodesk, Inc."
 90
     1024
 91
        1
280
     0
281
     0
  0
CLASS
  1
ACMBOMSTANDARDANSI
  2
AcmBOMStdANSI
  3
"Amdt_StdImp|Product Description: AutoCAD Mechanical|Company: Autodesk, Inc."
 90
     1024
 91
        1
280
     0
281
     0
  0
CLASS
  1
ACMDETAILSTANDARDANSI
  2
AmdtDetailSymStdANSI
  3
"Amdt_StdImp|Product Description: AutoCAD Mechanical|Company: Autodesk, Inc."
 90
     1024
 91
        1
280
     0
281
     0
  0
CLASS
  1
ACMSECTIONSTANDARDANSI
  2
AmdtSectionSymStdANSI
  3
"Amdt_StdImp|Product Description: AutoCAD Mechanical|Company: Autodesk, Inc."
 90
     1024
 91
        1
280
     0
281
     0
  0
CLASS
  1
ACMCENTERLINESTANDARDANSI
  2
AmdtCenterLineStdANSI
  3
"Amdt_StdImp|Product Description: AutoCAD Mechanical|Company: Autodesk, Inc."
 90
     1024
 91
        1
280
     0
281
     0
  0
CLASS
  1
ACMTHREADLINESTANDARDANSI
  2
AmdtThreadLineStdANSI
  3
"Amdt_StdImp|Product Description: AutoCAD Mechanical|Company: Autodesk, Inc."
 90
     1024
 91
        1
280
     0
281
     0
  0
CLASS
  1
ACMNOTESTANDARDANSI
  2
AmdtNoteStdANSI
  3
"Amdt_StdImp|Product Description: AutoCAD Mechanical|Company: Autodesk, Inc."
 90
     1024
 91
        1
280
     0
281
     0
  0
CLASS
  1
ACMTAPERSTANDARDANSI
  2
AcmTaperStdANSI
  3
"Amdt_StdImp|Product Description: AutoCAD Mechanical|Company: Autodesk, Inc."
 90
     1024
 91
        1
280
     0
281
     0
  0
CLASS
  1
ACMANOOTATIONVIEWSTANDARDANSI
  2
AmdtAnViewStdANSI
  3
"Amdt_StdImp|Product Description: AutoCAD Mechanical|Company: Autodesk, Inc."
 90
     1024
 91
        1
280
     0
281
     0
  0
CLASS
  1
ACAMGLAYSTD
  2
AcAmgLayStd
  3
"AmgLay|Product Description: AutoCAD Mechanical|Company: Autodesk, Inc."
 90
     1024
 91
        1
280
     0
281
     0
  0
CLASS
  1
ACAMGDIMSTD
  2
AcAmgDimStd
  3
"AmgDim|Product Description: AutoCAD Mechanical|Company: Autodesk, Inc."
 90
     1024
 91
        1
280
     0
281
     0
  0
CLASS
  1
AMGOBJPROPCFG
  2
AmgObjPropCfg
  3
"AmgLay|Product Description: AutoCAD Mechanical|Company: Autodesk, Inc."
 90
     1025
 91
        1
280
     0
281
     0
  0
CLASS
  1
ACAMGHOLECHARTSTDANSI
  2
AcAmgHoleChartStdANSI
  3
AmgDim|Product Description: AutoCAD Mechanical|Company: Autodesk, Inc.
 90
     1024
 91
        1
280
     0
281
     0
  0
CLASS
  1
ACAMGTITLESTD
  2
AcAmgTitleStd
  3
"AmgTitle|Product Description: AutoCAD Mechanical|Company: Autodesk, Inc."
 90
     4095
 91
        1
280
     0
281
     0
  0
CLASS
  1
AMDTNOTETEMPLATEDB
  2
AmdtNoteTemplateDB
  3
AcmSymBB|Product Description: AutoCAD Mechanical|Company: Autodesk, Inc.
 90
     1024
 91
        6
280
     0
281
     0
  0
CLASS
  1
ACAMGFILTERDAT
  2
AcAmgFilterDat
  3
"AcadM|Product Description: AutoCAD Mechanical|Company: Autodesk, Inc."
 90
     1024
 91
        0
280
     0
281
     0
  0
CLASS
  1
DICTIONARYVAR
  2
AcDbDictionaryVar
  3
ObjectDBX Classes
 90
        0
 91
        3
280
     0
281
     0
  0
CLASS
  1
CELLSTYLEMAP
  2
AcDbCellStyleMap
  3
ObjectDBX Classes
 90
     1152
 91
        4
280
     0
281
     0
  0
ENDSEC
  0
SECTION
  2
TABLES
  0
TABLE
  2
VPORT
  5
8
330
0
100
AcDbSymbolTable
 70
     1
  0
VPORT
  5
1F4
330
8
100
AcDbSymbolTableRecord
100
AcDbViewportTableRecord
  2
*ACTIVE
 70
     0
 10
0.0
 20
0.0
 11
1.0
 21
1.0
 12
5.733859103134562
 22
8.147569714441644
 13
0.0
 23
0.0
 14
1.0
 24
1.0
 15
0.0
 25
0.0
 16
0.0
 26
0.0
 36
1.0
 17
0.0
 27
0.0
 37
0.0
 40
19.78607003514523
 41
1.605849582172701
 42
50.0
 43
0.0
 44
0.0
 50
0.0
 51
0.0
 71
     0
 72
   100
 73
     1
 74
     1
 75
     0
 76
     0
 77
     0
 78
     0
281
     0
 65
     0
110
0.0
120
0.0
130
0.0
111
1.0
121
0.0
131
0.0
112
0.0
122
1.0
132
0.0
 79
     0
146
0.0
348
F07
 60
     3
 61
     5
292
     1
282
     1
141
0.0
142
0.0
 63
   250
421
  3355443
  0
ENDTAB
  0
TABLE
  2
LTYPE
  5
5
330
0
100
AcDbSymbolTable
 70
    19
  0
LTYPE
  5
14
330
5
100
AcDbSymbolTableRecord
100
AcDbLinetypeTableRecord
  2
BYBLOCK
 70
     0
  3

 72
    65
 73
     0
 40
0.0
  0
LTYPE
  5
15
330
5
100
AcDbSymbolTableRecord
100
AcDbLinetypeTableRecord
  2
BYLAYER
 70
     0
  3

 72
    65
 73
     0
 40
0.0
  0
LTYPE
  5
16
330
5
100
AcDbSymbolTableRecord
100
AcDbLinetypeTableRecord
  2
CONTINUOUS
 70
     0
  3
Solid line
 72
    65
 73
     0
 40
0.0
  0
LTYPE
  5
1F5
330
5
100
AcDbSymbolTableRecord
100
AcDbLinetypeTableRecord
  2
CENTER
 70
     0
  3
____ _ ____ _ ____ _ ____ _ ____ _ ____ _ ____
 72
    65
 73
     4
 40
0.6
 49
0.375
 74
     0
 49
-0.075
 74
     0
 49
0.075
 74
     0
 49
-0.075
 74
     0
  0
LTYPE
  5
1F6
330
5
100
AcDbSymbolTableRecord
100
AcDbLinetypeTableRecord
  2
HIDDEN
 70
     0
  3
- - - - - - - - - - - - - - - - - - - -
 72
    65
 73
     2
 40
0.2
 49
0.1
 74
     0
 49
-0.1
 74
     0
  0
LTYPE
  5
1F7
330
5
100
AcDbSymbolTableRecord
100
AcDbLinetypeTableRecord
  2
PHANTOM
 70
     0
  3
_____ _ _ _____ _ _ _____ _ _ _____
 72
    65
 73
     6
 40
0.8
 49
0.45
 74
     0
 49
-0.05
 74
     0
 49
0.1
 74
     0
 49
-0.05
 74
     0
 49
0.1
 74
     0
 49
-0.05
 74
     0
  0
LTYPE
  5
1F8
330
5
100
AcDbSymbolTableRecord
100
AcDbLinetypeTableRecord
  2
DOT
 70
     0
  3
. . . . . . . . . . . . . . . . . . . .
 72
    65
 73
     2
 40
0.2
 49
0.1
 74
     0
 49
-0.1
 74
     0
  0
LTYPE
  5
1F9
330
5
100
AcDbSymbolTableRecord
100
AcDbLinetypeTableRecord
  2
DASHED
 70
     0
  3
- - - - - - - - - - - - - - - - - - - -
 72
    65
 73
     2
 40
0.2
 49
0.1
 74
     0
 49
-0.1
 74
     0
  0
LTYPE
  5
F6D
330
5
100
AcDbSymbolTableRecord
100
AcDbLinetypeTableRecord
  2
PHANTOM2
 70
     0
  3
Phantom (.5x) ___ _ _ ___ _ _ ___ _ _ ___ _ _
 72
    65
 73
     6
 40
1.25
 49
0.625
 74
     0
 49
-0.125
 74
     0
 49
0.125
 74
     0
 49
-0.125
 74
     0
 49
0.125
 74
     0
 49
-0.125
 74
     0
  0
LTYPE
  5
FB4
330
5
100
AcDbSymbolTableRecord
100
AcDbLinetypeTableRecord
  2
AM_ISO02W050
 70
     0
  3
__ __ __ __ __ __ __ __ __ __ __ __ __ __ __
 72
    65
 73
     2
 40
7.5
 49
6.0
 74
     0
 49
-1.5
 74
     0
  0
LTYPE
  5
FB5
330
5
100
AcDbSymbolTableRecord
100
AcDbLinetypeTableRecord
  2
AM_ISO08W050
 70
     0
  3
____ . ____ . ____ . ____ . ____ . ____ . ____
 72
    65
 73
     4
 40
18.0
 49
12.0
 74
     0
 49
-1.5
 74
     0
 49
3.0
 74
     0
 49
-1.5
 74
     0
  0
LTYPE
  5
FB6
330
5
100
AcDbSymbolTableRecord
100
AcDbLinetypeTableRecord
  2
AM_ISO09W050
 70
     0
  3
_____ . . _____ . . _____ . . ____ .. ____
 72
    65
 73
     6
 40
22.5
 49
12.0
 74
     0
 49
-1.5
 74
     0
 49
3.0
 74
     0
 49
-1.5
 74
     0
 49
3.0
 74
     0
 49
-1.5
 74
     0
  0
LTYPE
  5
FB7
330
5
100
AcDbSymbolTableRecord
100
AcDbLinetypeTableRecord
  2
Amconstr
 70
     0
  3
_______________________
 72
    65
 73
     2
 40
9999.0
 49
9999.0
 74
     0
 49
0.0
 74
     0
  0
LTYPE
  5
FB8
330
5
100
AcDbSymbolTableRecord
100
AcDbLinetypeTableRecord
  2
AM_ISO08W050x2
 70
     0
  3
__ . __ . __ . __ . __ . __
 72
    65
 73
     4
 40
9.0
 49
6.0
 74
     0
 49
-0.75
 74
     0
 49
1.5
 74
     0
 49
-0.75
 74
     0
  0
LTYPE
  5
FB9
330
5
100
AcDbSymbolTableRecord
100
AcDbLinetypeTableRecord
  2
AM_ISO02W050x2
 70
     0
  3
 _ _ _ _ _ _ _ _ _ _ _ _
 72
    65
 73
     2
 40
3.75
 49
3.0
 74
     0
 49
-0.75
 74
     0
  0
LTYPE
  5
FBC
330
5
100
AcDbSymbolTableRecord
100
AcDbLinetypeTableRecord
  2
Amzigzag
 70
     0
  3
/\/-/\/-/\/-/\/-/\/-/\/
 72
    65
 73
     2
 40
11.0001
 49
0.0001
 74
     4
 75
   136
340
FBB
 46
0.04
 50
0.0
 44
0.0
 45
0.0
 49
-11.0
 74
     0
  0
LTYPE
  5
FBD
330
5
100
AcDbSymbolTableRecord
100
AcDbLinetypeTableRecord
  2
CENTER2
 70
     0
  3
Center (.5x) ___ _ ___ _ ___ _ ___ _ ___ _ ___
 72
    65
 73
     4
 40
1.125
 49
0.75
 74
     0
 49
-0.125
 74
     0
 49
0.125
 74
     0
 49
-0.125
 74
     0
  0
LTYPE
  5
FBE
330
5
100
AcDbSymbolTableRecord
100
AcDbLinetypeTableRecord
  2
HIDDEN2
 70
     0
  3
Hidden (.5x) _ _ _ _ _ _ _ _ _ _ _ _ _ _ _ _ _
 72
    65
 73
     2
 40
0.1875
 49
0.125
 74
     0
 49
-0.0625
 74
     0
  0
LTYPE
  5
FBF
330
5
100
AcDbSymbolTableRecord
100
AcDbLinetypeTableRecord
  2
Amzigzag2
 70
     0
  3
/\/-/\/-/\/-/\/-/\/-/\/
 72
    65
 73
     2
 40
0.4401
 49
0.0001
 74
     4
 75
   136
340
FBB
 46
0.0016
 50
0.0
 44
0.0
 45
0.0
 49
-0.4400000000000003
 74
     0
  0
LTYPE
  5
FCD
330
5
100
AcDbSymbolTableRecord
100
AcDbLinetypeTableRecord
  2
ACANSTGB
 70
     0
  3
__ . . __ . .
 72
    65
 73
     6
 40
0.35433070866
 49
0.15748031496
 74
     0
 49
-0.03937007874
 74
     0
 49
0.03937007874
 74
     0
 49
-0.03937007874
 74
     0
 49
0.03937007874
 74
     0
 49
-0.03937007874
 74
     0
  0
LTYPE
  5
FCE
330
5
100
AcDbSymbolTableRecord
100
AcDbLinetypeTableRecord
  2
ACANSTGL
 70
     0
  3
_ _ _ _ _
 72
    65
 73
     2
 40
0.11811023622
 49
0.07874015748
 74
     0
 49
-0.03937007874
 74
     0
  0
ENDTAB
  0
TABLE
  2
LAYER
  5
2
330
0
100
AcDbSymbolTable
 70
    20
  0
LAYER
  5
10
330
2
100
AcDbSymbolTableRecord
100
AcDbLayerTableRecord
  2
0
 70
     0
 62
     7
  6
CONTINUOUS
370
    -3
390
F
347
EF9
  0
LAYER
  5
1FA
330
2
100
AcDbSymbolTableRecord
100
AcDbLayerTableRecord
  2
DEFAULT_1
 70
     0
 62
     7
  6
CENTER
370
    -3
390
F
347
EF9
  0
LAYER
  5
1FB
330
2
100
AcDbSymbolTableRecord
100
AcDbLayerTableRecord
  2
DEFAULT_2
 70
     0
 62
     8
  6
HIDDEN
370
    -3
390
F
347
EF9
  0
LAYER
  5
1FC
330
2
100
AcDbSymbolTableRecord
100
AcDbLayerTableRecord
  2
DEFAULT_3
 70
     0
 62
     7
  6
PHANTOM
370
    -3
390
F
347
EF9
  0
LAYER
  5
1FD
330
2
100
AcDbSymbolTableRecord
100
AcDbLayerTableRecord
  2
CURVE1
 70
     0
 62
     7
  6
CONTINUOUS
370
    -3
390
F
347
EF9
  0
LAYER
  5
1FE
330
2
100
AcDbSymbolTableRecord
100
AcDbLayerTableRecord
  2
DATUMS
 70
     0
 62
     7
  6
CONTINUOUS
370
    -3
390
F
347
EF9
  0
LAYER
  5
1FF
330
2
100
AcDbSymbolTableRecord
100
AcDbLayerTableRecord
  2
DATUM_AXIS
 70
     0
 62
     7
  6
CONTINUOUS
370
    -3
390
F
347
EF9
  0
LAYER
  5
200
330
2
100
AcDbSymbolTableRecord
100
AcDbLayerTableRecord
  2
DATUM_CSYS
 70
     0
 62
     7
  6
CONTINUOUS
370
    -3
390
F
347
EF9
  0
LAYER
  5
201
330
2
100
AcDbSymbolTableRecord
100
AcDbLayerTableRecord
  2
DATUM_PLANE
 70
     0
 62
     7
  6
CONTINUOUS
370
    -3
390
F
347
EF9
  0
LAYER
  5
202
330
2
100
AcDbSymbolTableRecord
100
AcDbLayerTableRecord
  2
DATUM_POINT
 70
     0
 62
     7
  6
CONTINUOUS
370
    -3
390
F
347
EF9
  0
LAYER
  5
203
330
2
100
AcDbSymbolTableRecord
100
AcDbLayerTableRecord
  2
LAY0001
 70
     0
 62
     7
  6
CONTINUOUS
370
    -3
390
F
347
EF9
  0
LAYER
  5
204
330
2
100
AcDbSymbolTableRecord
100
AcDbLayerTableRecord
  2
SURFACE
 70
     0
 62
     7
  6
CONTINUOUS
370
    -3
390
F
347
EF9
  0
LAYER
  5
205
330
2
100
AcDbSymbolTableRecord
100
AcDbLayerTableRecord
  2
SURFACE2
 70
     0
 62
     7
  6
CONTINUOUS
370
    -3
390
F
347
EF9
  0
LAYER
  5
206
330
2
100
AcDbSymbolTableRecord
100
AcDbLayerTableRecord
  2
_CURVE
 70
     0
 62
     7
  6
CONTINUOUS
370
    -3
390
F
347
EF9
  0
LAYER
  5
207
330
2
100
AcDbSymbolTableRecord
100
AcDbLayerTableRecord
  2
_SURFACE
 70
     0
 62
     7
  6
CONTINUOUS
370
    -3
390
F
347
EF9
  0
LAYER
  5
208
330
2
100
AcDbSymbolTableRecord
100
AcDbLayerTableRecord
  2
__REF_CURVE
 70
     0
 62
     7
  6
CONTINUOUS
370
    -3
390
F
347
EF9
  0
LAYER
  5
209
330
2
100
AcDbSymbolTableRecord
100
AcDbLayerTableRecord
  2
__REF_SURFACE
 70
     0
 62
     7
  6
CONTINUOUS
370
    -3
390
F
347
EF9
  0
LAYER
  5
20A
330
2
100
AcDbSymbolTableRecord
100
AcDbLayerTableRecord
  2
___COSMETIC_SKETCH
 70
     0
 62
     7
  6
CONTINUOUS
370
    -3
390
F
347
EF9
  0
LAYER
  5
20B
330
2
100
AcDbSymbolTableRecord
100
AcDbLayerTableRecord
  2
___NOTE
 70
     0
 62
     7
  6
CONTINUOUS
370
    -3
390
F
347
EF9
  0
LAYER
  5
20C
330
2
100
AcDbSymbolTableRecord
100
AcDbLayerTableRecord
  2
___SYMBOL
 70
     0
 62
     7
  6
CONTINUOUS
370
    -3
390
F
347
EF9
  0
ENDTAB
  0
TABLE
  2
STYLE
  5
3
330
0
100
AcDbSymbolTable
 70
    19
  0
STYLE
  5
11
330
3
100
AcDbSymbolTableRecord
100
AcDbTextStyleTableRecord
  2
STANDARD
 70
     0
 40
0.0
 41
0.8
 50
0.0
 71
     0
 42
0.2
  3
txt
  4

  0
STYLE
  5
20D
330
3
100
AcDbSymbolTableRecord
100
AcDbTextStyleTableRecord
  2
TEXTSTYLE_1
 70
     0
 40
0.0
 41
0.8
 50
0.0
 71
     0
 42
0.2
  3
gdt
  4

  0
STYLE
  5
20E
330
3
100
AcDbSymbolTableRecord
100
AcDbTextStyleTableRecord
  2
TEXTSTYLE_2
 70
     0
 40
0.0
 41
1.04
 50
0.0
 71
     0
 42
0.2
  3
txt
  4

  0
STYLE
  5
20F
330
3
100
AcDbSymbolTableRecord
100
AcDbTextStyleTableRecord
  2
TEXTSTYLE_3
 70
     0
 40
0.0
 41
0.9399999999999998
 50
0.0
 71
     0
 42
0.2
  3
txt
  4

  0
STYLE
  5
210
330
3
100
AcDbSymbolTableRecord
100
AcDbTextStyleTableRecord
  2
TEXTSTYLE_4
 70
     0
 40
0.0
 41
1.0
 50
0.0
 71
     0
 42
0.2
  3
txt
  4

  0
STYLE
  5
211
330
3
100
AcDbSymbolTableRecord
100
AcDbTextStyleTableRecord
  2
TEXTSTYLE_5
 70
     0
 40
0.0
 41
1.199999999999999
 50
0.0
 71
     0
 42
0.2
  3
txt
  4

  0
STYLE
  5
212
330
3
100
AcDbSymbolTableRecord
100
AcDbTextStyleTableRecord
  2
TEXTSTYLE_6
 70
     0
 40
0.0
 41
1.02
 50
0.0
 71
     0
 42
0.2
  3
txt
  4

  0
STYLE
  5
213
330
3
100
AcDbSymbolTableRecord
100
AcDbTextStyleTableRecord
  2
TEXTSTYLE_7
 70
     0
 40
0.0
 41
0.925
 50
0.0
 71
     0
 42
0.2
  3
txt
  4

  0
STYLE
  5
214
330
3
100
AcDbSymbolTableRecord
100
AcDbTextStyleTableRecord
  2
TEXTSTYLE_8
 70
     0
 40
0.0
 41
1.0500002909
 50
0.0
 71
     0
 42
0.2
  3
txt
  4

  0
STYLE
  5
215
330
3
100
AcDbSymbolTableRecord
100
AcDbTextStyleTableRecord
  2
TEXTSTYLE_9
 70
     0
 40
0.0
 41
1.09
 50
0.0
 71
     0
 42
0.2
  3
txt
  4

  0
STYLE
  5
216
330
3
100
AcDbSymbolTableRecord
100
AcDbTextStyleTableRecord
  2
TEXTSTYLE_10
 70
     0
 40
0.0
 41
0.9899995429
 50
0.0
 71
     0
 42
0.2
  3
txt
  4

  0
STYLE
  5
217
330
3
100
AcDbSymbolTableRecord
100
AcDbTextStyleTableRecord
  2
TEXTSTYLE_11
 70
     0
 40
0.0
 41
1.07
 50
0.0
 71
     0
 42
0.2
  3
txt
  4

  0
STYLE
  5
218
330
3
100
AcDbSymbolTableRecord
100
AcDbTextStyleTableRecord
  2
TEXTSTYLE_12
 70
     0
 40
0.0
 41
1.229999999999997
 50
0.0
 71
     0
 42
0.2
  3
txt
  4

  0
STYLE
  5
219
330
3
100
AcDbSymbolTableRecord
100
AcDbTextStyleTableRecord
  2
TEXTSTYLE_13
 70
     0
 40
0.0
 41
0.9700032
 50
0.0
 71
     0
 42
0.2
  3
txt
  4

  0
STYLE
  5
21A
330
3
100
AcDbSymbolTableRecord
100
AcDbTextStyleTableRecord
  2
TEXTSTYLE_14
 70
     0
 40
0.0
 41
1.379999999999999
 50
0.0
 71
     0
 42
0.2
  3
txt
  4

  0
STYLE
  5
21B
330
3
100
AcDbSymbolTableRecord
100
AcDbTextStyleTableRecord
  2
TEXTSTYLE_15
 70
     0
 40
0.0
 41
0.95
 50
0.0
 71
     0
 42
0.2
  3
txt
  4

  0
STYLE
  5
FBB
330
3
100
AcDbSymbolTableRecord
100
AcDbTextStyleTableRecord
  2

 70
     1
 40
0.0
 41
1.0
 50
0.0
 71
     0
 42
0.2
  3
genltshp.shx
  4

  0
STYLE
  5
FCB
330
3
100
AcDbSymbolTableRecord
100
AcDbTextStyleTableRecord
  2
ACANSTS
 70
     0
 40
1.0
 41
1.0
 50
0.0
 71
     0
 42
0.2
  3
romans.shx
  4
gbcbig.shx
  0
STYLE
  5
FCC
330
3
100
AcDbSymbolTableRecord
100
AcDbTextStyleTableRecord
  2
ACANSGDT
 70
     0
 40
0.0
 41
1.0
 50
0.0
 71
     0
 42
0.2
  3
amgdt.shx
  4

  0
ENDTAB
  0
TABLE
  2
VIEW
  5
6
330
0
100
AcDbSymbolTable
 70
     0
  0
ENDTAB
  0
TABLE
  2
UCS
  5
7
330
0
100
AcDbSymbolTable
 70
     0
  0
ENDTAB
  0
TABLE
  2
APPID
  5
9
330
0
100
AcDbSymbolTable
 70
     9
  0
APPID
  5
21C
330
9
100
AcDbSymbolTableRecord
100
AcDbRegAppTableRecord
  2
ACAD
 70
     0
  0
APPID
  5
F37
330
9
100
AcDbSymbolTableRecord
100
AcDbRegAppTableRecord
  2
ACAD_MLEADERVER
 70
     0
  0
APPID
  5
F40
330
9
100
AcDbSymbolTableRecord
100
AcDbRegAppTableRecord
  2
MCAD_NO_VIS
 70
     0
  0
APPID
  5
F41
330
9
100
AcDbSymbolTableRecord
100
AcDbRegAppTableRecord
  2
ACAD_TEMP_GRAPHIC
 70
     0
  0
APPID
  5
F6F
330
9
100
AcDbSymbolTableRecord
100
AcDbRegAppTableRecord
  2
AD_DRAW
 70
     0
  0
APPID
  5
F72
330
9
100
AcDbSymbolTableRecord
100
AcDbRegAppTableRecord
  2
ACATTRIBSERVICES
 70
     0
  0
APPID
  5
F93
330
9
100
AcDbSymbolTableRecord
100
AcDbRegAppTableRecord
  2
DESIGNERASSEMBLIES
 70
     0
  0
APPID
  5
F99
330
9
100
AcDbSymbolTableRecord
100
AcDbRegAppTableRecord
  2
ACADM_DIM_EDIT
 70
     0
  0
APPID
  5
F9A
330
9
100
AcDbSymbolTableRecord
100
AcDbRegAppTableRecord
  2
AMDT_DM_ADJ
 70
     0
  0
ENDTAB
  0
TABLE
  2
DIMSTYLE
  5
A
330
0
100
AcDbSymbolTable
 70
    16
100
AcDbDimStyleTable
 71
     1
340
FB2
  0
DIMSTYLE
105
23C
330
A
100
AcDbSymbolTableRecord
100
AcDbDimStyleTableRecord
  2
STANDARD
 70
     0
 41
0.1875
 47
0.01
 48
0.01
 71
     1
 78
     4
140
0.15625
271
     3
272
     3
284
     4
340
11
341
21F
342
21F
343
21F
344
21F
  0
DIMSTYLE
105
23D
330
A
100
AcDbSymbolTableRecord
100
AcDbDimStyleTableRecord
  2
DIMSTYLE_1
 70
     0
 41
0.1875
 47
3.0
 48
3.0
 71
     1
 78
     4
140
0.15625
144
4.0
271
     1
272
     1
284
     4
340
11
341
21F
342
21F
343
21F
344
21F
  0
DIMSTYLE
105
23E
330
A
100
AcDbSymbolTableRecord
100
AcDbDimStyleTableRecord
  2
DIMSTYLE_2
 70
     0
 41
0.1875
 47
0.01
 48
0.01
 78
     4
140
0.15625
144
4.0
271
     3
272
     3
284
     4
340
11
341
21F
342
21F
343
21F
344
21F
  0
DIMSTYLE
105
23F
330
A
100
AcDbSymbolTableRecord
100
AcDbDimStyleTableRecord
  2
DIMSTYLE_3
 70
     0
 41
0.1875
 47
0.1
 48
0.1
 78
     4
140
0.15625
144
4.0
271
     3
272
     3
284
     4
340
11
341
21F
342
21F
343
21F
344
21F
  0
DIMSTYLE
105
240
330
A
100
AcDbSymbolTableRecord
100
AcDbDimStyleTableRecord
  2
DIMSTYLE_4
 70
     0
 41
0.1875
 47
0.1
 48
0.1
 78
     4
140
0.15625
144
4.0
271
     1
272
     1
284
     4
340
11
341
21F
342
21F
343
21F
344
21F
  0
DIMSTYLE
105
241
330
A
100
AcDbSymbolTableRecord
100
AcDbDimStyleTableRecord
  2
DIMSTYLE_5
 70
     0
 41
0.1875
 47
0.001
 48
0.001
 78
     4
140
0.15625
144
4.0
271
     3
272
     3
284
     4
340
11
341
21F
342
21F
343
21F
344
21F
  0
DIMSTYLE
105
242
330
A
100
AcDbSymbolTableRecord
100
AcDbDimStyleTableRecord
  2
DIMSTYLE_6
 70
     0
 41
0.1875
 47
0.01
 48
0.01
 78
     4
140
0.15625
144
4.0
271
     3
272
     3
284
     4
340
11
341
21F
342
21F
343
21F
344
21F
  0
DIMSTYLE
105
243
330
A
100
AcDbSymbolTableRecord
100
AcDbDimStyleTableRecord
  2
DIMSTYLE_7
 70
     0
 41
0.1875
 47
3.0
 48
3.0
 71
     1
 78
     4
140
0.15625
144
4.0
271
     0
272
     0
284
     4
340
11
341
21F
342
21F
343
21F
344
21F
  0
DIMSTYLE
105
244
330
A
100
AcDbSymbolTableRecord
100
AcDbDimStyleTableRecord
  2
DIMSTYLE_8
 70
     0
 41
0.1875
 47
0.1
 48
0.1
 78
     4
140
0.15625
144
4.0
271
     1
272
     1
284
     4
340
11
341
21F
342
21F
343
21F
344
21F
  0
DIMSTYLE
105
245
330
A
100
AcDbSymbolTableRecord
100
AcDbDimStyleTableRecord
  2
DIMSTYLE_9
 70
     0
 41
0.1875
 78
     4
140
0.15625
144
4.0
271
     0
272
     0
284
     4
340
11
341
21F
342
21F
343
21F
344
21F
  0
DIMSTYLE
105
FB2
102
{ACAD_REACTORS
330
10CE
102
}
330
A
100
AcDbSymbolTableRecord
100
AcDbDimStyleTableRecord
  2
AM_ANSI
 70
     0
  4
mm
 41
0.12
 42
0.05
 43
0.5
 44
0.1
 47
0.1
 48
0.1
 78
     7
 79
     2
 90
     1
140
0.12
141
0.0
146
0.71
147
0.06
176
   256
177
   256
178
   140
274
     4
284
     7
340
11
345
14
346
14
347
14
371
    -1
372
    -1
  0
DIMSTYLE
105
FC0
330
A
100
AcDbSymbolTableRecord
100
AcDbDimStyleTableRecord
  2
AM_ANSI$3
 70
     0
  4
mm
 41
0.12
 42
0.05
 43
0.5
 44
0.1
 47
0.1
 48
0.1
 78
     7
 79
     2
 90
     1
140
0.12
141
0.0
146
0.71
147
0.06
176
   256
177
   256
178
   140
274
     4
284
     7
288
     1
289
     0
340
11
345
14
346
14
347
14
371
    -1
372
    -1
  0
DIMSTYLE
105
FC1
330
A
100
AcDbSymbolTableRecord
100
AcDbDimStyleTableRecord
  2
AM_ANSI$4
 70
     0
  4
mm
 41
0.12
 42
0.05
 43
0.5
 44
0.1
 47
0.1
 48
0.1
 78
     7
 79
     2
 90
     1
140
0.12
141
0.0
146
0.71
147
0.06
176
   256
177
   256
178
   140
274
     4
284
     7
340
11
345
14
346
14
347
14
371
    -1
372
    -1
  0
DIMSTYLE
105
FC2
330
A
100
AcDbSymbolTableRecord
100
AcDbDimStyleTableRecord
  2
AM_ANSI$7
 70
     0
  4
mm
 41
0.12
 42
0.05
 43
0.5
 44
0.1
 47
0.1
 48
0.1
 78
     7
 79
     2
 90
     1
140
0.12
141
0.0
146
0.71
147
0.06
176
   256
177
   256
178
   140
274
     4
284
     7
340
11
345
14
346
14
347
14
371
    -1
372
    -1
  0
DIMSTYLE
105
FC3
330
A
100
AcDbSymbolTableRecord
100
AcDbDimStyleTableRecord
  2
AM_ANSI$SF
 70
     0
  4
mm
 41
0.12
 42
0.05
 43
0.5
 44
0.1
 47
0.1
 48
0.1
 75
     1
 76
     1
 78
     7
 79
     2
 90
     1
140
0.12
141
0.0
146
0.71
147
0.06
176
   256
177
   256
178
   140
274
     4
284
     7
340
11
345
14
346
14
347
14
371
    -1
372
    -1
  0
DIMSTYLE
105
FC8
330
A
100
AcDbSymbolTableRecord
100
AcDbDimStyleTableRecord
  2
AM_ANSI$SH
 70
     0
  4
mm
 41
0.12
 42
0.05
 43
0.5
 44
0.1
 47
0.1
 48
0.1
 75
     1
 76
     1
 78
     7
 79
     2
 90
     1
140
0.12
141
0.0
146
0.71
147
0.06
173
     1
176
   256
177
   256
178
   140
274
     4
284
     7
340
11
343
FC4
345
14
346
14
347
14
371
    -1
372
    -1
  0
ENDTAB
  0
TABLE
  2
BLOCK_RECORD
  5
1
330
0
100
AcDbSymbolTable
 70
    29
  0
BLOCK_RECORD
  5
21D
330
1
100
AcDbSymbolTableRecord
100
AcDbBlockTableRecord
  2
*Model_Space
340
EE2
 70
     0
280
     1
281
     0
  0
BLOCK_RECORD
  5
21E
330
1
100
AcDbSymbolTableRecord
100
AcDbBlockTableRecord
  2
*Paper_Space
340
EE3
 70
     0
280
     1
281
     0
  0
BLOCK_RECORD
  5
21F
330
1
100
AcDbSymbolTableRecord
100
AcDbBlockTableRecord
  2
_FILLED
340
0
102
{BLKREFS
331
2D4
331
2D5
331
2DA
331
2DF
331
2E4
331
2E9
331
2EE
331
2F3
331
2F8
331
305
331
30A
331
311
331
312
331
319
331
31A
331
322
331
323
331
32A
331
32B
331
332
331
333
331
33A
331
33B
331
342
331
343
331
34A
331
34B
102
}
 70
     0
280
     1
281
     0
  0
BLOCK_RECORD
  5
220
330
1
100
AcDbSymbolTableRecord
100
AcDbBlockTableRecord
  2
*D1
340
0
 70
     0
280
     1
281
     0
  0
BLOCK_RECORD
  5
221
330
1
100
AcDbSymbolTableRecord
100
AcDbBlockTableRecord
  2
*D2
340
0
 70
     0
280
     1
281
     0
  0
BLOCK_RECORD
  5
222
330
1
100
AcDbSymbolTableRecord
100
AcDbBlockTableRecord
  2
*D3
340
0
 70
     0
280
     1
281
     0
  0
BLOCK_RECORD
  5
223
330
1
100
AcDbSymbolTableRecord
100
AcDbBlockTableRecord
  2
*D4
340
0
 70
     0
280
     1
281
     0
  0
BLOCK_RECORD
  5
224
330
1
100
AcDbSymbolTableRecord
100
AcDbBlockTableRecord
  2
*D5
340
0
 70
     0
280
     1
281
     0
  0
BLOCK_RECORD
  5
225
330
1
100
AcDbSymbolTableRecord
100
AcDbBlockTableRecord
  2
*D6
340
0
 70
     0
280
     1
281
     0
  0
BLOCK_RECORD
  5
226
330
1
100
AcDbSymbolTableRecord
100
AcDbBlockTableRecord
  2
*D7
340
0
 70
     0
280
     1
281
     0
  0
BLOCK_RECORD
  5
227
330
1
100
AcDbSymbolTableRecord
100
AcDbBlockTableRecord
  2
*D8
340
0
 70
     0
280
     1
281
     0
  0
BLOCK_RECORD
  5
228
330
1
100
AcDbSymbolTableRecord
100
AcDbBlockTableRecord
  2
*D9
340
0
 70
     0
280
     1
281
     0
  0
BLOCK_RECORD
  5
229
330
1
100
AcDbSymbolTableRecord
100
AcDbBlockTableRecord
  2
*D10
340
0
 70
     0
280
     1
281
     0
  0
BLOCK_RECORD
  5
22A
330
1
100
AcDbSymbolTableRecord
100
AcDbBlockTableRecord
  2
*D11
340
0
 70
     0
280
     1
281
     0
  0
BLOCK_RECORD
  5
22B
330
1
100
AcDbSymbolTableRecord
100
AcDbBlockTableRecord
  2
*D12
340
0
 70
     0
280
     1
281
     0
  0
BLOCK_RECORD
  5
22C
330
1
100
AcDbSymbolTableRecord
100
AcDbBlockTableRecord
  2
*D13
340
0
 70
     0
280
     1
281
     0
  0
BLOCK_RECORD
  5
22D
330
1
100
AcDbSymbolTableRecord
100
AcDbBlockTableRecord
  2
*D14
340
0
 70
     0
280
     1
281
     0
  0
BLOCK_RECORD
  5
22E
330
1
100
AcDbSymbolTableRecord
100
AcDbBlockTableRecord
  2
*D15
340
0
 70
     0
280
     1
281
     0
  0
BLOCK_RECORD
  5
22F
330
1
100
AcDbSymbolTableRecord
100
AcDbBlockTableRecord
  2
*D16
340
0
 70
     0
280
     1
281
     0
  0
BLOCK_RECORD
  5
230
330
1
100
AcDbSymbolTableRecord
100
AcDbBlockTableRecord
  2
*D17
340
0
 70
     0
280
     1
281
     0
  0
BLOCK_RECORD
  5
231
330
1
100
AcDbSymbolTableRecord
100
AcDbBlockTableRecord
  2
*D18
340
0
 70
     0
280
     1
281
     0
  0
BLOCK_RECORD
  5
232
330
1
100
AcDbSymbolTableRecord
100
AcDbBlockTableRecord
  2
*D19
340
0
 70
     0
280
     1
281
     0
  0
BLOCK_RECORD
  5
233
330
1
100
AcDbSymbolTableRecord
100
AcDbBlockTableRecord
  2
SYMBOL_4_BL6
340
0
 70
     0
280
     1
281
     0
  0
BLOCK_RECORD
  5
234
330
1
100
AcDbSymbolTableRecord
100
AcDbBlockTableRecord
  2
SYMBOL_2_BL5
340
0
 70
     0
280
     1
281
     0
  0
BLOCK_RECORD
  5
235
330
1
100
AcDbSymbolTableRecord
100
AcDbBlockTableRecord
  2
SYMBOL_11_BL4
340
0
 70
     0
280
     1
281
     0
  0
BLOCK_RECORD
  5
236
330
1
100
AcDbSymbolTableRecord
100
AcDbBlockTableRecord
  2
SYMBOL_10_BL3
340
0
 70
     0
280
     1
281
     0
  0
BLOCK_RECORD
  5
237
330
1
100
AcDbSymbolTableRecord
100
AcDbBlockTableRecord
  2
SYMBOL_8_BL2
340
0
 70
     0
280
     1
281
     0
  0
BLOCK_RECORD
  5
238
330
1
100
AcDbSymbolTableRecord
100
AcDbBlockTableRecord
  2
SYMBOL_6_BL1
340
0
 70
     0
280
     1
281
     0
  0
BLOCK_RECORD
  5
239
330
1
100
AcDbSymbolTableRecord
100
AcDbBlockTableRecord
  2
SYMBOL_0_BL0
340
0
 70
     0
280
     1
281
     0
  0
BLOCK_RECORD
  5
FC4
330
1
100
AcDbSymbolTableRecord
100
AcDbBlockTableRecord
  2
GENAXEH
340
0
 70
     0
280
     1
281
     0
  0
ENDTAB
  0
ENDSEC
  0
SECTION
  2
BLOCKS
  0
BLOCK
  5
20
330
21D
100
AcDbEntity
  8
0
100
AcDbBlockBegin
  2
*Model_Space
 70
     0
 10
0.0
 20
0.0
 30
0.0
  3
*Model_Space
  1

  0
ENDBLK
  5
21
330
21D
100
AcDbEntity
  8
0
100
AcDbBlockEnd
  0
BLOCK
  5
1C
330
21E
100
AcDbEntity
 67
     1
  8
0
100
AcDbBlockBegin
  2
*Paper_Space
 70
     0
 10
0.0
 20
0.0
 30
0.0
  3
*Paper_Space
  1

  0
ENDBLK
  5
1D
330
21E
100
AcDbEntity
 67
     1
  8
0
100
AcDbBlockEnd
  0
BLOCK
  5
2CC
330
21F
100
AcDbEntity
  8
0
100
AcDbBlockBegin
  2
_FILLED
 70
     0
 10
0.0
 20
0.0
 30
0.0
  3
_FILLED
  1

  0
SOLID
  5
2CD
330
21F
100
AcDbEntity
  8
0
  6
ByBlock
 62
     0
100
AcDbTrace
 10
0.0
 20
0.0
 30
0.0
 11
-1.0
 21
0.1666666667
 31
0.0
 12
-1.0
 22
-0.1666666667
 32
0.0
 13
-1.0
 23
-0.1666666667
 33
0.0
  0
ENDBLK
  5
2CE
330
21F
100
AcDbEntity
  8
0
  6
ByBlock
 62
     0
100
AcDbBlockEnd
  0
BLOCK
  5
2CF
330
220
100
AcDbEntity
  8
0
  6
Continuous
 62
     2
100
AcDbBlockBegin
  2
*D1
 70
     1
 10
0.0
 20
0.0
 30
0.0
  3
*D1
  1

  0
LINE
  5
2D0
330
220
100
AcDbEntity
  8
0
  6
Continuous
 62
     2
100
AcDbLine
 10
17.2188360791
 20
10.7703933253
 30
0.0
 11
17.2188360791
 21
9.057186064899999
 31
0.0
  0
LINE
  5
2D1
330
220
100
AcDbEntity
  8
0
  6
Continuous
 62
     2
100
AcDbLine
 10
5.506237653899997
 20
10.7552510572
 30
0.0
 11
5.506237653899997
 21
9.057186064899999
 31
0.0
  0
LINE
  5
2D2
330
220
100
AcDbEntity
  8
0
  6
Continuous
 62
     2
100
AcDbLine
 10
17.2188360791
 20
9.182186064899999
 30
0.0
 11
11.2627981025
 21
9.182186064899999
 31
0.0
  0
LINE
  5
2D3
330
220
100
AcDbEntity
  8
0
  6
Continuous
 62
     2
100
AcDbLine
 10
5.506237653899997
 20
9.182186064899999
 30
0.0
 11
10.2992564359
 21
9.182186064899999
 31
0.0
  0
INSERT
  5
2D4
330
220
100
AcDbEntity
  8
0
  6
Continuous
 62
     2
100
AcDbBlockReference
  2
_FILLED
 10
17.2188360791
 20
9.182186064899999
 30
0.0
 41
0.1875
 42
0.1875
 43
0.1875
  0
INSERT
  5
2D5
330
220
100
AcDbEntity
  8
0
  6
Continuous
 62
     2
100
AcDbBlockReference
  2
_FILLED
 10
5.506237653899997
 20
9.182186064899999
 30
0.0
 41
0.1875
 42
0.1875
 43
0.1875
 50
180.0
  0
ENDBLK
  5
2D6
330
220
100
AcDbEntity
  8
0
  6
ByBlock
 62
     0
100
AcDbBlockEnd
  0
BLOCK
  5
2D7
330
221
100
AcDbEntity
  8
0
  6
Continuous
 62
     2
100
AcDbBlockBegin
  2
*D2
 70
     1
 10
0.0
 20
0.0
 30
0.0
  3
*D2
  1

  0
LINE
  5
2D8
330
221
100
AcDbEntity
  8
0
  6
Continuous
 62
     2
100
AcDbLine
 10
12.7625948246
 20
17.8648771801
 30
0.0
 11
12.7950024492
 21
15.8876465121
 31
0.0
  0
LINE
  5
2D9
330
221
100
AcDbEntity
  8
0
  6
Continuous
 62
     2
100
AcDbLine
 10
12.7950024492
 20
15.8876465121
 30
0.0
 11
12.5059531513
 21
15.8876465121
 31
0.0
  0
INSERT
  5
2DA
330
221
100
AcDbEntity
  8
0
  6
Continuous
 62
     2
100
AcDbBlockReference
  2
_FILLED
 10
12.7625948246
 20
17.8648771801
 30
0.0
 41
0.1875
 42
0.1875
 43
0.1875
 50
90.93901733039999
  0
ENDBLK
  5
2DB
330
221
100
AcDbEntity
  8
0
  6
ByBlock
 62
     0
100
AcDbBlockEnd
  0
BLOCK
  5
2DC
330
222
100
AcDbEntity
  8
0
  6
Continuous
 62
     2
100
AcDbBlockBegin
  2
*D3
 70
     1
 10
0.0
 20
0.0
 30
0.0
  3
*D3
  1

  0
LINE
  5
2DD
330
222
100
AcDbEntity
  8
0
  6
Continuous
 62
     2
100
AcDbLine
 10
9.8562307364
 20
12.0433058398
 30
0.0
 11
9.7631241871
 21
10.3529160334
 31
0.0
  0
LINE
  5
2DE
330
222
100
AcDbEntity
  8
0
  6
Continuous
 62
     2
100
AcDbLine
 10
9.7631241871
 20
10.3529160334
 30
0.0
 11
9.5912491871
 21
10.3529160334
 31
0.0
  0
INSERT
  5
2DF
330
222
100
AcDbEntity
  8
0
  6
Continuous
 62
     2
100
AcDbBlockReference
  2
_FILLED
 10
9.8562307364
 20
12.0433058398
 30
0.0
 41
0.1875
 42
0.1875
 43
0.1875
 50
86.8473381769
  0
ENDBLK
  5
2E0
330
222
100
AcDbEntity
  8
0
  6
ByBlock
 62
     0
100
AcDbBlockEnd
  0
BLOCK
  5
2E1
330
223
100
AcDbEntity
  8
0
  6
Continuous
 62
     2
100
AcDbBlockBegin
  2
*D4
 70
     1
 10
0.0
 20
0.0
 30
0.0
  3
*D4
  1

  0
LINE
  5
2E2
330
223
100
AcDbEntity
  8
0
  6
Continuous
 62
     2
100
AcDbLine
 10
10.0484269019
 20
17.2719932626
 30
0.0
 11
10.1141693767
 21
16.0350586984
 31
0.0
  0
LINE
  5
2E3
330
223
100
AcDbEntity
  8
0
  6
Continuous
 62
     2
100
AcDbLine
 10
10.1141693767
 20
16.0350586984
 30
0.0
 11
10.2860443767
 21
16.0350586984
 31
0.0
  0
INSERT
  5
2E4
330
223
100
AcDbEntity
  8
0
  6
Continuous
 62
     2
100
AcDbBlockReference
  2
_FILLED
 10
10.0484269019
 20
17.2719932626
 30
0.0
 41
0.1875
 42
0.1875
 43
0.1875
 50
93.04238039469998
  0
ENDBLK
  5
2E5
330
223
100
AcDbEntity
  8
0
  6
ByBlock
 62
     0
100
AcDbBlockEnd
  0
BLOCK
  5
2E6
330
224
100
AcDbEntity
  8
0
  6
Continuous
 62
     2
100
AcDbBlockBegin
  2
*D5
 70
     1
 10
0.0
 20
0.0
 30
0.0
  3
*D5
  1

  0
LINE
  5
2E7
330
224
100
AcDbEntity
  8
0
  6
Continuous
 62
     2
100
AcDbLine
 10
6.550493147999999
 20
16.7636404757
 30
0.0
 11
5.006604923
 21
17.8786612509
 31
0.0
  0
LINE
  5
2E8
330
224
100
AcDbEntity
  8
0
  6
Continuous
 62
     2
100
AcDbLine
 10
5.006604923
 20
17.8786612509
 30
0.0
 11
4.834729923
 21
17.8786612509
 31
0.0
  0
INSERT
  5
2E9
330
224
100
AcDbEntity
  8
0
  6
Continuous
 62
     2
100
AcDbBlockReference
  2
_FILLED
 10
6.550493147999999
 20
16.7636404757
 30
0.0
 41
0.1875
 42
0.1875
 43
0.1875
 50
324.1625814204
  0
ENDBLK
  5
2EA
330
224
100
AcDbEntity
  8
0
  6
ByBlock
 62
     0
100
AcDbBlockEnd
  0
BLOCK
  5
2EB
330
225
100
AcDbEntity
  8
0
  6
Continuous
 62
     2
100
AcDbBlockBegin
  2
*D6
 70
     1
 10
0.0
 20
0.0
 30
0.0
  3
*D6
  1

  0
LINE
  5
2EC
330
225
100
AcDbEntity
  8
0
  6
Continuous
 62
     2
100
AcDbLine
 10
6.4899829583
 20
12.6404563781
 30
0.0
 11
4.867481730599998
 21
11.8163076985
 31
0.0
  0
LINE
  5
2ED
330
225
100
AcDbEntity
  8
0
  6
Continuous
 62
     2
100
AcDbLine
 10
4.867481730599998
 20
11.8163076985
 30
0.0
 11
4.695606730599998
 21
11.8163076985
 31
0.0
  0
INSERT
  5
2EE
330
225
100
AcDbEntity
  8
0
  6
Continuous
 62
     2
100
AcDbBlockReference
  2
_FILLED
 10
6.4899829583
 20
12.6404563781
 30
0.0
 41
0.1875
 42
0.1875
 43
0.1875
 50
26.9282693561
  0
ENDBLK
  5
2EF
330
225
100
AcDbEntity
  8
0
  6
ByBlock
 62
     0
100
AcDbBlockEnd
  0
BLOCK
  5
2F0
330
226
100
AcDbEntity
  8
0
  6
Continuous
 62
     2
100
AcDbBlockBegin
  2
*D7
 70
     1
 10
0.0
 20
0.0
 30
0.0
  3
*D7
  1

  0
LINE
  5
2F1
330
226
100
AcDbEntity
  8
0
  6
Continuous
 62
     2
100
AcDbLine
 10
6.1411536033
 20
12.0291082756
 30
0.0
 11
4.847218807099999
 21
11.0838581195
 31
0.0
  0
LINE
  5
2F2
330
226
100
AcDbEntity
  8
0
  6
Continuous
 62
     2
100
AcDbLine
 10
4.847218807099999
 20
11.0838581195
 30
0.0
 11
4.675343807099999
 21
11.0838581195
 31
0.0
  0
INSERT
  5
2F3
330
226
100
AcDbEntity
  8
0
  6
Continuous
 62
     2
100
AcDbBlockReference
  2
_FILLED
 10
6.1411536033
 20
12.0291082756
 30
0.0
 41
0.1875
 42
0.1875
 43
0.1875
 50
36.1490172941
  0
ENDBLK
  5
2F4
330
226
100
AcDbEntity
  8
0
  6
ByBlock
 62
     0
100
AcDbBlockEnd
  0
BLOCK
  5
2F5
330
227
100
AcDbEntity
  8
0
  6
Continuous
 62
     2
100
AcDbBlockBegin
  2
*D8
 70
     1
 10
0.0
 20
0.0
 30
0.0
  3
*D8
  1

  0
LINE
  5
2F6
330
227
100
AcDbEntity
  8
0
  6
Continuous
 62
     2
100
AcDbLine
 10
6.228171607999999
 20
17.3751422637
 30
0.0
 11
5.053222445899999
 21
18.6037243652
 31
0.0
  0
LINE
  5
2F7
330
227
100
AcDbEntity
  8
0
  6
Continuous
 62
     2
100
AcDbLine
 10
5.053222445899999
 20
18.6037243652
 30
0.0
 11
4.881347445899999
 21
18.6037243652
 31
0.0
  0
INSERT
  5
2F8
330
227
100
AcDbEntity
  8
0
  6
Continuous
 62
     2
100
AcDbBlockReference
  2
_FILLED
 10
6.228171607999999
 20
17.3751422637
 30
0.0
 41
0.1875
 42
0.1875
 43
0.1875
 50
313.7217011776
  0
ENDBLK
  5
2F9
330
227
100
AcDbEntity
  8
0
  6
ByBlock
 62
     0
100
AcDbBlockEnd
  0
BLOCK
  5
2FA
330
228
100
AcDbEntity
  8
0
  6
Continuous
 62
     2
100
AcDbBlockBegin
  2
*D9
 70
     1
 10
0.0
 20
0.0
 30
0.0
  3
*D9
  1

  0
LINE
  5
2FB
330
228
100
AcDbEntity
  8
0
  6
Continuous
 62
     2
100
AcDbLine
 10
28.1940751086
 20
16.9425177905
 30
0.0
 11
28.1940751086
 21
13.372871507
 31
0.0
  0
LINE
  5
2FC
330
228
100
AcDbEntity
  8
0
  6
Continuous
 62
     2
100
AcDbLine
 10
28.1908041113
 20
16.9426034446
 30
0.0
 11
28.0039832596
 21
13.3778492373
 31
0.0
  0
ARC
  5
2FD
330
228
100
AcDbEntity
  8
0
  6
Continuous
 62
     2
100
AcDbCircle
 10
28.1940751086
 20
17.0050177905
 30
0.0
 40
3.5071462835
100
AcDbArc
 50
270.0
 51
293.0248550326
  0
ARC
  5
2FE
330
228
100
AcDbEntity
  8
0
  6
Continuous
 62
     2
100
AcDbCircle
 10
28.1940751086
 20
17.0050177905
 30
0.0
 40
3.5071462835
100
AcDbArc
 50
258.8315669093
 51
267.0
  0
SOLID
  5
2FF
330
228
100
AcDbEntity
  8
0
  6
Continuous
 62
     2
100
AcDbTrace
 10
28.3806728747
 20
13.5341218337
 30
0.0
 11
28.1940751086
 21
13.497871507
 31
0.0
 12
28.3823433717
 22
13.4716441621
 32
0.0
 13
28.3823433717
 23
13.4716441621
 33
0.0
  0
SOLID
  5
300
330
228
100
AcDbEntity
  8
0
  6
Continuous
 62
     2
100
AcDbTrace
 10
27.821142373
 20
13.4863397275
 30
0.0
 11
28.0105252542
 21
13.5026779291
 31
0.0
 12
27.8260804093
 22
13.5486443485
 32
0.0
 13
27.8260804093
 23
13.5486443485
 33
0.0
  0
ENDBLK
  5
301
330
228
100
AcDbEntity
  8
0
  6
ByBlock
 62
     0
100
AcDbBlockEnd
  0
BLOCK
  5
302
330
229
100
AcDbEntity
  8
0
  6
Continuous
 62
     2
100
AcDbBlockBegin
  2
*D10
 70
     1
 10
0.0
 20
0.0
 30
0.0
  3
*D10
  1

  0
LINE
  5
303
330
229
100
AcDbEntity
  8
0
  6
Continuous
 62
     2
100
AcDbLine
 10
5.561010992099999
 20
11.0162776912
 30
0.0
 11
4.839762075299999
 21
10.2950287744
 31
0.0
  0
LINE
  5
304
330
229
100
AcDbEntity
  8
0
  6
Continuous
 62
     2
100
AcDbLine
 10
4.839762075299999
 20
10.2950287744
 30
0.0
 11
4.667887075299999
 21
10.2950287744
 31
0.0
  0
INSERT
  5
305
330
229
100
AcDbEntity
  8
0
  6
Continuous
 62
     2
100
AcDbBlockReference
  2
_FILLED
 10
5.561010992099999
 20
11.0162776912
 30
0.0
 41
0.1875
 42
0.1875
 43
0.1875
 50
45.0
  0
ENDBLK
  5
306
330
229
100
AcDbEntity
  8
0
  6
ByBlock
 62
     0
100
AcDbBlockEnd
  0
BLOCK
  5
307
330
22A
100
AcDbEntity
  8
0
  6
Continuous
 62
     2
100
AcDbBlockBegin
  2
*D11
 70
     1
 10
0.0
 20
0.0
 30
0.0
  3
*D11
  1

  0
LINE
  5
308
330
22A
100
AcDbEntity
  8
0
  6
Continuous
 62
     2
100
AcDbLine
 10
7.621979340299997
 20
14.4267546052
 30
0.0
 11
7.8702920325
 21
13.8550356069
 31
0.0
  0
LINE
  5
309
330
22A
100
AcDbEntity
  8
0
  6
Continuous
 62
     2
100
AcDbLine
 10
7.8702920325
 20
13.8550356069
 30
0.0
 11
8.015527993600001
 21
13.8550356069
 31
0.0
  0
INSERT
  5
30A
330
22A
100
AcDbEntity
  8
0
  6
Continuous
 62
     2
100
AcDbBlockReference
  2
_FILLED
 10
7.621979340299997
 20
14.4267546052
 30
0.0
 41
0.1875
 42
0.1875
 43
0.1875
 50
113.4765819887
  0
ENDBLK
  5
30B
330
22A
100
AcDbEntity
  8
0
  6
ByBlock
 62
     0
100
AcDbBlockEnd
  0
BLOCK
  5
30C
330
22B
100
AcDbEntity
  8
0
  6
Continuous
 62
     2
100
AcDbBlockBegin
  2
*D12
 70
     1
 10
0.0
 20
0.0
 30
0.0
  3
*D12
  1

  0
LINE
  5
30D
330
22B
100
AcDbEntity
  8
0
  6
Continuous
 62
     2
100
AcDbLine
 10
17.0943282051
 20
18.3433941168
 30
0.0
 11
18.4247133336
 21
18.3433941168
 31
0.0
  0
LINE
  5
30E
330
22B
100
AcDbEntity
  8
0
  6
Continuous
 62
     2
100
AcDbLine
 10
17.0943282051
 20
10.961504353
 30
0.0
 11
18.4247133336
 21
10.961504353
 31
0.0
  0
LINE
  5
30F
330
22B
100
AcDbEntity
  8
0
  6
Continuous
 62
     2
100
AcDbLine
 10
18.2997133336
 20
18.3433941168
 30
0.0
 11
18.2997133336
 21
14.7450082008
 31
0.0
  0
LINE
  5
310
330
22B
100
AcDbEntity
  8
0
  6
Continuous
 62
     2
100
AcDbLine
 10
18.2997133336
 20
10.961504353
 30
0.0
 11
18.2997133336
 21
14.4325082008
 31
0.0
  0
INSERT
  5
311
330
22B
100
AcDbEntity
  8
0
  6
Continuous
 62
     2
100
AcDbBlockReference
  2
_FILLED
 10
18.2997133336
 20
18.3433941168
 30
0.0
 41
0.1875
 42
0.1875
 43
0.1875
 50
90.0
  0
INSERT
  5
312
330
22B
100
AcDbEntity
  8
0
  6
Continuous
 62
     2
100
AcDbBlockReference
  2
_FILLED
 10
18.2997133336
 20
10.961504353
 30
0.0
 41
0.1875
 42
0.1875
 43
0.1875
 50
270.0
  0
ENDBLK
  5
313
330
22B
100
AcDbEntity
  8
0
  6
ByBlock
 62
     0
100
AcDbBlockEnd
  0
BLOCK
  5
314
330
22C
100
AcDbEntity
  8
0
  6
Continuous
 62
     2
100
AcDbBlockBegin
  2
*D13
 70
     1
 10
0.0
 20
0.0
 30
0.0
  3
*D13
  1

  0
LINE
  5
315
330
22C
100
AcDbEntity
  8
0
  6
Continuous
 62
     2
100
AcDbLine
 10
11.3625368665
 20
10.804657129
 30
0.0
 11
11.3625368665
 21
9.514123268099998
 31
0.0
  0
LINE
  5
316
330
22C
100
AcDbEntity
  8
0
  6
Continuous
 62
     2
100
AcDbLine
 10
5.506237653899997
 20
10.7893921915
 30
0.0
 11
5.506237653899997
 21
9.514123268099998
 31
0.0
  0
LINE
  5
317
330
22C
100
AcDbEntity
  8
0
  6
Continuous
 62
     2
100
AcDbLine
 10
11.3625368665
 20
9.639123268099998
 30
0.0
 11
8.437950601499997
 21
9.639123268099998
 31
0.0
  0
LINE
  5
318
330
22C
100
AcDbEntity
  8
0
  6
Continuous
 62
     2
100
AcDbLine
 10
5.506237653899997
 20
9.639123268099998
 30
0.0
 11
7.906700601499997
 21
9.639123268099998
 31
0.0
  0
INSERT
  5
319
330
22C
100
AcDbEntity
  8
0
  6
Continuous
 62
     2
100
AcDbBlockReference
  2
_FILLED
 10
11.3625368665
 20
9.639123268099998
 30
0.0
 41
0.1875
 42
0.1875
 43
0.1875
  0
INSERT
  5
31A
330
22C
100
AcDbEntity
  8
0
  6
Continuous
 62
     2
100
AcDbBlockReference
  2
_FILLED
 10
5.506237653899997
 20
9.639123268099998
 30
0.0
 41
0.1875
 42
0.1875
 43
0.1875
 50
180.0
  0
ENDBLK
  5
31B
330
22C
100
AcDbEntity
  8
0
  6
ByBlock
 62
     0
100
AcDbBlockEnd
  0
BLOCK
  5
31C
330
22D
100
AcDbEntity
  8
0
  6
Continuous
 62
     2
100
AcDbBlockBegin
  2
*D14
 70
     1
 10
0.0
 20
0.0
 30
0.0
  3
*D14
  1

  0
LINE
  5
31D
330
22D
100
AcDbEntity
  8
0
  6
Continuous
 62
     2
100
AcDbLine
 10
23.6111046406
 20
17.4430099165
 30
0.0
 11
23.9231916667
 21
17.4430099165
 31
0.0
  0
LINE
  5
31E
330
22D
100
AcDbEntity
  8
0
  6
Continuous
 62
     2
100
AcDbLine
 10
23.1572039949
 20
17.0049337769
 30
0.0
 11
23.9231916667
 21
17.0049337769
 31
0.0
  0
LINE
  5
31F
330
22D
100
AcDbEntity
  8
0
  6
Continuous
 62
     2
100
AcDbLine
 10
23.7981916667
 20
17.4430099165
 30
0.0
 11
23.7981916667
 21
17.8213627836
 31
0.0
  0
LINE
  5
320
330
22D
100
AcDbEntity
  8
0
  6
Continuous
 62
     2
100
AcDbLine
 10
23.7981916667
 20
17.8213627836
 30
0.0
 11
23.9700666667
 21
17.8213627836
 31
0.0
  0
LINE
  5
321
330
22D
100
AcDbEntity
  8
0
  6
Continuous
 62
     2
100
AcDbLine
 10
23.7981916667
 20
17.0049337769
 30
0.0
 11
23.7981916667
 21
16.5049337769
 31
0.0
  0
INSERT
  5
322
330
22D
100
AcDbEntity
  8
0
  6
Continuous
 62
     2
100
AcDbBlockReference
  2
_FILLED
 10
23.7981916667
 20
17.4430099165
 30
0.0
 41
0.1875
 42
0.1875
 43
0.1875
 50
270.0
  0
INSERT
  5
323
330
22D
100
AcDbEntity
  8
0
  6
Continuous
 62
     2
100
AcDbBlockReference
  2
_FILLED
 10
23.7981916667
 20
17.0049337769
 30
0.0
 41
0.1875
 42
0.1875
 43
0.1875
 50
90.0
  0
ENDBLK
  5
324
330
22D
100
AcDbEntity
  8
0
  6
ByBlock
 62
     0
100
AcDbBlockEnd
  0
BLOCK
  5
325
330
22E
100
AcDbEntity
  8
0
  6
Continuous
 62
     2
100
AcDbBlockBegin
  2
*D15
 70
     1
 10
0.0
 20
0.0
 30
0.0
  3
*D15
  1

  0
LINE
  5
326
330
22E
100
AcDbEntity
  8
0
  6
Continuous
 62
     2
100
AcDbLine
 10
23.0947039949
 20
17.0674337769
 30
0.0
 11
23.0947039949
 21
18.9191297811
 31
0.0
  0
LINE
  5
327
330
22E
100
AcDbEntity
  8
0
  6
Continuous
 62
     2
100
AcDbLine
 10
28.4560398723
 20
17.0674337797
 30
0.0
 11
28.4560398723
 21
18.9191297811
 31
0.0
  0
LINE
  5
328
330
22E
100
AcDbEntity
  8
0
  6
Continuous
 62
     2
100
AcDbLine
 10
23.0947039949
 20
18.7941297811
 30
0.0
 11
25.034263546
 21
18.7941297811
 31
0.0
  0
LINE
  5
329
330
22E
100
AcDbEntity
  8
0
  6
Continuous
 62
     2
100
AcDbLine
 10
28.4560398723
 20
18.7941297811
 30
0.0
 11
25.815513546
 21
18.7941297811
 31
0.0
  0
INSERT
  5
32A
330
22E
100
AcDbEntity
  8
0
  6
Continuous
 62
     2
100
AcDbBlockReference
  2
_FILLED
 10
23.0947039949
 20
18.7941297811
 30
0.0
 41
0.1875
 42
0.1875
 43
0.1875
 50
180.0
  0
INSERT
  5
32B
330
22E
100
AcDbEntity
  8
0
  6
Continuous
 62
     2
100
AcDbBlockReference
  2
_FILLED
 10
28.4560398723
 20
18.7941297811
 30
0.0
 41
0.1875
 42
0.1875
 43
0.1875
  0
ENDBLK
  5
32C
330
22E
100
AcDbEntity
  8
0
  6
ByBlock
 62
     0
100
AcDbBlockEnd
  0
BLOCK
  5
32D
330
22F
100
AcDbEntity
  8
0
  6
Continuous
 62
     2
100
AcDbBlockBegin
  2
*D16
 70
     1
 10
0.0
 20
0.0
 30
0.0
  3
*D16
  1

  0
LINE
  5
32E
330
22F
100
AcDbEntity
  8
0
  6
Continuous
 62
     2
100
AcDbLine
 10
22.5956641558
 20
17.5055099165
 30
0.0
 11
22.5956641558
 21
19.2926252621
 31
0.0
  0
LINE
  5
32F
330
22F
100
AcDbEntity
  8
0
  6
Continuous
 62
     2
100
AcDbLine
 10
28.95507970820001
 20
17.5055099165
 30
0.0
 11
28.95507970820001
 21
19.2926252621
 31
0.0
  0
LINE
  5
330
330
22F
100
AcDbEntity
  8
0
  6
Continuous
 62
     2
100
AcDbLine
 10
22.5956641558
 20
19.1676252621
 30
0.0
 11
25.338653876
 21
19.1676252621
 31
0.0
  0
LINE
  5
331
330
22F
100
AcDbEntity
  8
0
  6
Continuous
 62
     2
100
AcDbLine
 10
28.95507970820001
 20
19.1676252621
 30
0.0
 11
26.119903876
 21
19.1676252621
 31
0.0
  0
INSERT
  5
332
330
22F
100
AcDbEntity
  8
0
  6
Continuous
 62
     2
100
AcDbBlockReference
  2
_FILLED
 10
22.5956641558
 20
19.1676252621
 30
0.0
 41
0.1875
 42
0.1875
 43
0.1875
 50
180.0
  0
INSERT
  5
333
330
22F
100
AcDbEntity
  8
0
  6
Continuous
 62
     2
100
AcDbBlockReference
  2
_FILLED
 10
28.95507970820001
 20
19.1676252621
 30
0.0
 41
0.1875
 42
0.1875
 43
0.1875
  0
ENDBLK
  5
334
330
22F
100
AcDbEntity
  8
0
  6
ByBlock
 62
     0
100
AcDbBlockEnd
  0
BLOCK
  5
335
330
230
100
AcDbEntity
  8
0
  6
Continuous
 62
     2
100
AcDbBlockBegin
  2
*D17
 70
     1
 10
0.0
 20
0.0
 30
0.0
  3
*D17
  1

  0
LINE
  5
336
330
230
100
AcDbEntity
  8
0
  6
Continuous
 62
     2
100
AcDbLine
 10
23.2471171899
 20
15.6252725002
 30
0.0
 11
23.2471171899
 21
18.5804215289
 31
0.0
  0
LINE
  5
337
330
230
100
AcDbEntity
  8
0
  6
Continuous
 62
     2
100
AcDbLine
 10
28.3036265123
 20
15.6252745202
 30
0.0
 11
28.3036265123
 21
18.5804215289
 31
0.0
  0
LINE
  5
338
330
230
100
AcDbEntity
  8
0
  6
Continuous
 62
     2
100
AcDbLine
 10
23.2471171899
 20
18.4554215289
 30
0.0
 11
24.763397946
 21
18.4554215289
 31
0.0
  0
LINE
  5
339
330
230
100
AcDbEntity
  8
0
  6
Continuous
 62
     2
100
AcDbLine
 10
28.3036265123
 20
18.4554215289
 30
0.0
 11
25.544647946
 21
18.4554215289
 31
0.0
  0
INSERT
  5
33A
330
230
100
AcDbEntity
  8
0
  6
Continuous
 62
     2
100
AcDbBlockReference
  2
_FILLED
 10
23.2471171899
 20
18.4554215289
 30
0.0
 41
0.1875
 42
0.1875
 43
0.1875
 50
180.0
  0
INSERT
  5
33B
330
230
100
AcDbEntity
  8
0
  6
Continuous
 62
     2
100
AcDbBlockReference
  2
_FILLED
 10
28.3036265123
 20
18.4554215289
 30
0.0
 41
0.1875
 42
0.1875
 43
0.1875
  0
ENDBLK
  5
33C
330
230
100
AcDbEntity
  8
0
  6
ByBlock
 62
     0
100
AcDbBlockEnd
  0
BLOCK
  5
33D
330
231
100
AcDbEntity
  8
0
  6
Continuous
 62
     2
100
AcDbBlockBegin
  2
*D18
 70
     1
 10
0.0
 20
0.0
 30
0.0
  3
*D18
  1

  0
LINE
  5
33E
330
231
100
AcDbEntity
  8
0
  6
Continuous
 62
     2
100
AcDbLine
 10
23.4322536283
 20
15.6252725003
 30
0.0
 11
23.4322536283
 21
18.2106623295
 31
0.0
  0
LINE
  5
33F
330
231
100
AcDbEntity
  8
0
  6
Continuous
 62
     2
100
AcDbLine
 10
28.1184903416
 20
15.6252745202
 30
0.0
 11
28.1184903416
 21
18.2106623295
 31
0.0
  0
LINE
  5
340
330
231
100
AcDbEntity
  8
0
  6
Continuous
 62
     2
100
AcDbLine
 10
23.4322536283
 20
18.0856623295
 30
0.0
 11
24.4621180354
 21
18.0856623295
 31
0.0
  0
LINE
  5
341
330
231
100
AcDbEntity
  8
0
  6
Continuous
 62
     2
100
AcDbLine
 10
28.1184903416
 20
18.0856623295
 30
0.0
 11
25.2433680354
 21
18.0856623295
 31
0.0
  0
INSERT
  5
342
330
231
100
AcDbEntity
  8
0
  6
Continuous
 62
     2
100
AcDbBlockReference
  2
_FILLED
 10
23.4322536283
 20
18.0856623295
 30
0.0
 41
0.1875
 42
0.1875
 43
0.1875
 50
180.0
  0
INSERT
  5
343
330
231
100
AcDbEntity
  8
0
  6
Continuous
 62
     2
100
AcDbBlockReference
  2
_FILLED
 10
28.1184903416
 20
18.0856623295
 30
0.0
 41
0.1875
 42
0.1875
 43
0.1875
  0
ENDBLK
  5
344
330
231
100
AcDbEntity
  8
0
  6
ByBlock
 62
     0
100
AcDbBlockEnd
  0
BLOCK
  5
345
330
232
100
AcDbEntity
  8
0
  6
Continuous
 62
     2
100
AcDbBlockBegin
  2
*D19
 70
     1
 10
0.0
 20
0.0
 30
0.0
  3
*D19
  1

  0
LINE
  5
346
330
232
100
AcDbEntity
  8
0
  6
Continuous
 62
     2
100
AcDbLine
 10
27.9722909082
 20
12.7106231478
 30
0.0
 11
27.9722909082
 21
11.4535339648
 31
0.0
  0
LINE
  5
347
330
232
100
AcDbEntity
  8
0
  6
Continuous
 62
     2
100
AcDbLine
 10
23.5784529558
 20
12.7106231478
 30
0.0
 11
23.5784529558
 21
11.4535339648
 31
0.0
  0
LINE
  5
348
330
232
100
AcDbEntity
  8
0
  6
Continuous
 62
     2
100
AcDbLine
 10
27.9722909082
 20
11.5785339648
 30
0.0
 11
26.0605129776
 21
11.5785339648
 31
0.0
  0
LINE
  5
349
330
232
100
AcDbEntity
  8
0
  6
Continuous
 62
     2
100
AcDbLine
 10
23.5784529558
 20
11.5785339648
 30
0.0
 11
25.5292629776
 21
11.5785339648
 31
0.0
  0
INSERT
  5
34A
330
232
100
AcDbEntity
  8
0
  6
Continuous
 62
     2
100
AcDbBlockReference
  2
_FILLED
 10
27.9722909082
 20
11.5785339648
 30
0.0
 41
0.1875
 42
0.1875
 43
0.1875
  0
INSERT
  5
34B
330
232
100
AcDbEntity
  8
0
  6
Continuous
 62
     2
100
AcDbBlockReference
  2
_FILLED
 10
23.5784529558
 20
11.5785339648
 30
0.0
 41
0.1875
 42
0.1875
 43
0.1875
 50
180.0
  0
ENDBLK
  5
34C
330
232
100
AcDbEntity
  8
0
  6
ByBlock
 62
     0
100
AcDbBlockEnd
  0
BLOCK
  5
246
330
233
100
AcDbEntity
  8
___SYMBOL
  6
Continuous
 62
     2
100
AcDbBlockBegin
  2
SYMBOL_4_BL6
 70
     0
 10
18.8844190732
 20
14.5659489336
 30
0.0
  3
SYMBOL_4_BL6
  1

  0
LWPOLYLINE
  5
247
330
233
100
AcDbEntity
  8
___SYMBOL
  6
Continuous
 62
     2
100
AcDbPolyline
 90
       13
 70
     0
 43
0.015
 10
18.850364502
 20
14.7573112793
 10
18.8581755371
 20
14.7703310547
 10
18.8738017578
 20
14.7833529053
 10
18.8894259033
 20
14.7833529053
 10
18.905052124
 20
14.7703310547
 10
18.9128631592
 20
14.7573112793
 10
18.9128631592
 20
14.7312696533
 10
18.905052124
 20
14.7182478027
 10
18.8894259033
 20
14.7052280273
 10
18.8738017578
 20
14.6922061768
 10
18.8581755371
 20
14.6661645508
 10
18.850364502
 20
14.6271031494
 10
18.9128631592
 20
14.6271031494
  0
LINE
  5
248
330
233
100
AcDbEntity
  8
___SYMBOL
  6
Continuous
 62
     7
100
AcDbLine
 10
18.7494189875
 20
14.8359491049
 30
0.0
 11
18.7494189875
 21
14.2959487624
 31
0.0
  0
LINE
  5
249
330
233
100
AcDbEntity
  8
___SYMBOL
  6
Continuous
 62
     7
100
AcDbLine
 10
18.7494189875
 20
14.2959487624
 30
0.0
 11
19.0194191588
 21
14.2959487624
 31
0.0
  0
LINE
  5
24A
330
233
100
AcDbEntity
  8
___SYMBOL
  6
Continuous
 62
     7
100
AcDbLine
 10
18.7494189875
 20
14.5659489336
 30
0.0
 11
19.0194191588
 21
14.5659489336
 31
0.0
  0
LINE
  5
24B
330
233
100
AcDbEntity
  8
___SYMBOL
  6
Continuous
 62
     7
100
AcDbLine
 10
18.7494189875
 20
14.8359491049
 30
0.0
 11
19.0194191588
 21
14.8359491049
 31
0.0
  0
LINE
  5
24C
330
233
100
AcDbEntity
  8
___SYMBOL
  6
Continuous
 62
     7
100
AcDbLine
 10
19.0194191588
 20
14.2959487624
 30
0.0
 11
19.0194191588
 21
14.8359491049
 31
0.0
  0
ENDBLK
  5
24D
330
233
100
AcDbEntity
  8
0
  6
ByBlock
 62
     0
100
AcDbBlockEnd
  0
BLOCK
  5
24E
330
234
100
AcDbEntity
  8
___SYMBOL
  6
Continuous
 62
     2
100
AcDbBlockBegin
  2
SYMBOL_2_BL5
 70
     0
 10
11.3870367101
 20
9.1752039947
 30
0.0
  3
SYMBOL_2_BL5
  1

  0
LWPOLYLINE
  5
24F
330
234
100
AcDbEntity
  8
___SYMBOL
  6
Continuous
 62
     2
100
AcDbPolyline
 90
        2
 70
     0
 43
0.015
 10
11.384230957
 20
9.392607665999999
 10
11.384230957
 20
9.2363579102
  0
LINE
  5
250
330
234
100
AcDbEntity
  8
___SYMBOL
  6
Continuous
 62
     7
100
AcDbLine
 10
11.2520366245
 20
9.445204165899999
 30
0.0
 11
11.2520366245
 21
8.9052038234
 31
0.0
  0
LINE
  5
251
330
234
100
AcDbEntity
  8
___SYMBOL
  6
Continuous
 62
     7
100
AcDbLine
 10
11.2520366245
 20
8.9052038234
 30
0.0
 11
11.5220367957
 21
8.9052038234
 31
0.0
  0
LINE
  5
252
330
234
100
AcDbEntity
  8
___SYMBOL
  6
Continuous
 62
     7
100
AcDbLine
 10
11.2520366245
 20
9.1752039947
 30
0.0
 11
11.5220367957
 21
9.1752039947
 31
0.0
  0
LINE
  5
253
330
234
100
AcDbEntity
  8
___SYMBOL
  6
Continuous
 62
     7
100
AcDbLine
 10
11.2520366245
 20
9.445204165899999
 30
0.0
 11
11.5220367957
 21
9.445204165899999
 31
0.0
  0
LINE
  5
254
330
234
100
AcDbEntity
  8
___SYMBOL
  6
Continuous
 62
     7
100
AcDbLine
 10
11.5220367957
 20
8.9052038234
 30
0.0
 11
11.5220367957
 21
9.445204165899999
 31
0.0
  0
ENDBLK
  5
255
330
234
100
AcDbEntity
  8
0
  6
ByBlock
 62
     0
100
AcDbBlockEnd
  0
BLOCK
  5
256
330
235
100
AcDbEntity
  8
0
  6
Continuous
 62
     2
100
AcDbBlockBegin
  2
SYMBOL_11_BL4
 70
     0
 10
33.6875
 20
11.0
 30
0.0
  3
SYMBOL_11_BL4
  1

  0
LINE
  5
257
330
235
100
AcDbEntity
  8
0
  6
Continuous
 62
    30
420
 16744192
100
AcDbLine
 10
33.5
 20
11.0
 30
0.0
 11
33.6875
 21
10.90625
 31
0.0
  0
LINE
  5
258
330
235
100
AcDbEntity
  8
0
  6
Continuous
 62
    30
420
 16744192
100
AcDbLine
 10
33.5
 20
11.0
 30
0.0
 11
33.6875
 21
11.09375
 31
0.0
  0
LINE
  5
259
330
235
100
AcDbEntity
  8
0
  6
Continuous
 62
    30
420
 16744192
100
AcDbLine
 10
33.6875
 20
11.0234375
 30
0.0
 11
33.6875
 21
11.09375
 31
0.0
  0
LINE
  5
25A
330
235
100
AcDbEntity
  8
0
  6
Continuous
 62
    30
420
 16744192
100
AcDbLine
 10
33.875
 20
11.0234375
 30
0.0
 11
33.6875
 21
11.0234375
 31
0.0
  0
LINE
  5
25B
330
235
100
AcDbEntity
  8
0
  6
Continuous
 62
    30
420
 16744192
100
AcDbLine
 10
33.875
 20
11.0234375
 30
0.0
 11
33.875
 21
10.9765625
 31
0.0
  0
LINE
  5
25C
330
235
100
AcDbEntity
  8
0
  6
Continuous
 62
    30
420
 16744192
100
AcDbLine
 10
33.6875
 20
10.9765625
 30
0.0
 11
33.875
 21
10.9765625
 31
0.0
  0
LINE
  5
25D
330
235
100
AcDbEntity
  8
0
  6
Continuous
 62
    30
420
 16744192
100
AcDbLine
 10
33.6875
 20
10.90625
 30
0.0
 11
33.6875
 21
10.9765625
 31
0.0
  0
LWPOLYLINE
  5
25E
330
235
100
AcDbEntity
  8
0
  6
Continuous
 62
     7
100
AcDbPolyline
 90
        8
 70
     0
 43
0.0
 10
33.5
 20
11.0
 10
33.6875
 20
11.09375
 10
33.6875
 20
11.0234375
 10
33.875
 20
11.0234375
 10
33.875
 20
10.9765625
 10
33.6875
 20
10.9765625
 10
33.6875
 20
10.90625
 10
33.5
 20
11.0
  0
HATCH
  5
25F
330
235
100
AcDbEntity
  8
0
  6
Continuous
 62
     7
100
AcDbHatch
 10
0.0
 20
0.0
 30
0.0
210
0.0
220
0.0
230
1.0
  2
SOLID
 70
     1
 71
     1
 91
        1
 92
        1
 93
        7
 72
     1
 10
33.5
 20
11.0
 11
33.6875
 21
11.09375
 72
     1
 10
33.6875
 20
11.09375
 11
33.6875
 21
11.0234375
 72
     1
 10
33.6875
 20
11.0234375
 11
33.875
 21
11.0234375
 72
     1
 10
33.875
 20
11.0234375
 11
33.875
 21
10.9765625
 72
     1
 10
33.875
 20
10.9765625
 11
33.6875
 21
10.9765625
 72
     1
 10
33.6875
 20
10.9765625
 11
33.6875
 21
10.90625
 72
     1
 10
33.6875
 20
10.90625
 11
33.5
 21
11.0
 97
        1
330
25E
 75
     0
 76
     1
 98
        1
 10
0.0
 20
0.0
450
        0
451
        0
460
0.0
461
0.0
452
        0
462
0.0
453
        0
470

  0
ENDBLK
  5
260
330
235
100
AcDbEntity
  8
0
  6
ByBlock
 62
     0
100
AcDbBlockEnd
  0
BLOCK
  5
261
330
236
100
AcDbEntity
  8
0
  6
Continuous
 62
     2
100
AcDbBlockBegin
  2
SYMBOL_10_BL3
 70
     0
 10
0.3125
 20
11.0
 30
0.0
  3
SYMBOL_10_BL3
  1

  0
LINE
  5
262
330
236
100
AcDbEntity
  8
0
  6
Continuous
 62
    30
420
 16744192
100
AcDbLine
 10
0.5
 20
11.0
 30
0.0
 11
0.3125
 21
11.09375
 31
0.0
  0
LINE
  5
263
330
236
100
AcDbEntity
  8
0
  6
Continuous
 62
    30
420
 16744192
100
AcDbLine
 10
0.5
 20
11.0
 30
0.0
 11
0.3125
 21
10.90625
 31
0.0
  0
LINE
  5
264
330
236
100
AcDbEntity
  8
0
  6
Continuous
 62
    30
420
 16744192
100
AcDbLine
 10
0.3125
 20
10.9765625
 30
0.0
 11
0.3125
 21
10.90625
 31
0.0
  0
LINE
  5
265
330
236
100
AcDbEntity
  8
0
  6
Continuous
 62
    30
420
 16744192
100
AcDbLine
 10
0.125
 20
10.9765625
 30
0.0
 11
0.3125
 21
10.9765625
 31
0.0
  0
LINE
  5
266
330
236
100
AcDbEntity
  8
0
  6
Continuous
 62
    30
420
 16744192
100
AcDbLine
 10
0.125
 20
10.9765625
 30
0.0
 11
0.125
 21
11.0234375
 31
0.0
  0
LINE
  5
267
330
236
100
AcDbEntity
  8
0
  6
Continuous
 62
    30
420
 16744192
100
AcDbLine
 10
0.3125
 20
11.0234375
 30
0.0
 11
0.125
 21
11.0234375
 31
0.0
  0
LINE
  5
268
330
236
100
AcDbEntity
  8
0
  6
Continuous
 62
    30
420
 16744192
100
AcDbLine
 10
0.3125
 20
11.09375
 30
0.0
 11
0.3125
 21
11.0234375
 31
0.0
  0
LWPOLYLINE
  5
269
330
236
100
AcDbEntity
  8
0
  6
Continuous
 62
     7
100
AcDbPolyline
 90
        8
 70
     0
 43
0.0
 10
0.5
 20
11.0
 10
0.3125
 20
10.90625
 10
0.3125
 20
10.9765625
 10
0.125
 20
10.9765625
 10
0.125
 20
11.0234375
 10
0.3125
 20
11.0234375
 10
0.3125
 20
11.09375
 10
0.5
 20
11.0
  0
HATCH
  5
26A
330
236
100
AcDbEntity
  8
0
  6
Continuous
 62
     7
100
AcDbHatch
 10
0.0
 20
0.0
 30
0.0
210
0.0
220
0.0
230
1.0
  2
SOLID
 70
     1
 71
     1
 91
        1
 92
        1
 93
        7
 72
     1
 10
0.5
 20
11.0
 11
0.3125
 21
10.90625
 72
     1
 10
0.3125
 20
10.90625
 11
0.3125
 21
10.9765625
 72
     1
 10
0.3125
 20
10.9765625
 11
0.125
 21
10.9765625
 72
     1
 10
0.125
 20
10.9765625
 11
0.125
 21
11.0234375
 72
     1
 10
0.125
 20
11.0234375
 11
0.3125
 21
11.0234375
 72
     1
 10
0.3125
 20
11.0234375
 11
0.3125
 21
11.09375
 72
     1
 10
0.3125
 20
11.09375
 11
0.5
 21
11.0
 97
        1
330
269
 75
     0
 76
     1
 98
        1
 10
0.0
 20
0.0
450
        0
451
        0
460
0.0
461
0.0
452
        0
462
0.0
453
        0
470

  0
ENDBLK
  5
26B
330
236
100
AcDbEntity
  8
0
  6
ByBlock
 62
     0
100
AcDbBlockEnd
  0
BLOCK
  5
26C
330
237
100
AcDbEntity
  8
0
  6
Continuous
 62
     2
100
AcDbBlockBegin
  2
SYMBOL_8_BL2
 70
     0
 10
17.0
 20
21.6875
 30
0.0
  3
SYMBOL_8_BL2
  1

  0
LINE
  5
26D
330
237
100
AcDbEntity
  8
0
  6
Continuous
 62
    30
420
 16744192
100
AcDbLine
 10
17.0
 20
21.5
 30
0.0
 11
17.09375
 21
21.6875
 31
0.0
  0
LINE
  5
26E
330
237
100
AcDbEntity
  8
0
  6
Continuous
 62
    30
420
 16744192
100
AcDbLine
 10
17.0
 20
21.5
 30
0.0
 11
16.90625
 21
21.6875
 31
0.0
  0
LINE
  5
26F
330
237
100
AcDbEntity
  8
0
  6
Continuous
 62
    30
420
 16744192
100
AcDbLine
 10
16.9765625
 20
21.6875
 30
0.0
 11
16.90625
 21
21.6875
 31
0.0
  0
LINE
  5
270
330
237
100
AcDbEntity
  8
0
  6
Continuous
 62
    30
420
 16744192
100
AcDbLine
 10
16.9765625
 20
21.875
 30
0.0
 11
16.9765625
 21
21.6875
 31
0.0
  0
LINE
  5
271
330
237
100
AcDbEntity
  8
0
  6
Continuous
 62
    30
420
 16744192
100
AcDbLine
 10
16.9765625
 20
21.875
 30
0.0
 11
17.0234375
 21
21.875
 31
0.0
  0
LINE
  5
272
330
237
100
AcDbEntity
  8
0
  6
Continuous
 62
    30
420
 16744192
100
AcDbLine
 10
17.0234375
 20
21.6875
 30
0.0
 11
17.0234375
 21
21.875
 31
0.0
  0
LINE
  5
273
330
237
100
AcDbEntity
  8
0
  6
Continuous
 62
    30
420
 16744192
100
AcDbLine
 10
17.09375
 20
21.6875
 30
0.0
 11
17.0234375
 21
21.6875
 31
0.0
  0
LWPOLYLINE
  5
274
330
237
100
AcDbEntity
  8
0
  6
Continuous
 62
     7
100
AcDbPolyline
 90
        8
 70
     0
 43
0.0
 10
17.0
 20
21.5
 10
16.90625
 20
21.6875
 10
16.9765625
 20
21.6875
 10
16.9765625
 20
21.875
 10
17.0234375
 20
21.875
 10
17.0234375
 20
21.6875
 10
17.09375
 20
21.6875
 10
17.0
 20
21.5
  0
HATCH
  5
275
330
237
100
AcDbEntity
  8
0
  6
Continuous
 62
     7
100
AcDbHatch
 10
0.0
 20
0.0
 30
0.0
210
0.0
220
0.0
230
1.0
  2
SOLID
 70
     1
 71
     1
 91
        1
 92
        1
 93
        7
 72
     1
 10
17.0
 20
21.5
 11
16.90625
 21
21.6875
 72
     1
 10
16.90625
 20
21.6875
 11
16.9765625
 21
21.6875
 72
     1
 10
16.9765625
 20
21.6875
 11
16.9765625
 21
21.875
 72
     1
 10
16.9765625
 20
21.875
 11
17.0234375
 21
21.875
 72
     1
 10
17.0234375
 20
21.875
 11
17.0234375
 21
21.6875
 72
     1
 10
17.0234375
 20
21.6875
 11
17.09375
 21
21.6875
 72
     1
 10
17.09375
 20
21.6875
 11
17.0
 21
21.5
 97
        1
330
274
 75
     0
 76
     1
 98
        1
 10
0.0
 20
0.0
450
        0
451
        0
460
0.0
461
0.0
452
        0
462
0.0
453
        0
470

  0
ENDBLK
  5
276
330
237
100
AcDbEntity
  8
0
  6
ByBlock
 62
     0
100
AcDbBlockEnd
  0
BLOCK
  5
277
330
238
100
AcDbEntity
  8
0
  6
Continuous
 62
     2
100
AcDbBlockBegin
  2
SYMBOL_6_BL1
 70
     0
 10
17.0
 20
0.3125
 30
0.0
  3
SYMBOL_6_BL1
  1

  0
LINE
  5
278
330
238
100
AcDbEntity
  8
0
  6
Continuous
 62
    30
420
 16744192
100
AcDbLine
 10
17.0
 20
0.5
 30
0.0
 11
16.90625
 21
0.3125
 31
0.0
  0
LINE
  5
279
330
238
100
AcDbEntity
  8
0
  6
Continuous
 62
    30
420
 16744192
100
AcDbLine
 10
17.0
 20
0.5
 30
0.0
 11
17.09375
 21
0.3125
 31
0.0
  0
LINE
  5
27A
330
238
100
AcDbEntity
  8
0
  6
Continuous
 62
    30
420
 16744192
100
AcDbLine
 10
17.0234375
 20
0.3125
 30
0.0
 11
17.09375
 21
0.3125
 31
0.0
  0
LINE
  5
27B
330
238
100
AcDbEntity
  8
0
  6
Continuous
 62
    30
420
 16744192
100
AcDbLine
 10
17.0234375
 20
0.125
 30
0.0
 11
17.0234375
 21
0.3125
 31
0.0
  0
LINE
  5
27C
330
238
100
AcDbEntity
  8
0
  6
Continuous
 62
    30
420
 16744192
100
AcDbLine
 10
17.0234375
 20
0.125
 30
0.0
 11
16.9765625
 21
0.125
 31
0.0
  0
LINE
  5
27D
330
238
100
AcDbEntity
  8
0
  6
Continuous
 62
    30
420
 16744192
100
AcDbLine
 10
16.9765625
 20
0.3125
 30
0.0
 11
16.9765625
 21
0.125
 31
0.0
  0
LINE
  5
27E
330
238
100
AcDbEntity
  8
0
  6
Continuous
 62
    30
420
 16744192
100
AcDbLine
 10
16.90625
 20
0.3125
 30
0.0
 11
16.9765625
 21
0.3125
 31
0.0
  0
LWPOLYLINE
  5
27F
330
238
100
AcDbEntity
  8
0
  6
Continuous
 62
     7
100
AcDbPolyline
 90
        8
 70
     0
 43
0.0
 10
17.0
 20
0.5
 10
17.09375
 20
0.3125
 10
17.0234375
 20
0.3125
 10
17.0234375
 20
0.125
 10
16.9765625
 20
0.125
 10
16.9765625
 20
0.3125
 10
16.90625
 20
0.3125
 10
17.0
 20
0.5
  0
HATCH
  5
280
330
238
100
AcDbEntity
  8
0
  6
Continuous
 62
     7
100
AcDbHatch
 10
0.0
 20
0.0
 30
0.0
210
0.0
220
0.0
230
1.0
  2
SOLID
 70
     1
 71
     1
 91
        1
 92
        1
 93
        7
 72
     1
 10
17.0
 20
0.5
 11
17.09375
 21
0.3125
 72
     1
 10
17.09375
 20
0.3125
 11
17.0234375
 21
0.3125
 72
     1
 10
17.0234375
 20
0.3125
 11
17.0234375
 21
0.125
 72
     1
 10
17.0234375
 20
0.125
 11
16.9765625
 21
0.125
 72
     1
 10
16.9765625
 20
0.125
 11
16.9765625
 21
0.3125
 72
     1
 10
16.9765625
 20
0.3125
 11
16.90625
 21
0.3125
 72
     1
 10
16.90625
 20
0.3125
 11
17.0
 21
0.5
 97
        1
330
27F
 75
     0
 76
     1
 98
        1
 10
0.0
 20
0.0
450
        0
451
        0
460
0.0
461
0.0
452
        0
462
0.0
453
        0
470

  0
ENDBLK
  5
281
330
238
100
AcDbEntity
  8
0
  6
ByBlock
 62
     0
100
AcDbBlockEnd
  0
BLOCK
  5
282
330
239
100
AcDbEntity
  8
0
  6
Continuous
 62
     2
100
AcDbBlockBegin
  2
SYMBOL_0_BL0
 70
     0
 10
30.1873715
 20
2.174145999999999
 30
0.0
  3
SYMBOL_0_BL0
  1

  0
ARC
  5
283
330
239
100
AcDbEntity
  8
0
  6
Continuous
 62
     2
100
AcDbCircle
 10
30.753184
 20
2.22961475
 30
0.0
 40
0.03065625
100
AcDbArc
 50
270.0
 51
90.0
  0
LINE
  5
284
330
239
100
AcDbEntity
  8
0
  6
Continuous
 62
     2
100
AcDbLine
 10
29.503184
 20
2.033520999999999
 30
0.0
 11
29.503184
 21
2.314770999999999
 31
0.0
  0
LINE
  5
285
330
239
100
AcDbEntity
  8
0
  6
Continuous
 62
     2
100
AcDbLine
 10
29.503184
 20
2.314770999999999
 30
0.0
 11
29.570184
 21
2.314770999999999
 31
0.0
  0
LINE
  5
286
330
239
100
AcDbEntity
  8
0
  6
Continuous
 62
     2
100
AcDbLine
 10
29.503184
 20
2.033520999999999
 30
0.0
 11
29.570184
 21
2.033520999999999
 31
0.0
  0
LINE
  5
287
330
239
100
AcDbEntity
  8
0
  6
Continuous
 62
     2
100
AcDbLine
 10
29.753184
 20
2.314770999999999
 30
0.0
 11
29.628184
 21
2.189770999999999
 31
0.0
  0
LINE
  5
288
330
239
100
AcDbEntity
  8
0
  6
Continuous
 62
     2
100
AcDbLine
 10
29.628184
 20
2.189770999999999
 30
0.0
 11
29.753184
 21
2.033520999999999
 31
0.0
  0
CIRCLE
  5
289
330
239
100
AcDbEntity
  8
0
  6
Continuous
 62
     2
100
AcDbCircle
 10
29.862559
 20
2.174145999999999
 30
0.0
 40
0.073625
  0
LINE
  5
28A
330
239
100
AcDbEntity
  8
0
  6
Continuous
 62
     2
100
AcDbLine
 10
29.6673821352
 20
2.033520999999999
 30
0.0
 11
29.753184
 21
2.033520999999999
 31
0.0
  0
CIRCLE
  5
28B
330
239
100
AcDbEntity
  8
0
  6
Continuous
 62
     2
100
AcDbCircle
 10
29.862559
 20
2.174145999999999
 30
0.0
 40
0.140625
  0
LINE
  5
28C
330
239
100
AcDbEntity
  8
0
  6
Continuous
 62
     2
100
AcDbLine
 10
29.570184
 20
2.033520999999999
 30
0.0
 11
29.570184
 21
2.155018668999999
 31
0.0
  0
LINE
  5
28D
330
239
100
AcDbEntity
  8
0
  6
Continuous
 62
     2
100
AcDbLine
 10
29.6584316913
 20
2.314770999999999
 30
0.0
 11
29.570184
 21
2.2265233087
 31
0.0
  0
LINE
  5
28E
330
239
100
AcDbEntity
  8
0
  6
Continuous
 62
     2
100
AcDbLine
 10
29.570184
 20
2.155018668999999
 30
0.0
 11
29.6673821352
 21
2.033520999999999
 31
0.0
  0
LINE
  5
28F
330
239
100
AcDbEntity
  8
0
  6
Continuous
 62
     2
100
AcDbLine
 10
29.6584316913
 20
2.314770999999999
 30
0.0
 11
29.753184
 21
2.314770999999999
 31
0.0
  0
LINE
  5
290
330
239
100
AcDbEntity
  8
0
  6
Continuous
 62
     2
100
AcDbLine
 10
29.570184
 20
2.314770999999999
 30
0.0
 11
29.570184
 21
2.2265233087
 31
0.0
  0
LINE
  5
291
330
239
100
AcDbEntity
  8
0
  6
Continuous
 62
     2
100
AcDbLine
 10
30.034434
 20
2.314770999999999
 30
0.0
 11
30.034434
 21
2.033520999999999
 31
0.0
  0
LINE
  5
292
330
239
100
AcDbEntity
  8
0
  6
Continuous
 62
     2
100
AcDbLine
 10
30.101434
 20
2.033520999999999
 30
0.0
 11
30.101434
 21
2.156270999999998
 31
0.0
  0
LINE
  5
293
330
239
100
AcDbEntity
  8
0
  6
Continuous
 62
     2
100
AcDbLine
 10
30.101434
 20
2.223270999999999
 30
0.0
 11
30.101434
 21
2.314770999999999
 31
0.0
  0
LINE
  5
294
330
239
100
AcDbEntity
  8
0
  6
Continuous
 62
     2
100
AcDbLine
 10
30.179559
 20
2.033520999999999
 30
0.0
 11
30.179559
 21
2.156270999999998
 31
0.0
  0
LINE
  5
295
330
239
100
AcDbEntity
  8
0
  6
Continuous
 62
     2
100
AcDbLine
 10
30.179559
 20
2.223270999999999
 30
0.0
 11
30.179559
 21
2.314770999999999
 31
0.0
  0
LINE
  5
296
330
239
100
AcDbEntity
  8
0
  6
Continuous
 62
     2
100
AcDbLine
 10
30.246559
 20
2.314770999999999
 30
0.0
 11
30.246559
 21
2.033520999999999
 31
0.0
  0
LINE
  5
297
330
239
100
AcDbEntity
  8
0
  6
Continuous
 62
     2
100
AcDbLine
 10
30.101434
 20
2.223270999999999
 30
0.0
 11
30.179559
 21
2.223270999999999
 31
0.0
  0
LINE
  5
298
330
239
100
AcDbEntity
  8
0
  6
Continuous
 62
     2
100
AcDbLine
 10
30.101434
 20
2.156270999999998
 30
0.0
 11
30.179559
 21
2.156270999999998
 31
0.0
  0
LINE
  5
299
330
239
100
AcDbEntity
  8
0
  6
Continuous
 62
     2
100
AcDbLine
 10
30.179559
 20
2.033520999999999
 30
0.0
 11
30.246559
 21
2.033520999999999
 31
0.0
  0
LINE
  5
29A
330
239
100
AcDbEntity
  8
0
  6
Continuous
 62
     2
100
AcDbLine
 10
30.034434
 20
2.033520999999999
 30
0.0
 11
30.101434
 21
2.033520999999999
 31
0.0
  0
LINE
  5
29B
330
239
100
AcDbEntity
  8
0
  6
Continuous
 62
     2
100
AcDbLine
 10
30.179559
 20
2.314770999999999
 30
0.0
 11
30.246559
 21
2.314770999999999
 31
0.0
  0
LINE
  5
29C
330
239
100
AcDbEntity
  8
0
  6
Continuous
 62
     2
100
AcDbLine
 10
30.034434
 20
2.314770999999999
 30
0.0
 11
30.101434
 21
2.314770999999999
 31
0.0
  0
LINE
  5
29D
330
239
100
AcDbEntity
  8
0
  6
Continuous
 62
     2
100
AcDbLine
 10
30.277809
 20
2.314770999999999
 30
0.0
 11
30.277809
 21
2.033520999999999
 31
0.0
  0
LINE
  5
29E
330
239
100
AcDbEntity
  8
0
  6
Continuous
 62
     2
100
AcDbLine
 10
30.434059
 20
2.100521
 30
0.0
 11
30.434059
 21
2.033520999999999
 31
0.0
  0
LINE
  5
29F
330
239
100
AcDbEntity
  8
0
  6
Continuous
 62
     2
100
AcDbLine
 10
30.277809
 20
2.033520999999999
 30
0.0
 11
30.434059
 21
2.033520999999999
 31
0.0
  0
LINE
  5
2A0
330
239
100
AcDbEntity
  8
0
  6
Continuous
 62
     2
100
AcDbLine
 10
30.344809
 20
2.100521
 30
0.0
 11
30.344809
 21
2.314770999999999
 31
0.0
  0
LINE
  5
2A1
330
239
100
AcDbEntity
  8
0
  6
Continuous
 62
     2
100
AcDbLine
 10
30.344809
 20
2.100521
 30
0.0
 11
30.434059
 21
2.100521
 31
0.0
  0
LINE
  5
2A2
330
239
100
AcDbEntity
  8
0
  6
Continuous
 62
     2
100
AcDbLine
 10
30.277809
 20
2.314770999999999
 30
0.0
 11
30.344809
 21
2.314770999999999
 31
0.0
  0
LINE
  5
2A3
330
239
100
AcDbEntity
  8
0
  6
Continuous
 62
     2
100
AcDbLine
 10
30.465309
 20
2.033520999999999
 30
0.0
 11
30.621559
 21
2.033520999999999
 31
0.0
  0
LINE
  5
2A4
330
239
100
AcDbEntity
  8
0
  6
Continuous
 62
     2
100
AcDbLine
 10
30.621559
 20
2.100521
 30
0.0
 11
30.621559
 21
2.033520999999999
 31
0.0
  0
LINE
  5
2A5
330
239
100
AcDbEntity
  8
0
  6
Continuous
 62
     2
100
AcDbLine
 10
30.532309
 20
2.100521
 30
0.0
 11
30.621559
 21
2.100521
 31
0.0
  0
LINE
  5
2A6
330
239
100
AcDbEntity
  8
0
  6
Continuous
 62
     2
100
AcDbLine
 10
30.532309
 20
2.148458499999998
 30
0.0
 11
30.532309
 21
2.100521
 31
0.0
  0
LINE
  5
2A7
330
239
100
AcDbEntity
  8
0
  6
Continuous
 62
     2
100
AcDbLine
 10
30.532309
 20
2.247770999999999
 30
0.0
 11
30.621559
 21
2.247770999999999
 31
0.0
  0
LINE
  5
2A8
330
239
100
AcDbEntity
  8
0
  6
Continuous
 62
     2
100
AcDbLine
 10
30.465309
 20
2.314770999999999
 30
0.0
 11
30.465309
 21
2.033520999999999
 31
0.0
  0
LINE
  5
2A9
330
239
100
AcDbEntity
  8
0
  6
Continuous
 62
     2
100
AcDbLine
 10
30.621559
 20
2.247770999999999
 30
0.0
 11
30.621559
 21
2.314770999999999
 31
0.0
  0
LINE
  5
2AA
330
239
100
AcDbEntity
  8
0
  6
Continuous
 62
     2
100
AcDbLine
 10
30.465309
 20
2.314770999999999
 30
0.0
 11
30.621559
 21
2.314770999999999
 31
0.0
  0
LINE
  5
2AB
330
239
100
AcDbEntity
  8
0
  6
Continuous
 62
     2
100
AcDbLine
 10
30.532309
 20
2.199833499999999
 30
0.0
 11
30.621559
 21
2.199833499999999
 31
0.0
  0
LINE
  5
2AC
330
239
100
AcDbEntity
  8
0
  6
Continuous
 62
     2
100
AcDbLine
 10
30.621559
 20
2.199833499999999
 30
0.0
 11
30.621559
 21
2.148458499999998
 31
0.0
  0
LINE
  5
2AD
330
239
100
AcDbEntity
  8
0
  6
Continuous
 62
     2
100
AcDbLine
 10
30.532309
 20
2.148458499999998
 30
0.0
 11
30.621559
 21
2.148458499999998
 31
0.0
  0
LINE
  5
2AE
330
239
100
AcDbEntity
  8
0
  6
Continuous
 62
     2
100
AcDbLine
 10
30.532309
 20
2.199833499999999
 30
0.0
 11
30.532309
 21
2.247770999999999
 31
0.0
  0
LINE
  5
2AF
330
239
100
AcDbEntity
  8
0
  6
Continuous
 62
     2
100
AcDbLine
 10
30.652809
 20
2.033520999999999
 30
0.0
 11
30.652809
 21
2.314770999999999
 31
0.0
  0
LINE
  5
2B0
330
239
100
AcDbEntity
  8
0
  6
Continuous
 62
     2
100
AcDbLine
 10
30.719809
 20
2.142895999999999
 30
0.0
 11
30.719809
 21
2.033520999999999
 31
0.0
  0
ARC
  5
2B1
330
239
100
AcDbEntity
  8
0
  6
Continuous
 62
     2
100
AcDbCircle
 10
30.7543715
 20
2.228833499999999
 30
0.0
 40
0.0859375
100
AcDbArc
 50
304.1679402531
 51
90.0
  0
LINE
  5
2B2
330
239
100
AcDbEntity
  8
0
  6
Continuous
 62
     2
100
AcDbLine
 10
30.7543715
 20
2.314770999999999
 30
0.0
 11
30.652809
 21
2.314770999999999
 31
0.0
  0
LINE
  5
2B3
330
239
100
AcDbEntity
  8
0
  6
Continuous
 62
     2
100
AcDbLine
 10
30.753184
 20
2.260270999999999
 30
0.0
 11
30.719809
 21
2.260270999999999
 31
0.0
  0
LINE
  5
2B4
330
239
100
AcDbEntity
  8
0
  6
Continuous
 62
     2
100
AcDbLine
 10
30.8026357616
 20
2.1577292458
 30
0.0
 11
30.871559
 21
2.033520999999999
 31
0.0
  0
LINE
  5
2B5
330
239
100
AcDbEntity
  8
0
  6
Continuous
 62
     2
100
AcDbLine
 10
30.7949350526
 20
2.033520999999999
 30
0.0
 11
30.7342427922
 21
2.142895999999999
 31
0.0
  0
LINE
  5
2B6
330
239
100
AcDbEntity
  8
0
  6
Continuous
 62
     2
100
AcDbLine
 10
30.652809
 20
2.033520999999999
 30
0.0
 11
30.719809
 21
2.033520999999999
 31
0.0
  0
LINE
  5
2B7
330
239
100
AcDbEntity
  8
0
  6
Continuous
 62
     2
100
AcDbLine
 10
30.7949350526
 20
2.033520999999999
 30
0.0
 11
30.871559
 21
2.033520999999999
 31
0.0
  0
LINE
  5
2B8
330
239
100
AcDbEntity
  8
0
  6
Continuous
 62
     2
100
AcDbLine
 10
30.753184
 20
2.198958499999998
 30
0.0
 11
30.719809
 21
2.198958499999998
 31
0.0
  0
LINE
  5
2B9
330
239
100
AcDbEntity
  8
0
  6
Continuous
 62
     2
100
AcDbLine
 10
30.719809
 20
2.260270999999999
 30
0.0
 11
30.719809
 21
2.198958499999998
 31
0.0
  0
LINE
  5
2BA
330
239
100
AcDbEntity
  8
0
  6
Continuous
 62
     2
100
AcDbLine
 10
30.719809
 20
2.142895999999999
 30
0.0
 11
30.7342427922
 21
2.142895999999999
 31
0.0
  0
LWPOLYLINE
  5
2BB
330
239
100
AcDbEntity
  8
0
  6
Continuous
 62
     2
100
AcDbPolyline
 90
       14
 70
     0
 43
0.0
 10
30.871559
 20
2.033520999999999
 10
30.7949350526
 20
2.033520999999999
 10
30.7342427922
 20
2.142895999999999
 10
30.719809
 20
2.142895999999999
 10
30.719809
 20
2.033520999999999
 10
30.652809
 20
2.033520999999999
 10
30.652809
 20
2.260270999999999
 10
30.719809
 20
2.260270999999999
 10
30.719809
 20
2.198958499999998
 10
30.753184
 20
2.198958499999998
 10
30.833650134
 20
2.198958499999998
 10
30.8247683179
 20
2.1795431162
 10
30.8026357616
 20
2.1577292458
 10
30.871559
 20
2.033520999999999
  0
HATCH
  5
2BC
330
239
100
AcDbEntity
  8
0
  6
Continuous
 62
     2
100
AcDbHatch
 10
0.0
 20
0.0
 30
0.0
210
0.0
220
0.0
230
1.0
  2
SOLID
 70
     1
 71
     1
 91
        1
 92
        1
 93
       13
 72
     1
 10
30.871559
 20
2.033520999999999
 11
30.7949350526
 21
2.033520999999999
 72
     1
 10
30.7949350526
 20
2.033520999999999
 11
30.7342427922
 21
2.142895999999999
 72
     1
 10
30.7342427922
 20
2.142895999999999
 11
30.719809
 21
2.142895999999999
 72
     1
 10
30.719809
 20
2.142895999999999
 11
30.719809
 21
2.033520999999999
 72
     1
 10
30.719809
 20
2.033520999999999
 11
30.652809
 21
2.033520999999999
 72
     1
 10
30.652809
 20
2.033520999999999
 11
30.652809
 21
2.260270999999999
 72
     1
 10
30.652809
 20
2.260270999999999
 11
30.719809
 21
2.260270999999999
 72
     1
 10
30.719809
 20
2.260270999999999
 11
30.719809
 21
2.198958499999998
 72
     1
 10
30.719809
 20
2.198958499999998
 11
30.753184
 21
2.198958499999998
 72
     1
 10
30.753184
 20
2.198958499999998
 11
30.833650134
 21
2.198958499999998
 72
     1
 10
30.833650134
 20
2.198958499999998
 11
30.8247683179
 21
2.1795431162
 72
     1
 10
30.8247683179
 20
2.1795431162
 11
30.8026357616
 21
2.1577292458
 72
     1
 10
30.8026357616
 20
2.1577292458
 11
30.871559
 21
2.033520999999999
 97
        1
330
2BB
 75
     0
 76
     1
 98
        1
 10
0.0
 20
0.0
450
        0
451
        0
460
0.0
461
0.0
452
        0
462
0.0
453
        0
470

  0
LWPOLYLINE
  5
2BD
330
239
100
AcDbEntity
  8
0
  6
Continuous
 62
     2
100
AcDbPolyline
 90
       18
 70
     0
 43
0.0
 10
30.652809
 20
2.260270999999999
 10
30.652809
 20
2.314770999999999
 10
30.7543715
 20
2.314770999999999
 10
30.7849349823
 20
2.309152410999999
 10
30.811501987
 20
2.2930313299
 10
30.8305986155
 20
2.268515747599999
 10
30.8397277946
 20
2.238811318999998
 10
30.8376957941
 20
2.207802191799999
 10
30.833650134
 20
2.198958499999998
 10
30.753184
 20
2.198958499999998
 10
30.768512125
 20
2.203065658699999
 10
30.7797330913
 20
2.214286625
 10
30.78384025
 20
2.22961475
 10
30.7797330913
 20
2.244942875
 10
30.768512125
 20
2.256163841299998
 10
30.753184
 20
2.260270999999999
 10
30.719809
 20
2.260270999999999
 10
30.652809
 20
2.260270999999999
  0
HATCH
  5
2BE
330
239
100
AcDbEntity
  8
0
  6
Continuous
 62
     2
100
AcDbHatch
 10
0.0
 20
0.0
 30
0.0
210
0.0
220
0.0
230
1.0
  2
SOLID
 70
     1
 71
     1
 91
        1
 92
        1
 93
       17
 72
     1
 10
30.652809
 20
2.260270999999999
 11
30.652809
 21
2.314770999999999
 72
     1
 10
30.652809
 20
2.314770999999999
 11
30.7543715
 21
2.314770999999999
 72
     1
 10
30.7543715
 20
2.314770999999999
 11
30.7849349823
 21
2.309152410999999
 72
     1
 10
30.7849349823
 20
2.309152410999999
 11
30.811501987
 21
2.2930313299
 72
     1
 10
30.811501987
 20
2.2930313299
 11
30.8305986155
 21
2.268515747599999
 72
     1
 10
30.8305986155
 20
2.268515747599999
 11
30.8397277946
 21
2.238811318999998
 72
     1
 10
30.8397277946
 20
2.238811318999998
 11
30.8376957941
 21
2.207802191799999
 72
     1
 10
30.8376957941
 20
2.207802191799999
 11
30.833650134
 21
2.198958499999998
 72
     1
 10
30.833650134
 20
2.198958499999998
 11
30.753184
 21
2.198958499999998
 72
     1
 10
30.753184
 20
2.198958499999998
 11
30.768512125
 21
2.203065658699999
 72
     1
 10
30.768512125
 20
2.203065658699999
 11
30.7797330913
 21
2.214286625
 72
     1
 10
30.7797330913
 20
2.214286625
 11
30.78384025
 21
2.22961475
 72
     1
 10
30.78384025
 20
2.22961475
 11
30.7797330913
 21
2.244942875
 72
     1
 10
30.7797330913
 20
2.244942875
 11
30.768512125
 21
2.256163841299998
 72
     1
 10
30.768512125
 20
2.256163841299998
 11
30.753184
 21
2.260270999999999
 72
     1
 10
30.753184
 20
2.260270999999999
 11
30.719809
 21
2.260270999999999
 72
     1
 10
30.719809
 20
2.260270999999999
 11
30.652809
 21
2.260270999999999
 97
        1
330
2BD
 75
     0
 76
     1
 98
        1
 10
0.0
 20
0.0
450
        0
451
        0
460
0.0
461
0.0
452
        0
462
0.0
453
        0
470

  0
LWPOLYLINE
  5
2BF
330
239
100
AcDbEntity
  8
0
  6
Continuous
 62
     2
100
AcDbPolyline
 90
       12
 70
     0
 43
0.0
 10
29.570184
 20
2.033520999999999
 10
29.503184
 20
2.033520999999999
 10
29.503184
 20
2.314770999999999
 10
29.570184
 20
2.314770999999999
 10
29.570184
 20
2.2265233087
 10
29.6584316913
 20
2.314770999999999
 10
29.753184
 20
2.314770999999999
 10
29.628184
 20
2.189770999999999
 10
29.753184
 20
2.033520999999999
 10
29.6673821352
 20
2.033520999999999
 10
29.570184
 20
2.155018668999999
 10
29.570184
 20
2.033520999999999
  0
HATCH
  5
2C0
330
239
100
AcDbEntity
  8
0
  6
Continuous
 62
     2
100
AcDbHatch
 10
0.0
 20
0.0
 30
0.0
210
0.0
220
0.0
230
1.0
  2
SOLID
 70
     1
 71
     1
 91
        1
 92
        1
 93
       11
 72
     1
 10
29.570184
 20
2.033520999999999
 11
29.503184
 21
2.033520999999999
 72
     1
 10
29.503184
 20
2.033520999999999
 11
29.503184
 21
2.314770999999999
 72
     1
 10
29.503184
 20
2.314770999999999
 11
29.570184
 21
2.314770999999999
 72
     1
 10
29.570184
 20
2.314770999999999
 11
29.570184
 21
2.2265233087
 72
     1
 10
29.570184
 20
2.2265233087
 11
29.6584316913
 21
2.314770999999999
 72
     1
 10
29.6584316913
 20
2.314770999999999
 11
29.753184
 21
2.314770999999999
 72
     1
 10
29.753184
 20
2.314770999999999
 11
29.628184
 21
2.189770999999999
 72
     1
 10
29.628184
 20
2.189770999999999
 11
29.753184
 21
2.033520999999999
 72
     1
 10
29.753184
 20
2.033520999999999
 11
29.6673821352
 21
2.033520999999999
 72
     1
 10
29.6673821352
 20
2.033520999999999
 11
29.570184
 21
2.155018668999999
 72
     1
 10
29.570184
 20
2.155018668999999
 11
29.570184
 21
2.033520999999999
 97
        1
330
2BF
 75
     0
 76
     1
 98
        1
 10
0.0
 20
0.0
450
        0
451
        0
460
0.0
461
0.0
452
        0
462
0.0
453
        0
470

  0
LWPOLYLINE
  5
2C1
330
239
100
AcDbEntity
  8
0
  6
Continuous
 62
     2
100
AcDbPolyline
 90
       23
 70
     0
 43
0.0
 10
29.862559
 20
2.033520999999999
 10
29.8191034852
 20
2.0404036774
 10
29.7799016989
 20
2.0603779852
 10
29.7487909852
 20
2.091488698899997
 10
29.7288166774
 20
2.1306904852
 10
29.721934
 20
2.174145999999999
 10
29.7288166774
 20
2.217601514799997
 10
29.7440287706
 20
2.2474569287
 10
29.869352258
 20
2.2474569287
 10
29.8424105624
 20
2.244960413
 10
29.8181900249
 20
2.2329000184
 10
29.7999617634
 20
2.212904567999999
 10
29.7901876055
 20
2.187674558199999
 10
29.7901876055
 20
2.160617441799999
 10
29.7999617634
 20
2.135387431999999
 10
29.8181900249
 20
2.115391981599997
 10
29.8424105624
 20
2.103331587
 10
29.869352258
 20
2.1008350713
 10
29.9810892294
 20
2.1008350713
 10
29.9763270148
 20
2.091488698899997
 10
29.9452163011
 20
2.0603779852
 10
29.9060145148
 20
2.0404036774
 10
29.862559
 20
2.033520999999999
  0
HATCH
  5
2C2
330
239
100
AcDbEntity
  8
0
  6
Continuous
 62
     2
100
AcDbHatch
 10
0.0
 20
0.0
 30
0.0
210
0.0
220
0.0
230
1.0
  2
SOLID
 70
     1
 71
     1
 91
        1
 92
        1
 93
       22
 72
     1
 10
29.862559
 20
2.033520999999999
 11
29.8191034852
 21
2.0404036774
 72
     1
 10
29.8191034852
 20
2.0404036774
 11
29.7799016989
 21
2.0603779852
 72
     1
 10
29.7799016989
 20
2.0603779852
 11
29.7487909852
 21
2.091488698899997
 72
     1
 10
29.7487909852
 20
2.091488698899997
 11
29.7288166774
 21
2.1306904852
 72
     1
 10
29.7288166774
 20
2.1306904852
 11
29.721934
 21
2.174145999999999
 72
     1
 10
29.721934
 20
2.174145999999999
 11
29.7288166774
 21
2.217601514799997
 72
     1
 10
29.7288166774
 20
2.217601514799997
 11
29.7440287706
 21
2.2474569287
 72
     1
 10
29.7440287706
 20
2.2474569287
 11
29.869352258
 21
2.2474569287
 72
     1
 10
29.869352258
 20
2.2474569287
 11
29.8424105624
 21
2.244960413
 72
     1
 10
29.8424105624
 20
2.244960413
 11
29.8181900249
 21
2.2329000184
 72
     1
 10
29.8181900249
 20
2.2329000184
 11
29.7999617634
 21
2.212904567999999
 72
     1
 10
29.7999617634
 20
2.212904567999999
 11
29.7901876055
 21
2.187674558199999
 72
     1
 10
29.7901876055
 20
2.187674558199999
 11
29.7901876055
 21
2.160617441799999
 72
     1
 10
29.7901876055
 20
2.160617441799999
 11
29.7999617634
 21
2.135387431999999
 72
     1
 10
29.7999617634
 20
2.135387431999999
 11
29.8181900249
 21
2.115391981599997
 72
     1
 10
29.8181900249
 20
2.115391981599997
 11
29.8424105624
 21
2.103331587
 72
     1
 10
29.8424105624
 20
2.103331587
 11
29.869352258
 21
2.1008350713
 72
     1
 10
29.869352258
 20
2.1008350713
 11
29.9810892294
 21
2.1008350713
 72
     1
 10
29.9810892294
 20
2.1008350713
 11
29.9763270148
 21
2.091488698899997
 72
     1
 10
29.9763270148
 20
2.091488698899997
 11
29.9452163011
 21
2.0603779852
 72
     1
 10
29.9452163011
 20
2.0603779852
 11
29.9060145148
 21
2.0404036774
 72
     1
 10
29.9060145148
 20
2.0404036774
 11
29.862559
 21
2.033520999999999
 97
        1
330
2C1
 75
     0
 76
     1
 98
        1
 10
0.0
 20
0.0
450
        0
451
        0
460
0.0
461
0.0
452
        0
462
0.0
453
        0
470

  0
LWPOLYLINE
  5
2C3
330
239
100
AcDbEntity
  8
0
  6
Continuous
 62
     2
100
AcDbPolyline
 90
       22
 70
     0
 43
0.0
 10
29.7440287706
 20
2.2474569287
 10
29.7487909852
 20
2.2568033011
 10
29.7799016989
 20
2.287914014799997
 10
29.8191034852
 20
2.307888322599997
 10
29.862559
 20
2.314770999999999
 10
29.9060145148
 20
2.307888322599997
 10
29.9452163011
 20
2.287914014799997
 10
29.9763270148
 20
2.2568033011
 10
29.9963013226
 20
2.217601514799997
 10
30.003184
 20
2.174145999999999
 10
29.9963013226
 20
2.1306904852
 10
29.9810892294
 20
2.1008350713
 10
29.869352258
 20
2.1008350713
 10
29.8953764864
 20
2.1082396027
 10
29.9169685315
 20
2.1245451582
 10
29.9312122679
 20
2.147549582299999
 10
29.936184
 20
2.174145999999999
 10
29.9312122679
 20
2.200742417699999
 10
29.9169685315
 20
2.2237468418
 10
29.8953764864
 20
2.240052397299999
 10
29.869352258
 20
2.2474569287
 10
29.7440287706
 20
2.2474569287
  0
HATCH
  5
2C4
330
239
100
AcDbEntity
  8
0
  6
Continuous
 62
     2
100
AcDbHatch
 10
0.0
 20
0.0
 30
0.0
210
0.0
220
0.0
230
1.0
  2
SOLID
 70
     1
 71
     1
 91
        1
 92
        1
 93
       21
 72
     1
 10
29.7440287706
 20
2.2474569287
 11
29.7487909852
 21
2.2568033011
 72
     1
 10
29.7487909852
 20
2.2568033011
 11
29.7799016989
 21
2.287914014799997
 72
     1
 10
29.7799016989
 20
2.287914014799997
 11
29.8191034852
 21
2.307888322599997
 72
     1
 10
29.8191034852
 20
2.307888322599997
 11
29.862559
 21
2.314770999999999
 72
     1
 10
29.862559
 20
2.314770999999999
 11
29.9060145148
 21
2.307888322599997
 72
     1
 10
29.9060145148
 20
2.307888322599997
 11
29.9452163011
 21
2.287914014799997
 72
     1
 10
29.9452163011
 20
2.287914014799997
 11
29.9763270148
 21
2.2568033011
 72
     1
 10
29.9763270148
 20
2.2568033011
 11
29.9963013226
 21
2.217601514799997
 72
     1
 10
29.9963013226
 20
2.217601514799997
 11
30.003184
 21
2.174145999999999
 72
     1
 10
30.003184
 20
2.174145999999999
 11
29.9963013226
 21
2.1306904852
 72
     1
 10
29.9963013226
 20
2.1306904852
 11
29.9810892294
 21
2.1008350713
 72
     1
 10
29.9810892294
 20
2.1008350713
 11
29.869352258
 21
2.1008350713
 72
     1
 10
29.869352258
 20
2.1008350713
 11
29.8953764864
 21
2.1082396027
 72
     1
 10
29.8953764864
 20
2.1082396027
 11
29.9169685315
 21
2.1245451582
 72
     1
 10
29.9169685315
 20
2.1245451582
 11
29.9312122679
 21
2.147549582299999
 72
     1
 10
29.9312122679
 20
2.147549582299999
 11
29.936184
 21
2.174145999999999
 72
     1
 10
29.936184
 20
2.174145999999999
 11
29.9312122679
 21
2.200742417699999
 72
     1
 10
29.9312122679
 20
2.200742417699999
 11
29.9169685315
 21
2.2237468418
 72
     1
 10
29.9169685315
 20
2.2237468418
 11
29.8953764864
 21
2.240052397299999
 72
     1
 10
29.8953764864
 20
2.240052397299999
 11
29.869352258
 21
2.2474569287
 72
     1
 10
29.869352258
 20
2.2474569287
 11
29.7440287706
 21
2.2474569287
 97
        1
330
2C3
 75
     0
 76
     1
 98
        1
 10
0.0
 20
0.0
450
        0
451
        0
460
0.0
461
0.0
452
        0
462
0.0
453
        0
470

  0
LWPOLYLINE
  5
2C5
330
239
100
AcDbEntity
  8
0
  6
Continuous
 62
     2
100
AcDbPolyline
 90
       13
 70
     0
 43
0.0
 10
30.101434
 20
2.033520999999999
 10
30.034434
 20
2.033520999999999
 10
30.034434
 20
2.314770999999999
 10
30.101434
 20
2.314770999999999
 10
30.101434
 20
2.223270999999999
 10
30.179559
 20
2.223270999999999
 10
30.179559
 20
2.314770999999999
 10
30.246559
 20
2.314770999999999
 10
30.246559
 20
2.033520999999999
 10
30.179559
 20
2.033520999999999
 10
30.179559
 20
2.156270999999998
 10
30.101434
 20
2.156270999999998
 10
30.101434
 20
2.033520999999999
  0
HATCH
  5
2C6
330
239
100
AcDbEntity
  8
0
  6
Continuous
 62
     2
100
AcDbHatch
 10
0.0
 20
0.0
 30
0.0
210
0.0
220
0.0
230
1.0
  2
SOLID
 70
     1
 71
     1
 91
        1
 92
        1
 93
       12
 72
     1
 10
30.101434
 20
2.033520999999999
 11
30.034434
 21
2.033520999999999
 72
     1
 10
30.034434
 20
2.033520999999999
 11
30.034434
 21
2.314770999999999
 72
     1
 10
30.034434
 20
2.314770999999999
 11
30.101434
 21
2.314770999999999
 72
     1
 10
30.101434
 20
2.314770999999999
 11
30.101434
 21
2.223270999999999
 72
     1
 10
30.101434
 20
2.223270999999999
 11
30.179559
 21
2.223270999999999
 72
     1
 10
30.179559
 20
2.223270999999999
 11
30.179559
 21
2.314770999999999
 72
     1
 10
30.179559
 20
2.314770999999999
 11
30.246559
 21
2.314770999999999
 72
     1
 10
30.246559
 20
2.314770999999999
 11
30.246559
 21
2.033520999999999
 72
     1
 10
30.246559
 20
2.033520999999999
 11
30.179559
 21
2.033520999999999
 72
     1
 10
30.179559
 20
2.033520999999999
 11
30.179559
 21
2.156270999999998
 72
     1
 10
30.179559
 20
2.156270999999998
 11
30.101434
 21
2.156270999999998
 72
     1
 10
30.101434
 20
2.156270999999998
 11
30.101434
 21
2.033520999999999
 97
        1
330
2C5
 75
     0
 76
     1
 98
        1
 10
0.0
 20
0.0
450
        0
451
        0
460
0.0
461
0.0
452
        0
462
0.0
453
        0
470

  0
LWPOLYLINE
  5
2C7
330
239
100
AcDbEntity
  8
0
  6
Continuous
 62
     2
100
AcDbPolyline
 90
        7
 70
     0
 43
0.0
 10
30.434059
 20
2.033520999999999
 10
30.277809
 20
2.033520999999999
 10
30.277809
 20
2.314770999999999
 10
30.344809
 20
2.314770999999999
 10
30.344809
 20
2.100521
 10
30.434059
 20
2.100521
 10
30.434059
 20
2.033520999999999
  0
HATCH
  5
2C8
330
239
100
AcDbEntity
  8
0
  6
Continuous
 62
     2
100
AcDbHatch
 10
0.0
 20
0.0
 30
0.0
210
0.0
220
0.0
230
1.0
  2
SOLID
 70
     1
 71
     1
 91
        1
 92
        1
 93
        6
 72
     1
 10
30.434059
 20
2.033520999999999
 11
30.277809
 21
2.033520999999999
 72
     1
 10
30.277809
 20
2.033520999999999
 11
30.277809
 21
2.314770999999999
 72
     1
 10
30.277809
 20
2.314770999999999
 11
30.344809
 21
2.314770999999999
 72
     1
 10
30.344809
 20
2.314770999999999
 11
30.344809
 21
2.100521
 72
     1
 10
30.344809
 20
2.100521
 11
30.434059
 21
2.100521
 72
     1
 10
30.434059
 20
2.100521
 11
30.434059
 21
2.033520999999999
 97
        1
330
2C7
 75
     0
 76
     1
 98
        1
 10
0.0
 20
0.0
450
        0
451
        0
460
0.0
461
0.0
452
        0
462
0.0
453
        0
470

  0
LWPOLYLINE
  5
2C9
330
239
100
AcDbEntity
  8
0
  6
Continuous
 62
     2
100
AcDbPolyline
 90
       13
 70
     0
 43
0.0
 10
30.621559
 20
2.033520999999999
 10
30.465309
 20
2.033520999999999
 10
30.465309
 20
2.314770999999999
 10
30.621559
 20
2.314770999999999
 10
30.621559
 20
2.247770999999999
 10
30.532309
 20
2.247770999999999
 10
30.532309
 20
2.199833499999999
 10
30.621559
 20
2.199833499999999
 10
30.621559
 20
2.148458499999998
 10
30.532309
 20
2.148458499999998
 10
30.532309
 20
2.100521
 10
30.621559
 20
2.100521
 10
30.621559
 20
2.033520999999999
  0
HATCH
  5
2CA
330
239
100
AcDbEntity
  8
0
  6
Continuous
 62
     2
100
AcDbHatch
 10
0.0
 20
0.0
 30
0.0
210
0.0
220
0.0
230
1.0
  2
SOLID
 70
     1
 71
     1
 91
        1
 92
        1
 93
       12
 72
     1
 10
30.621559
 20
2.033520999999999
 11
30.465309
 21
2.033520999999999
 72
     1
 10
30.465309
 20
2.033520999999999
 11
30.465309
 21
2.314770999999999
 72
     1
 10
30.465309
 20
2.314770999999999
 11
30.621559
 21
2.314770999999999
 72
     1
 10
30.621559
 20
2.314770999999999
 11
30.621559
 21
2.247770999999999
 72
     1
 10
30.621559
 20
2.247770999999999
 11
30.532309
 21
2.247770999999999
 72
     1
 10
30.532309
 20
2.247770999999999
 11
30.532309
 21
2.199833499999999
 72
     1
 10
30.532309
 20
2.199833499999999
 11
30.621559
 21
2.199833499999999
 72
     1
 10
30.621559
 20
2.199833499999999
 11
30.621559
 21
2.148458499999998
 72
     1
 10
30.621559
 20
2.148458499999998
 11
30.532309
 21
2.148458499999998
 72
     1
 10
30.532309
 20
2.148458499999998
 11
30.532309
 21
2.100521
 72
     1
 10
30.532309
 20
2.100521
 11
30.621559
 21
2.100521
 72
     1
 10
30.621559
 20
2.100521
 11
30.621559
 21
2.033520999999999
 97
        1
330
2C9
 75
     0
 76
     1
 98
        1
 10
0.0
 20
0.0
450
        0
451
        0
460
0.0
461
0.0
452
        0
462
0.0
453
        0
470

  0
ENDBLK
  5
2CB
330
239
100
AcDbEntity
  8
0
  6
ByBlock
 62
     0
100
AcDbBlockEnd
  0
BLOCK
  5
FC6
330
FC4
100
AcDbEntity
  8
0
100
AcDbBlockBegin
  2
GENAXEH
 70
     0
 10
0.0
 20
0.0
 30
0.0
  3
GENAXEH
  1

  0
LINE
  5
FC5
330
FC4
100
AcDbEntity
  8
0
100
AcDbLine
 10
-1.0
 20
0.0
 30
0.0
 11
1.0
 21
0.0
 31
0.0
  0
ENDBLK
  5
FC7
330
FC4
100
AcDbEntity
  8
0
100
AcDbBlockEnd
  0
ENDSEC
  0
SECTION
  2
ENTITIES
  0
LINE
  5
B18
330
21D
100
AcDbEntity
  8
CURVE1
  6
Continuous
 62
     7
100
AcDbLine
 10
-4.856872794075681
 20
6.910645275599999
 30
0.0
 11
-4.856872794075681
 21
7.0976531496
 31
0.0
  0
LINE
  5
B19
330
21D
100
AcDbEntity
  8
0
  6
Continuous
 62
     7
100
AcDbLine
 10
-0.9172244846756836
 20
1.746851944499999
 30
0.0
 11
-0.9163885277756833
 21
1.746979806499999
 31
0.0
  0
LWPOLYLINE
  5
B1A
330
21D
100
AcDbEntity
  8
0
  6
Continuous
 62
     7
100
AcDbPolyline
 90
       82
 70
     0
 43
0.0
 10
0.3943927813243167
 20
1.7936233418
 10
0.4022723011243162
 20
1.794128364199998
 10
0.4112614049243164
 20
1.7948576316
 10
0.4202416153243167
 20
1.795749397099998
 10
0.4292107053243166
 20
1.7968033697
 10
0.4381650581243166
 20
1.798019106399999
 10
0.447099685024317
 20
1.799395889199999
 10
0.456011628324317
 20
1.8009332171
 10
0.4648979766243169
 20
1.8026305961
 10
0.4737538350243168
 20
1.8044871
 10
0.4825762560243163
 20
1.806502118799999
 10
0.4913623244243169
 20
1.8086750493
 10
0.5001072329243166
 20
1.811004767899999
 10
0.5088080866243164
 20
1.813490570699999
 10
0.5174619566243166
 20
1.8161317449
 10
0.5260640428243164
 20
1.818926949199997
 10
0.5346112734243165
 20
1.821875304199997
 10
0.5431009740243167
 20
1.8249760631
 10
0.5515290034243164
 20
1.8282279133
 10
0.5598916969243171
 20
1.8316296332
 10
0.5681870661243164
 20
1.835180664199999
 10
0.5764135192243165
 20
1.838880622699998
 10
0.5845682753243167
 20
1.842727942599998
 10
0.5926491386243164
 20
1.8467209518
 10
0.6006555129243166
 20
1.8508588402
 10
0.6085851653243167
 20
1.855140065
 10
0.6164353923243163
 20
1.859562834399999
 10
0.6242048065243166
 20
1.8641261236
 10
0.6318918377243166
 20
1.8688288999
 10
0.6394930279243165
 20
1.873668999
 10
0.6470041811243164
 20
1.878643662899999
 10
0.6544230799243165
 20
1.883751343
 10
0.6617470437243167
 20
1.8889901783
 10
0.6689713354243163
 20
1.894356725599999
 10
0.6760933317243163
 20
1.899848939099999
 10
0.6831109754243167
 20
1.9054652008
 10
0.6900205414243166
 20
1.9112025147
 10
0.6968188265243165
 20
1.9170581663
 10
0.703504545024317
 20
1.9230310611
 10
0.7100768528243167
 20
1.929120644099999
 10
0.7165332451243165
 20
1.935324929
 10
0.7228716410243165
 20
1.9416422829
 10
0.729092051924317
 20
1.9480724855
 10
0.7351930407243166
 20
1.9546133293
 10
0.7411727608243166
 20
1.961262154399999
 10
0.7470307619243166
 20
1.9680179071
 10
0.7527661036243165
 20
1.974879143999999
 10
0.758376276824317
 20
1.9818425793
 10
0.7638584793243171
 20
1.988904397599998
 10
0.7692112511243164
 20
1.9960623933
 10
0.7744327788243166
 20
2.003313896699999
 10
0.7795199251243168
 20
2.0106542534
 10
0.7844710199243165
 20
2.0180807
 10
0.7892847274243163
 20
2.0255909652
 10
0.7939586184243166
 20
2.033181005699999
 10
0.7984907367243164
 20
2.0408473356
 10
0.8028802507243169
 20
2.048588332
 10
0.8071264401243166
 20
2.056402745599998
 10
0.8112277289243166
 20
2.0642878747
 10
0.8151827714243163
 20
2.0722414487
 10
0.818991023024316
 20
2.0802629647
 10
0.8226510197243165
 20
2.0883502161
 10
0.8261614327243167
 20
2.0965004296
 10
0.8295221446243164
 20
2.104712166999997
 10
0.8327327392243164
 20
2.112983331699997
 10
0.8357922511243165
 20
2.12131045
 10
0.8386997596243164
 20
2.129690011999997
 10
0.8414546720243166
 20
2.1381193609
 10
0.8440562980243162
 20
2.146595551299999
 10
0.8465036739243164
 20
2.1551146105
 10
0.8487962252243166
 20
2.1636737231
 10
0.8509333787243168
 20
2.172270078599999
 10
0.8529143009243163
 20
2.180899682899998
 10
0.8547385167243163
 20
2.189559878499999
 10
0.8564054826243165
 20
2.198247697199998
 10
0.8579144193243164
 20
2.206958656299998
 10
0.8592648156243171
 20
2.215689259299999
 10
0.8604563866243161
 20
2.2244373878
 10
0.8614887655243164
 20
2.233200621399999
 10
0.8623615375243169
 20
2.2419763002
 10
0.8630742629243162
 20
2.250761526799998
 10
0.8636133155243165
 20
2.2593433193
  0
LWPOLYLINE
  5
B1B
330
21D
100
AcDbEntity
  8
0
  6
Continuous
 62
     7
100
AcDbPolyline
 90
        3
 70
     0
 43
0.0
 10
0.3877389484243165
 20
1.7932602205
 10
0.3899978301243166
 20
1.793386599699999
 10
0.3943796938243169
 20
1.793632227599998
  0
LINE
  5
B1C
330
21D
100
AcDbEntity
  8
0
  6
Continuous
 62
     7
100
AcDbLine
 10
0.3832288876243166
 20
1.793008389399999
 30
0.0
 11
0.3877389484243165
 21
1.7932602205
 31
0.0
  0
LINE
  5
B1D
330
21D
100
AcDbEntity
  8
0
  6
Continuous
 62
     7
100
AcDbLine
 10
0.3787290417243163
 20
1.792757787599998
 30
0.0
 11
0.3832288876243166
 21
1.793008389399999
 31
0.0
  0
LWPOLYLINE
  5
B1E
330
21D
100
AcDbEntity
  8
0
  6
Continuous
 62
     7
100
AcDbPolyline
 90
        3
 70
     0
 43
0.0
 10
0.3719983368243169
 20
1.792384175099997
 10
0.3742393743243166
 20
1.7925084086
 10
0.3787290417243163
 20
1.792757787599998
  0
LINE
  5
B1F
330
21D
100
AcDbEntity
  8
0
  6
Continuous
 62
     7
100
AcDbLine
 10
0.3675238361243163
 20
1.792136616299998
 30
0.0
 11
0.3719983368243169
 21
1.792384175099997
 31
0.0
  0
LWPOLYLINE
  5
B20
330
21D
100
AcDbEntity
  8
0
  6
Continuous
 62
     7
100
AcDbPolyline
 90
        3
 70
     0
 43
0.0
 10
0.3608309107243168
 20
1.791767534199999
 10
0.3630593855243163
 20
1.791890261999999
 10
0.3675238361243163
 20
1.792136616299998
  0
LINE
  5
B21
330
21D
100
AcDbEntity
  8
0
  6
Continuous
 62
     7
100
AcDbLine
 10
0.3563814436243162
 20
1.7915229734
 30
0.0
 11
0.3608309107243168
 21
1.791767534199999
 31
0.0
  0
LWPOLYLINE
  5
B22
330
21D
100
AcDbEntity
  8
0
  6
Continuous
 62
     7
100
AcDbPolyline
 90
        3
 70
     0
 43
0.0
 10
0.3497258394243166
 20
1.7911583552
 10
0.3519418983243168
 20
1.791279599099999
 10
0.3563814436243162
 20
1.7915229734
  0
LINE
  5
B23
330
21D
100
AcDbEntity
  8
0
  6
Continuous
 62
     7
100
AcDbLine
 10
0.3453010946243165
 20
1.7909167481
 30
0.0
 11
0.3497258394243166
 21
1.7911583552
 31
0.0
  0
LINE
  5
B24
330
21D
100
AcDbEntity
  8
0
  6
Continuous
 62
     7
100
AcDbLine
 10
0.3408861609243163
 20
1.7906763108
 30
0.0
 11
0.3453010946243165
 21
1.7909167481
 31
0.0
  0
LWPOLYLINE
  5
B25
330
21D
100
AcDbEntity
  8
0
  6
Continuous
 62
     7
100
AcDbPolyline
 90
        3
 70
     0
 43
0.0
 10
0.3342820281243166
 20
1.790317831699999
 10
0.3364809805243163
 20
1.7904370358
 10
0.3408861609243163
 20
1.7906763108
  0
LINE
  5
B26
330
21D
100
AcDbEntity
  8
0
  6
Continuous
 62
     7
100
AcDbLine
 10
0.3298913787243167
 20
1.790080286999998
 30
0.0
 11
0.3342820281243166
 21
1.790317831699999
 31
0.0
  0
LWPOLYLINE
  5
B27
330
21D
100
AcDbEntity
  8
0
  6
Continuous
 62
     7
100
AcDbPolyline
 90
        3
 70
     0
 43
0.0
 10
0.3233234358243164
 20
1.7897261144
 10
0.3255103496243166
 20
1.789843886899999
 10
0.3298913787243167
 20
1.790080286999998
  0
LINE
  5
B28
330
21D
100
AcDbEntity
  8
0
  6
Continuous
 62
     7
100
AcDbLine
 10
0.3189567555243165
 20
1.789491419099999
 30
0.0
 11
0.3233234358243164
 21
1.7897261144
 31
0.0
  0
LWPOLYLINE
  5
B29
330
21D
100
AcDbEntity
  8
0
  6
Continuous
 62
     7
100
AcDbPolyline
 90
        3
 70
     0
 43
0.0
 10
0.3124245482243166
 20
1.789141489699999
 10
0.3145995864243165
 20
1.789257852299997
 10
0.3189567555243165
 20
1.789491419099999
  0
LINE
  5
B2A
330
21D
100
AcDbEntity
  8
0
  6
Continuous
 62
     7
100
AcDbLine
 10
0.3080815461243165
 20
1.7889096027
 30
0.0
 11
0.3124245482243166
 21
1.789141489699999
 31
0.0
  0
LWPOLYLINE
  5
B2B
330
21D
100
AcDbEntity
  8
0
  6
Continuous
 62
     7
100
AcDbPolyline
 90
        3
 70
     0
 43
0.0
 10
0.3015846198243164
 20
1.788563854199999
 10
0.3037479280243165
 20
1.788678827299998
 10
0.3080815461243165
 20
1.7889096027
  0
LINE
  5
B2C
330
21D
100
AcDbEntity
  8
0
  6
Continuous
 62
     7
100
AcDbLine
 10
0.2972649867243162
 20
1.788334733899997
 30
0.0
 11
0.3015846198243164
 21
1.788563854199999
 31
0.0
  0
LWPOLYLINE
  5
B2D
330
21D
100
AcDbEntity
  8
0
  6
Continuous
 62
     7
100
AcDbPolyline
 90
        3
 70
     0
 43
0.0
 10
0.2908028865243164
 20
1.787993104799999
 10
0.2929546103243163
 20
1.788106708499999
 10
0.2972649867243162
 20
1.788334733899997
  0
LINE
  5
B2E
330
21D
100
AcDbEntity
  8
0
  6
Continuous
 62
     7
100
AcDbLine
 10
0.2865063131243168
 20
1.78776671
 30
0.0
 11
0.2908028865243164
 21
1.787993104799999
 31
0.0
  0
LWPOLYLINE
  5
B2F
330
21D
100
AcDbEntity
  8
0
  6
Continuous
 62
     7
100
AcDbPolyline
 90
        3
 70
     0
 43
0.0
 10
0.2800785836243165
 20
1.7874291396
 10
0.282218886924317
 20
1.7875413947
 10
0.2865063131243168
 20
1.78776671
  0
LINE
  5
B30
330
21D
100
AcDbEntity
  8
0
  6
Continuous
 62
     7
100
AcDbLine
 10
0.2758047783243165
 20
1.7872054309
 30
0.0
 11
0.2800785836243165
 21
1.7874291396
 31
0.0
  0
LWPOLYLINE
  5
B31
330
21D
100
AcDbEntity
  8
0
  6
Continuous
 62
     7
100
AcDbPolyline
 90
        3
 70
     0
 43
0.0
 10
0.2694109640243165
 20
1.786871859199998
 10
0.2715399926243167
 20
1.7869827854
 10
0.2758047783243165
 20
1.7872054309
  0
LINE
  5
B32
330
21D
100
AcDbEntity
  8
0
  6
Continuous
 62
     7
100
AcDbLine
 10
0.2651596168243167
 20
1.7866507966
 30
0.0
 11
0.2694109640243165
 21
1.786871859199998
 31
0.0
  0
LWPOLYLINE
  5
B33
330
21D
100
AcDbEntity
  8
0
  6
Continuous
 62
     7
100
AcDbPolyline
 90
        3
 70
     0
 43
0.0
 10
0.2587992619243167
 20
1.786321164499999
 10
0.2609171617243162
 20
1.7864307811
 10
0.2651596168243167
 20
1.7866507966
  0
LINE
  5
B34
330
21D
100
AcDbEntity
  8
0
  6
Continuous
 62
     7
100
AcDbLine
 10
0.2545700627243166
 20
1.7861027086
 30
0.0
 11
0.2587992619243167
 21
1.786321164499999
 31
0.0
  0
LWPOLYLINE
  5
B35
330
21D
100
AcDbEntity
  8
0
  6
Continuous
 62
     7
100
AcDbPolyline
 90
        3
 70
     0
 43
0.0
 10
0.2482427108243166
 20
1.7857769579
 10
0.2503496461243162
 20
1.7858852849
 10
0.2545700627243166
 20
1.7861027086
  0
LWPOLYLINE
  5
B36
330
21D
100
AcDbEntity
  8
0
  6
Continuous
 62
     7
100
AcDbPolyline
 90
        3
 70
     0
 43
0.0
 10
0.2419349415243164
 20
1.785453508499998
 10
0.2440353676243165
 20
1.7855610706
 10
0.2482427108243166
 20
1.7857769579
  0
LINE
  5
B37
330
21D
100
AcDbEntity
  8
0
  6
Continuous
 62
     7
100
AcDbLine
 10
0.237740562124316
 20
1.785239143899999
 30
0.0
 11
0.2419349415243164
 21
1.785453508499998
 31
0.0
  0
LWPOLYLINE
  5
B38
330
21D
100
AcDbEntity
  8
0
  6
Continuous
 62
     7
100
AcDbPolyline
 90
        3
 70
     0
 43
0.0
 10
0.2314650652243166
 20
1.784919484199997
 10
0.233554764324317
 20
1.785025786899999
 10
0.237740562124316
 20
1.785239143899999
  0
LINE
  5
B39
330
21D
100
AcDbEntity
  8
0
  6
Continuous
 62
     7
100
AcDbLine
 10
0.2272920483243168
 20
1.784707627299999
 30
0.0
 11
0.2314650652243166
 21
1.784919484199997
 31
0.0
  0
LWPOLYLINE
  5
B3A
330
21D
100
AcDbEntity
  8
0
  6
Continuous
 62
     7
100
AcDbPolyline
 90
        3
 70
     0
 43
0.0
 10
0.2210483668243168
 20
1.7843917012
 10
0.2231274851243166
 20
1.784496762799999
 10
0.2272920483243168
 20
1.784707627299999
  0
LWPOLYLINE
  5
B3B
330
21D
100
AcDbEntity
  8
0
  6
Continuous
 62
     7
100
AcDbPolyline
 90
        3
 70
     0
 43
0.0
 10
0.2148235549243163
 20
1.784077988399999
 10
0.2168964016243162
 20
1.784182314399999
 10
0.2210483668243168
 20
1.7843917012
  0
LINE
  5
B3C
330
21D
100
AcDbEntity
  8
0
  6
Continuous
 62
     7
100
AcDbLine
 10
0.2106840780243164
 20
1.7838700663
 30
0.0
 11
0.2148235549243163
 21
1.784077988399999
 31
0.0
  0
LWPOLYLINE
  5
B3D
330
21D
100
AcDbEntity
  8
0
  6
Continuous
 62
     7
100
AcDbPolyline
 90
        3
 70
     0
 43
0.0
 10
0.2044903495243164
 20
1.7835599987
 10
0.206552871824317
 20
1.7836631136
 10
0.2106840780243164
 20
1.7838700663
  0
LINE
  5
B3E
330
21D
100
AcDbEntity
  8
0
  6
Continuous
 62
     7
100
AcDbLine
 10
0.2003714485243164
 20
1.783354488799998
 30
0.0
 11
0.2044903495243164
 21
1.7835599987
 31
0.0
  0
LWPOLYLINE
  5
B3F
330
21D
100
AcDbEntity
  8
0
  6
Continuous
 62
     7
100
AcDbPolyline
 90
        3
 70
     0
 43
0.0
 10
0.1942083456243169
 20
1.7830480121
 10
0.1962606898243164
 20
1.7831499337
 10
0.2003714485243164
 20
1.783354488799998
  0
LWPOLYLINE
  5
B40
330
21D
100
AcDbEntity
  8
0
  6
Continuous
 62
     7
100
AcDbPolyline
 90
        3
 70
     0
 43
0.0
 10
0.1880633982243167
 20
1.782743664199998
 10
0.1901097089243167
 20
1.7828448783
 10
0.1942083456243169
 20
1.7830480121
  0
LINE
  5
B41
330
21D
100
AcDbEntity
  8
0
  6
Continuous
 62
     7
100
AcDbLine
 10
0.1839767735243165
 20
1.782541938899998
 30
0.0
 11
0.1880633982243167
 21
1.782743664199998
 31
0.0
  0
LWPOLYLINE
  5
B42
330
21D
100
AcDbEntity
  8
0
  6
Continuous
 62
     7
100
AcDbPolyline
 90
        3
 70
     0
 43
0.0
 10
0.1778617186243161
 20
1.782241096599999
 10
0.1798980897243165
 20
1.7823411453
 10
0.1839767735243165
 20
1.782541938899998
  0
LWPOLYLINE
  5
B43
330
21D
100
AcDbEntity
  8
0
  6
Continuous
 62
     7
100
AcDbPolyline
 90
        3
 70
     0
 43
0.0
 10
0.1717643792243164
 20
1.781942332499999
 10
0.1737948634243165
 20
1.7820416906
 10
0.1778617186243161
 20
1.782241096599999
  0
LINE
  5
B44
330
21D
100
AcDbEntity
  8
0
  6
Continuous
 62
     7
100
AcDbLine
 10
0.1677092424243161
 20
1.7817443015
 30
0.0
 11
0.1717643792243164
 21
1.781942332499999
 31
0.0
  0
LWPOLYLINE
  5
B45
330
21D
100
AcDbEntity
  8
0
  6
Continuous
 62
     7
100
AcDbPolyline
 90
        3
 70
     0
 43
0.0
 10
0.1616410616243162
 20
1.7814489597
 10
0.1636618630243163
 20
1.7815471808
 10
0.1677092424243161
 20
1.7817443015
  0
LWPOLYLINE
  5
B46
330
21D
100
AcDbEntity
  8
0
  6
Continuous
 62
     7
100
AcDbPolyline
 90
        3
 70
     0
 43
0.0
 10
0.1555901557243167
 20
1.7811556466
 10
0.1576052172243165
 20
1.781253193399999
 10
0.1616410616243162
 20
1.7814489597
  0
LINE
  5
B47
330
21D
100
AcDbEntity
  8
0
  6
Continuous
 62
     7
100
AcDbLine
 10
0.1515657360243163
 20
1.7809612227
 30
0.0
 11
0.1555901557243167
 21
1.7811556466
 31
0.0
  0
LWPOLYLINE
  5
B48
330
21D
100
AcDbEntity
  8
0
  6
Continuous
 62
     7
100
AcDbPolyline
 90
        3
 70
     0
 43
0.0
 10
0.1455432543243167
 20
1.7806712504
 10
0.1475488716243163
 20
1.780767686999998
 10
0.1515657360243163
 20
1.7809612227
  0
LWPOLYLINE
  5
B49
330
21D
100
AcDbEntity
  8
0
  6
Continuous
 62
     7
100
AcDbPolyline
 90
        3
 70
     0
 43
0.0
 10
0.1395376066243164
 20
1.7803832584
 10
0.1415376309243164
 20
1.780479036899999
 10
0.1455432543243167
 20
1.7806712504
  0
LINE
  5
B4A
330
21D
100
AcDbEntity
  8
0
  6
Continuous
 62
     7
100
AcDbLine
 10
0.1355431139243168
 20
1.7801923553
 30
0.0
 11
0.1395376066243164
 21
1.7803832584
 31
0.0
  0
LWPOLYLINE
  5
B4B
330
21D
100
AcDbEntity
  8
0
  6
Continuous
 62
     7
100
AcDbPolyline
 90
        3
 70
     0
 43
0.0
 10
0.1295651552243164
 20
1.779907624499998
 10
0.1315559744243169
 20
1.780002318899998
 10
0.1355431139243168
 20
1.7801923553
  0
LWPOLYLINE
  5
B4C
330
21D
100
AcDbEntity
  8
0
  6
Continuous
 62
     7
100
AcDbPolyline
 90
        3
 70
     0
 43
0.0
 10
0.1236035891243166
 20
1.7796248268
 10
0.1255889625243167
 20
1.779718878799999
 10
0.1295651552243164
 20
1.779907624499998
  0
LWPOLYLINE
  5
B4D
330
21D
100
AcDbEntity
  8
0
  6
Continuous
 62
     7
100
AcDbPolyline
 90
        3
 70
     0
 43
0.0
 10
0.1176582500243168
 20
1.7793439449
 10
0.1196382329243164
 20
1.7794373602
 10
0.1236035891243166
 20
1.7796248268
  0
LINE
  5
B4E
330
21D
100
AcDbEntity
  8
0
  6
Continuous
 62
     7
100
AcDbLine
 10
0.1137036198243164
 20
1.7791577458
 30
0.0
 11
0.1176582500243168
 21
1.7793439449
 31
0.0
  0
LWPOLYLINE
  5
B4F
330
21D
100
AcDbEntity
  8
0
  6
Continuous
 62
     7
100
AcDbPolyline
 90
        3
 70
     0
 43
0.0
 10
0.1077849578243164
 20
1.778880018399999
 10
0.1097560851243169
 20
1.778972385699999
 10
0.1137036198243164
 20
1.7791577458
  0
LWPOLYLINE
  5
B50
330
21D
100
AcDbEntity
  8
0
  6
Continuous
 62
     7
100
AcDbPolyline
 90
        3
 70
     0
 43
0.0
 10
0.1018820810243164
 20
1.7786041609
 10
0.1038479649243165
 20
1.7786959068
 10
0.1077849578243164
 20
1.778880018399999
  0
LWPOLYLINE
  5
B51
330
21D
100
AcDbEntity
  8
0
  6
Continuous
 62
     7
100
AcDbPolyline
 90
        3
 70
     0
 43
0.0
 10
0.0959948236243165
 20
1.7783301565
 10
0.0979555195243167
 20
1.778421286499999
 10
0.1018820810243164
 20
1.7786041609
  0
LINE
  5
B52
330
21D
100
AcDbEntity
  8
0
  6
Continuous
 62
     7
100
AcDbLine
 10
0.0920785829243163
 20
1.778148508099999
 30
0.0
 11
0.0959948236243165
 21
1.7783301565
 31
0.0
  0
LWPOLYLINE
  5
B53
330
21D
100
AcDbEntity
  8
0
  6
Continuous
 62
     7
100
AcDbPolyline
 90
        3
 70
     0
 43
0.0
 10
0.0862169892243166
 20
1.777877555
 10
0.0881691613243168
 20
1.777967670999998
 10
0.0920785829243163
 20
1.778148508099999
  0
LWPOLYLINE
  5
B54
330
21D
100
AcDbEntity
  8
0
  6
Continuous
 62
     7
100
AcDbPolyline
 90
        3
 70
     0
 43
0.0
 10
0.0803705726243167
 20
1.7776084106
 10
0.0823177041243164
 20
1.7776979255
 10
0.0862169892243166
 20
1.777877555
  0
LWPOLYLINE
  5
B55
330
21D
100
AcDbEntity
  8
0
  6
Continuous
 62
     7
100
AcDbPolyline
 90
        3
 70
     0
 43
0.0
 10
0.0745391670243167
 20
1.7773410585
 10
0.0764813133243165
 20
1.777429977799999
 10
0.0803705726243167
 20
1.7776084106
  0
LINE
  5
B56
330
21D
100
AcDbEntity
  8
0
  6
Continuous
 62
     7
100
AcDbLine
 10
0.0706598228243167
 20
1.777163811599999
 30
0.0
 11
0.0745391670243167
 21
1.7773410585
 31
0.0
  0
LWPOLYLINE
  5
B57
330
21D
100
AcDbEntity
  8
0
  6
Continuous
 62
     7
100
AcDbPolyline
 90
        3
 70
     0
 43
0.0
 10
0.0648530666243166
 20
1.7768994109
 10
0.0667870210243162
 20
1.776987349099998
 10
0.0706598228243167
 20
1.777163811599999
  0
LWPOLYLINE
  5
B58
330
21D
100
AcDbEntity
  8
0
  6
Continuous
 62
     7
100
AcDbPolyline
 90
        3
 70
     0
 43
0.0
 10
0.0590608786243165
 20
1.776636759699997
 10
0.0609899954243165
 20
1.7767241165
 10
0.0648530666243166
 20
1.7768994109
  0
LWPOLYLINE
  5
B59
330
21D
100
AcDbEntity
  8
0
  6
Continuous
 62
     7
100
AcDbPolyline
 90
        3
 70
     0
 43
0.0
 10
0.0532830924243162
 20
1.776375842
 10
0.0552074271243166
 20
1.7764626227
 10
0.0590608786243165
 20
1.776636759699997
  0
LWPOLYLINE
  5
B5A
330
21D
100
AcDbEntity
  8
0
  6
Continuous
 62
     7
100
AcDbPolyline
 90
        3
 70
     0
 43
0.0
 10
0.0475195421243164
 20
1.776116642299998
 10
0.049439150024317
 20
1.7762028521
 10
0.0532830924243162
 20
1.776375842
  0
LINE
  5
B5B
330
21D
100
AcDbEntity
  8
0
  6
Continuous
 62
     7
100
AcDbLine
 10
0.0436849977243168
 20
1.775944789099999
 30
0.0
 11
0.0475195421243164
 21
1.776116642299998
 31
0.0
  0
LWPOLYLINE
  5
B5C
330
21D
100
AcDbEntity
  8
0
  6
Continuous
 62
     7
100
AcDbPolyline
 90
        3
 70
     0
 43
0.0
 10
0.0379448040243164
 20
1.775688418199998
 10
0.0398566633243167
 20
1.775773688199999
 10
0.0436849977243168
 20
1.775944789099999
  0
LWPOLYLINE
  5
B5D
330
21D
100
AcDbEntity
  8
0
  6
Continuous
 62
     7
100
AcDbPolyline
 90
        3
 70
     0
 43
0.0
 10
0.0322184025243169
 20
1.775433723999999
 10
0.0341256829243166
 20
1.7755184368
 10
0.0379448040243164
 20
1.775688418199998
  0
LWPOLYLINE
  5
B5E
330
21D
100
AcDbEntity
  8
0
  6
Continuous
 62
     7
100
AcDbPolyline
 90
        3
 70
     0
 43
0.0
 10
0.0265056268243167
 20
1.7751806915
 10
0.028408383724317
 20
1.7752648521
 10
0.0322184025243169
 20
1.775433723999999
  0
LWPOLYLINE
  5
B5F
330
21D
100
AcDbEntity
  8
0
  6
Continuous
 62
     7
100
AcDbPolyline
 90
        3
 70
     0
 43
0.0
 10
0.0208063105243164
 20
1.774929305599999
 10
0.0227045994243169
 20
1.775012918899999
 10
0.0265056268243167
 20
1.7751806915
  0
LWPOLYLINE
  5
B60
330
21D
100
AcDbEntity
  8
0
  6
Continuous
 62
     7
100
AcDbPolyline
 90
        3
 70
     0
 43
0.0
 10
0.0151202870243168
 20
1.7746795513
 10
0.0170141635243164
 20
1.7747626224
 10
0.0208063105243164
 20
1.774929305599999
  0
LINE
  5
B61
330
21D
100
AcDbEntity
  8
0
  6
Continuous
 62
     7
100
AcDbLine
 10
0.0113369094243168
 20
1.7745139478
 30
0.0
 11
0.0151202870243168
 21
1.7746795513
 31
0.0
  0
LINE
  5
B62
330
21D
100
AcDbEntity
  8
0
  6
Continuous
 62
     7
100
AcDbLine
 10
-0.1249985787756831
 20
1.768854289699999
 30
0.0
 11
0.0113369094243168
 21
1.7745139478
 31
0.0
  0
LINE
  5
B63
330
21D
100
AcDbEntity
  8
0
  6
Continuous
 62
     7
100
AcDbLine
 10
-0.2627003556756833
 20
1.7637436293
 30
0.0
 11
-0.1249985787756831
 21
1.768854289699999
 31
0.0
  0
LINE
  5
B64
330
21D
100
AcDbEntity
  8
0
  6
Continuous
 62
     7
100
AcDbLine
 10
-0.4022851635756838
 20
1.7591776836
 30
0.0
 11
-0.2627003556756833
 21
1.7637436293
 31
0.0
  0
LWPOLYLINE
  5
B65
330
21D
100
AcDbEntity
  8
0
  6
Continuous
 62
     7
100
AcDbPolyline
 90
        4
 70
     0
 43
0.0
 10
-0.5445773193756837
 20
1.755195564199999
 10
-0.5136266490756835
 20
1.7560663999
 10
-0.4822461227756838
 20
1.756979705399998
 10
-0.4309450883756833
 20
1.7585390409
  0
LINE
  5
B66
330
21D
100
AcDbEntity
  8
0
  6
Continuous
 62
     7
100
AcDbLine
 10
-0.5479206551756839
 20
1.755055431899999
 30
0.0
 11
-0.4022851635756838
 21
1.7591776836
 31
0.0
  0
LINE
  5
B67
330
21D
100
AcDbEntity
  8
0
  6
Continuous
 62
     7
100
AcDbLine
 10
-0.5670211097756832
 20
1.7545610367
 30
0.0
 11
-0.5479206551756839
 21
1.755055431899999
 31
0.0
  0
LINE
  5
B68
330
21D
100
AcDbEntity
  8
0
  6
Continuous
 62
     7
100
AcDbLine
 10
-0.5753959642756838
 20
1.754347424199998
 30
0.0
 11
-0.5445773193756837
 21
1.755195564199999
 31
0.0
  0
LWPOLYLINE
  5
B69
330
21D
100
AcDbEntity
  8
0
  6
Continuous
 62
     7
100
AcDbPolyline
 90
        4
 70
     0
 43
0.0
 10
-0.6640505166756832
 20
1.752109803899998
 10
-0.6348343485756836
 20
1.7528243106
 10
-0.6051828205756831
 20
1.7535758683
 10
-0.5750972992756829
 20
1.754365818899997
  0
LINE
  5
B6A
330
21D
100
AcDbEntity
  8
0
  6
Continuous
 62
     7
100
AcDbLine
 10
-0.7211418235756835
 20
1.750787296599999
 30
0.0
 11
-0.6640505166756832
 21
1.752109803899998
 31
0.0
  0
LINE
  5
B6B
330
21D
100
AcDbEntity
  8
0
  6
Continuous
 62
     7
100
AcDbLine
 10
-0.7764517815756831
 20
1.749597636999999
 30
0.0
 11
-0.7211418235756835
 21
1.750787296599999
 31
0.0
  0
LINE
  5
B6C
330
21D
100
AcDbEntity
  8
0
  6
Continuous
 62
     7
100
AcDbLine
 10
-0.8300293512756827
 20
1.7485294866
 30
0.0
 11
-0.7764517815756831
 21
1.749597636999999
 31
0.0
  0
LINE
  5
B6D
330
21D
100
AcDbEntity
  8
0
  6
Continuous
 62
     7
100
AcDbLine
 10
-0.8818823722756832
 20
1.747573086399999
 30
0.0
 11
-0.8300293512756827
 21
1.7485294866
 31
0.0
  0
LINE
  5
B6E
330
21D
100
AcDbEntity
  8
0
  6
Continuous
 62
     7
100
AcDbLine
 10
-0.9297000429756828
 20
1.7467573562
 30
0.0
 11
-0.8818823722756832
 21
1.747573086399999
 31
0.0
  0
LINE
  5
B6F
330
21D
100
AcDbEntity
  8
0
  6
Continuous
 62
     7
100
AcDbLine
 10
-1.630494839875684
 20
1.654739763799998
 30
0.0
 11
-1.075377687475681
 21
1.654739763799998
 31
0.0
  0
LINE
  5
B70
330
21D
100
AcDbEntity
  8
0
  6
Continuous
 62
     7
100
AcDbLine
 10
-1.824109606275681
 20
1.747575070399999
 30
0.0
 11
-1.776173084675683
 21
1.7467572513
 31
0.0
  0
LINE
  5
B71
330
21D
100
AcDbEntity
  8
0
  6
Continuous
 62
     7
100
AcDbLine
 10
-1.876086724775681
 20
1.748534002899998
 30
0.0
 11
-1.824109606275681
 21
1.747575070399999
 31
0.0
  0
LINE
  5
B72
330
21D
100
AcDbEntity
  8
0
  6
Continuous
 62
     7
100
AcDbLine
 10
-1.929791230475683
 20
1.7496051371
 30
0.0
 11
-1.876086724775681
 21
1.748534002899998
 31
0.0
  0
LINE
  5
B73
330
21D
100
AcDbEntity
  8
0
  6
Continuous
 62
     7
100
AcDbLine
 10
-1.985231821375683
 20
1.750798296999998
 30
0.0
 11
-1.929791230475683
 21
1.7496051371
 31
0.0
  0
LWPOLYLINE
  5
B74
330
21D
100
AcDbEntity
  8
0
  6
Continuous
 62
     7
100
AcDbPolyline
 90
        4
 70
     0
 43
0.0
 10
-2.101466069675683
 20
1.753595694499999
 10
-2.071744015575683
 20
1.752841686
 10
-2.04245835927568
 20
1.752124893399999
 10
-1.985231821375683
 20
1.750798296999998
  0
LWPOLYLINE
  5
B75
330
21D
100
AcDbEntity
  8
0
  6
Continuous
 62
     7
100
AcDbPolyline
 90
        4
 70
     0
 43
0.0
 10
-2.224695228675684
 20
1.757011111499999
 10
-2.193240026575681
 20
1.7560946312
 10
-2.162215712575683
 20
1.755220811399999
 10
-2.131623125775683
 20
1.7543882662
  0
LINE
  5
B76
330
21D
100
AcDbEntity
  8
0
  6
Continuous
 62
     7
100
AcDbLine
 10
-2.274975522675683
 20
1.7585402827
 30
0.0
 11
-2.224695228675684
 21
1.757011111499999
 31
0.0
  0
LINE
  5
B77
330
21D
100
AcDbEntity
  8
0
  6
Continuous
 62
     7
100
AcDbLine
 10
-2.707510319275683
 20
1.774091111899999
 30
0.0
 11
-2.101466069675683
 21
1.753595694499999
 31
0.0
  0
LINE
  5
B78
330
21D
100
AcDbEntity
  8
0
  6
Continuous
 62
     7
100
AcDbLine
 10
-2.816352849475681
 20
1.779005912299999
 30
0.0
 11
-2.707510319275683
 21
1.774091111899999
 31
0.0
  0
LINE
  5
B79
330
21D
100
AcDbEntity
  8
0
  6
Continuous
 62
     7
100
AcDbLine
 10
-2.923972447275684
 20
1.7842424696
 30
0.0
 11
-2.816352849475681
 21
1.779005912299999
 31
0.0
  0
LINE
  5
B7A
330
21D
100
AcDbEntity
  8
0
  6
Continuous
 62
     7
100
AcDbLine
 10
-3.059025290275683
 20
1.7913453849
 30
0.0
 11
-2.923972447275684
 21
1.7842424696
 31
0.0
  0
LWPOLYLINE
  5
B7B
330
21D
100
AcDbEntity
  8
0
  6
Continuous
 62
     7
100
AcDbPolyline
 90
        4
 70
     0
 43
0.0
 10
-3.100252828675681
 20
1.7936317172
 10
-3.099086977375683
 20
1.793566304199998
 10
-3.096389249675683
 20
1.793415110699998
 10
-3.059025290275683
 20
1.7913453849
  0
LINE
  5
B7C
330
21D
100
AcDbEntity
  8
0
  6
Continuous
 62
     7
100
AcDbLine
 10
-1.788312814875683
 20
1.7469601254
 30
0.0
 11
-1.787097226375683
 21
1.7467899543
 31
0.0
  0
LINE
  5
B7D
330
21D
100
AcDbEntity
  8
0
  6
Continuous
 62
     7
100
AcDbLine
 10
-1.787097226375683
 20
1.7467899543
 30
0.0
 11
-1.78655722467568
 21
1.7467098083
 31
0.0
  0
LWPOLYLINE
  5
B7E
330
21D
100
AcDbEntity
  8
0
  6
Continuous
 62
     7
100
AcDbPolyline
 90
       35
 70
     0
 43
0.0
 10
-1.78655722467568
 20
1.7467098083
 10
-1.785957651575681
 20
1.746617768199999
 10
-1.785292101375683
 20
1.746511968199999
 10
-1.784567009875684
 20
1.746392492899999
 10
-1.783797805175683
 20
1.7462610918
 10
-1.782980137875683
 20
1.746116300299999
 10
-1.782118668675684
 20
1.745958202199999
 10
-1.781242556975681
 20
1.745791719099998
 10
-1.780362222375684
 20
1.745618781699999
 10
-1.779467791375683
 20
1.7454374106
 10
-1.778558056375683
 20
1.7452472455
 10
-1.777633474775684
 20
1.745048265099998
 10
-1.776694062775683
 20
1.7448403461
 10
-1.775737912975682
 20
1.744622913499999
 10
-1.774768364975684
 20
1.744396580999999
 10
-1.773782505575683
 20
1.7441605227
 10
-1.772769000575681
 20
1.743911748199999
 10
-1.771729882775683
 20
1.743650393799998
 10
-1.770663642975683
 20
1.7433757205
 10
-1.76955372077568
 20
1.7430829346
 10
-1.768396523675684
 20
1.742770368099999
 10
-1.767196499275683
 20
1.742438507299999
 10
-1.765949323075683
 20
1.7420854366
 10
-1.764652589875684
 20
1.7417096815
 10
-1.76330999447568
 20
1.741311524999999
 10
-1.761926473275683
 20
1.740891726699999
 10
-1.760502303975683
 20
1.740449718899998
 10
-1.75903887817568
 20
1.739985298799999
 10
-1.757542778575683
 20
1.739499995999999
 10
-1.75601544347568
 20
1.7389937315
 10
-1.754456926075683
 20
1.738465960699999
 10
-1.75287155207568
 20
1.737917628899998
 10
-1.751260301675681
 20
1.737348610799998
 10
-1.749623753375683
 20
1.736758661699998
 10
-1.747965579675683
 20
1.7361487015
  0
LINE
  5
B7F
330
21D
100
AcDbEntity
  8
0
  6
Continuous
 62
     7
100
AcDbLine
 10
-1.747965579675683
 20
1.7361487015
 30
0.0
 11
-1.745588470475682
 21
1.7352528583
 31
0.0
  0
LWPOLYLINE
  5
B80
330
21D
100
AcDbEntity
  8
0
  6
Continuous
 62
     7
100
AcDbPolyline
 90
       29
 70
     0
 43
0.0
 10
-1.745588470475682
 20
1.7352528583
 10
-1.743725613975683
 20
1.7345330573
 10
-1.741794260175683
 20
1.733770673899998
 10
-1.73979747427568
 20
1.7329654371
 10
-1.737739456675681
 20
1.7321176308
 10
-1.735621872575681
 20
1.7312265783
 10
-1.733447710575683
 20
1.730291811699999
 10
-1.731222138175681
 20
1.729313408699999
 10
-1.728945811975681
 20
1.7282895083
 10
-1.726617246975683
 20
1.727217240399999
 10
-1.724237936375684
 20
1.7260951077
 10
-1.721806092575683
 20
1.7249203561
 10
-1.719323393375683
 20
1.723692041699998
 10
-1.716796841675681
 20
1.7224120699
 10
-1.714224760075683
 20
1.721078188399999
 10
-1.711607105775683
 20
1.719689023
 10
-1.708952584475681
 20
1.7182481188
 10
-1.706257799075683
 20
1.7167528081
 10
-1.703521353975683
 20
1.7152015824
 10
-1.700754269275683
 20
1.7136003206
 10
-1.697954519075683
 20
1.711947845699999
 10
-1.695117529075683
 20
1.710241549799999
 10
-1.692250360575683
 20
1.70848594
 10
-1.689350995275683
 20
1.7066800759
 10
-1.686415932875681
 20
1.7048220981
 10
-1.683450572575681
 20
1.702915919
 10
-1.680454812875683
 20
1.700962182899998
 10
-1.677422975875683
 20
1.6989579444
 10
-1.675376217875681
 20
1.697590439
  0
LWPOLYLINE
  5
B81
330
21D
100
AcDbEntity
  8
0
  6
Continuous
 62
     7
100
AcDbPolyline
 90
       16
 70
     0
 43
0.0
 10
-4.023770760375683
 20
4.239646615899998
 10
-4.023397865275683
 20
4.2340008666
 10
-4.022753448475683
 20
4.2264746517
 10
-4.021944659275683
 20
4.218988091599998
 10
-4.020972821175683
 20
4.2115402392
 10
-4.019840235075681
 20
4.204138929299998
 10
-4.018551109775684
 20
4.196800685699997
 10
-4.017107971675683
 20
4.189528539499997
 10
-4.015513321075681
 20
4.182325815099997
 10
-4.013772993775683
 20
4.175209137799997
 10
-4.011890047275683
 20
4.168180885399998
 10
-4.009867670275683
 20
4.1612441873
 10
-4.00771375447568
 20
4.154416366299997
 10
-4.00543397597568
 20
4.1477046023
 10
-4.003030692775683
 20
4.141106164099998
 10
-4.000926536475683
 20
4.1356708966
  0
LWPOLYLINE
  5
B82
330
21D
100
AcDbEntity
  8
0
  6
Continuous
 62
     7
100
AcDbPolyline
 90
       12
 70
     0
 43
0.0
 10
-4.069409517175681
 20
5.076519822799999
 10
-4.065634857775683
 20
5.004060973299999
 10
-4.061837476175683
 20
4.9316970623
 10
-4.058015826275681
 20
4.8594311214
 10
-4.054168388575683
 20
4.7872665662
 10
-4.050293657675681
 20
4.715206960899998
 10
-4.046390116575683
 20
4.643255533699997
 10
-4.042456265875681
 20
4.5714157302
 10
-4.038490612975683
 20
4.4996909998
 10
-4.034491658075681
 20
4.428084553599997
 10
-4.030457914475682
 20
4.356599733399997
 10
-4.023763964375683
 20
4.2396477157
  0
LINE
  5
B83
330
21D
100
AcDbEntity
  8
0
  6
Continuous
 62
     7
100
AcDbLine
 10
-4.076896772075683
 20
5.2217080626
 30
0.0
 11
-4.069409517175681
 21
5.076519822799999
 31
0.0
  0
LINE
  5
B84
330
21D
100
AcDbEntity
  8
0
  6
Continuous
 62
     7
100
AcDbLine
 10
-4.084311634575683
 20
5.367235632799999
 30
0.0
 11
-4.076896772075683
 21
5.2217080626
 31
0.0
  0
LINE
  5
B85
330
21D
100
AcDbEntity
  8
0
  6
Continuous
 62
     7
100
AcDbLine
 10
-4.091666546175683
 20
5.5130752952
 30
0.0
 11
-4.084311634575683
 21
5.367235632799999
 31
0.0
  0
LINE
  5
B86
330
21D
100
AcDbEntity
  8
0
  6
Continuous
 62
     7
100
AcDbLine
 10
-4.098974101475683
 20
5.659200746699999
 30
0.0
 11
-4.091666546175683
 21
5.5130752952
 31
0.0
  0
LINE
  5
B87
330
21D
100
AcDbEntity
  8
0
  6
Continuous
 62
     7
100
AcDbLine
 10
-4.116949449975683
 20
6.0213796063
 30
0.0
 11
-4.098974101475683
 21
5.659200746699999
 31
0.0
  0
LINE
  5
B88
330
21D
100
AcDbEntity
  8
0
  6
Continuous
 62
     7
100
AcDbLine
 10
-4.132827571575683
 20
6.3426581213
 30
0.0
 11
-4.116949449975683
 21
6.0213796063
 31
0.0
  0
LWPOLYLINE
  5
B89
330
21D
100
AcDbEntity
  8
0
  6
Continuous
 62
     7
100
AcDbPolyline
 90
        3
 70
     0
 43
0.0
 10
-4.145307586675681
 20
6.5961345311
 10
-4.144196079575682
 20
6.5735226896
 10
-4.132827571575683
 20
6.3426581213
  0
LINE
  5
B8A
330
21D
100
AcDbEntity
  8
0
  6
Continuous
 62
     7
100
AcDbLine
 10
-4.102503609475681
 20
5.7320575746
 30
0.0
 11
-4.102557451875681
 21
5.731222462499999
 31
0.0
  0
LWPOLYLINE
  5
B8B
330
21D
100
AcDbEntity
  8
0
  6
Continuous
 62
     7
100
AcDbPolyline
 90
       16
 70
     0
 43
0.0
 10
-1.675376123275682
 20
1.697590380399998
 10
-1.672775998275683
 20
1.695813195299999
 10
-1.669286171275683
 20
1.6933217316
 10
-1.665852436675683
 20
1.690745949499999
 10
-1.662476834175683
 20
1.6880869852
 10
-1.659161542675684
 20
1.685346154099998
 10
-1.655908858675683
 20
1.6825249661
 10
-1.652720840475683
 20
1.679624826299999
 10
-1.649599443475683
 20
1.676647125999999
 10
-1.646546738975683
 20
1.6735934503
 10
-1.643564665775683
 20
1.670465347799999
 10
-1.640655094075681
 20
1.6672643799
 10
-1.637819927875683
 20
1.6639922334
 10
-1.63506099707568
 20
1.660650606699998
 10
-1.632380061575683
 20
1.6572412062
 10
-1.630494840075681
 20
1.654739763799998
  0
LWPOLYLINE
  5
B8C
330
21D
100
AcDbEntity
  8
0
  6
Continuous
 62
     7
100
AcDbPolyline
 90
       22
 70
     0
 43
0.0
 10
-4.000930110175683
 20
4.1357045443
 10
-3.999574186975681
 20
4.132385918599998
 10
-3.997794614475683
 20
4.128275262699999
 10
-3.995919508175683
 20
4.124203755199999
 10
-3.993949616275683
 20
4.1201738229
 10
-3.991885281475681
 20
4.116186047
 10
-3.989727374875683
 20
4.1122420542
 10
-3.987477444775683
 20
4.108344672099997
 10
-3.985136879075683
 20
4.1044962923
 10
-3.982706256675683
 20
4.1006979785
 10
-3.980187615875681
 20
4.096953073099999
 10
-3.977584835475683
 20
4.093267199499997
 10
-3.974900759675683
 20
4.0896439241
 10
-3.972135922375683
 20
4.0860835685
 10
-3.969290916675683
 20
4.082586758599997
 10
-3.96636745337568
 20
4.0791555915
 10
-3.963367063075683
 20
4.075791901499997
 10
-3.960289895175681
 20
4.0724960543
 10
-3.957137471875681
 20
4.069270026899999
 10
-3.953911410275683
 20
4.0661158541
 10
-3.950611808575683
 20
4.063034138999998
 10
-3.947240166175683
 20
4.060026856899997
  0
LINE
  5
B8D
330
21D
100
AcDbEntity
  8
0
  6
Continuous
 62
     7
100
AcDbLine
 10
-4.000914718875683
 20
4.135641190299997
 30
0.0
 11
-4.000938550075683
 21
4.135701148599998
 31
0.0
  0
LINE
  5
B8E
330
21D
100
AcDbEntity
  8
0
  6
Continuous
 62
     7
100
AcDbLine
 10
-3.656891225775681
 20
3.9082542498
 30
0.0
 11
-3.656865854075683
 21
3.908019080599999
 31
0.0
  0
LINE
  5
B8F
330
21D
100
AcDbEntity
  8
0
  6
Continuous
 62
     7
100
AcDbLine
 10
-3.656865854075683
 20
3.908019080599999
 30
0.0
 11
-3.656842042475683
 21
3.907787886199998
 31
0.0
  0
LINE
  5
B90
330
21D
100
AcDbEntity
  8
0
  6
Continuous
 62
     7
100
AcDbLine
 10
-3.656842042475683
 20
3.907787886199998
 30
0.0
 11
-3.656817506775681
 21
3.907537226499997
 31
0.0
  0
LINE
  5
B91
330
21D
100
AcDbEntity
  8
0
  6
Continuous
 62
     7
100
AcDbLine
 10
-3.656817506775681
 20
3.907537226499997
 30
0.0
 11
-3.656790970175681
 21
3.907251283899998
 31
0.0
  0
LINE
  5
B92
330
21D
100
AcDbEntity
  8
0
  6
Continuous
 62
     7
100
AcDbLine
 10
-3.656790970175681
 20
3.907251283899998
 30
0.0
 11
-3.656779990775683
 21
3.9071279988
 31
0.0
  0
LWPOLYLINE
  5
B93
330
21D
100
AcDbEntity
  8
0
  6
Continuous
 62
     7
100
AcDbPolyline
 90
       82
 70
     0
 43
0.0
 10
-3.569499003375681
 20
2.259543795699999
 10
-3.569084801775683
 20
2.252728232399999
 10
-3.568555861175683
 20
2.245694450299998
 10
-3.567902684975682
 20
2.2384444965
 10
-3.567113631175683
 20
2.2309639721
 10
-3.566180090575683
 20
2.223272486599999
 10
-3.565099153875681
 20
2.2154233299
 10
-3.563863371075683
 20
2.207422737599999
 10
-3.562464262575682
 20
2.199270998699998
 10
-3.560901646775683
 20
2.191012265799999
 10
-3.559169069575681
 20
2.1826489221
 10
-3.557260520875681
 20
2.174186104599999
 10
-3.555180794975683
 20
2.165671614699999
 10
-3.552925963275681
 20
2.157109374
 10
-3.550492029375682
 20
2.1485032383
 10
-3.547888355175683
 20
2.139900008799997
 10
-3.545113558775683
 20
2.131303971499999
 10
-3.542165832775683
 20
2.1227181091
 10
-3.539058501575683
 20
2.114185995
 10
-3.535795821575683
 20
2.105719763499998
 10
-3.532375169975682
 20
2.097313190099999
 10
-3.528802470275683
 20
2.088981289399999
 10
-3.525082211475683
 20
2.080733530099998
 10
-3.521213437275683
 20
2.0725654783
 10
-3.517194260475683
 20
2.0644711403
 10
-3.513026500475683
 20
2.056452934999998
 10
-3.508712014675681
 20
2.0485133582
 10
-3.504248065975683
 20
2.0406469733
 10
-3.499634600275683
 20
2.032854075799999
 10
-3.494874387675681
 20
2.0251398324
 10
-3.489968461975681
 20
2.017506385399999
 10
-3.484917193375681
 20
2.009954996399998
 10
-3.479722946675683
 20
2.002489967999999
 10
-3.47438994217568
 20
1.995117897199999
 10
-3.468919895575683
 20
1.9878415415
 10
-3.46331435347568
 20
1.9806634296
 10
-3.457577691875683
 20
1.9735895318
 10
-3.451712808875681
 20
1.966623609499998
 10
-3.445720492075681
 20
1.959766869
 10
-3.439602109875683
 20
1.953021324799999
 10
-3.433360081575683
 20
1.9463901565
 10
-3.426995586475681
 20
1.939875201699998
 10
-3.420508017275683
 20
1.933476564199999
 10
-3.413899460175682
 20
1.927196270199998
 10
-3.407172483875683
 20
1.921036275399998
 10
-3.400327314275683
 20
1.914996486399997
 10
-3.393365288875683
 20
1.909078021699999
 10
-3.386289793175683
 20
1.903283772099998
 10
-3.379104064275683
 20
1.8976163875
 10
-3.371809980075683
 20
1.8920774074
 10
-3.364410530675681
 20
1.8866692311
 10
-3.35691077467568
 20
1.881395622799999
 10
-3.349313419275683
 20
1.876258509799999
 10
-3.341620883075683
 20
1.8712596206
 10
-3.333837979775683
 20
1.8664021637
 10
-3.325968351975681
 20
1.861688436699999
 10
-3.318013660375683
 20
1.8571195255
 10
-3.30997579847568
 20
1.8526967371
 10
-3.301857783275683
 20
1.848422026499999
 10
-3.293661829475681
 20
1.844296916699999
 10
-3.285388547575683
 20
1.8403222149
 10
-3.277040323475683
 20
1.8364997002
 10
-3.268619942075681
 20
1.832831188699999
 10
-3.260128791975683
 20
1.8293171268
 10
-3.251568970175681
 20
1.8259580971
 10
-3.242944340775681
 20
1.822755393399999
 10
-3.234259038075681
 20
1.8197103271
 10
-3.225515799475681
 20
1.816823669899997
 10
-3.216717940275683
 20
1.814096389699999
 10
-3.207870526775683
 20
1.811529921999999
 10
-3.198976644975683
 20
1.809125026999998
 10
-3.190039349475681
 20
1.8068824561
 10
-3.181063722675681
 20
1.8048034121
 10
-3.172052844675683
 20
1.802888538099999
 10
-3.163009820475683
 20
1.8011384827
 10
-3.153939813675683
 20
1.799554233199998
 10
-3.144845894175683
 20
1.798136314499998
 10
-3.135731185475683
 20
1.796885259499997
 10
-3.126600959175683
 20
1.795801833
 10
-3.117459034375682
 20
1.794886504599998
 10
-3.108307759175683
 20
1.794139581299998
 10
-3.100265895375683
 20
1.793622838799999
  0
LINE
  5
B94
330
21D
100
AcDbEntity
  8
0
  6
Continuous
 62
     7
100
AcDbLine
 10
-3.569576146075683
 20
2.260979247199998
 30
0.0
 11
-3.56950359087568
 21
2.2596248155
 31
0.0
  0
LINE
  5
B95
330
21D
100
AcDbEntity
  8
0
  6
Continuous
 62
     7
100
AcDbLine
 10
-3.798949102375683
 20
6.590872215499999
 30
0.0
 11
-3.569659547275684
 21
2.2625447843
 31
0.0
  0
LINE
  5
B96
330
21D
100
AcDbEntity
  8
0
  6
Continuous
 62
     7
100
AcDbLine
 10
0.3407906884243164
 20
2.2977802228
 30
0.0
 11
0.8656544731243165
 21
2.2978195482
 31
0.0
  0
LINE
  5
B97
330
21D
100
AcDbEntity
  8
0
  6
Continuous
 62
     7
100
AcDbLine
 10
-3.046663857875683
 20
2.2977797146
 30
0.0
 11
0.3407906884243164
 21
2.2977802228
 31
0.0
  0
LINE
  5
B98
330
21D
100
AcDbEntity
  8
___COSMETIC_SKETCH
  6
Continuous
 62
     7
100
AcDbLine
 10
-1.845061643775683
 20
2.327380635899999
 30
0.0
 11
-0.8608096752756837
 21
2.3273806423
 31
0.0
  0
LINE
  5
B99
330
21D
100
AcDbEntity
  8
0
  6
Continuous
 62
     7
100
AcDbLine
 10
-3.571527532775683
 20
2.2978188825
 30
0.0
 11
-3.046663857875683
 21
2.2977797146
 31
0.0
  0
LINE
  5
B9A
330
21D
100
AcDbEntity
  8
0
  6
Continuous
 62
     7
100
AcDbLine
 10
-3.657284256875683
 20
3.9111287742
 30
0.0
 11
-3.657218116775683
 21
3.9107089761
 31
0.0
  0
LINE
  5
B9B
330
21D
100
AcDbEntity
  8
0
  6
Continuous
 62
     7
100
AcDbLine
 10
-3.657218116775683
 20
3.9107089761
 30
0.0
 11
-3.657173411175683
 21
3.9104153997
 31
0.0
  0
LINE
  5
B9C
330
21D
100
AcDbEntity
  8
0
  6
Continuous
 62
     7
100
AcDbLine
 10
-3.657173411175683
 20
3.9104153997
 30
0.0
 11
-3.657137101175683
 21
3.9101693257
 31
0.0
  0
LINE
  5
B9D
330
21D
100
AcDbEntity
  8
0
  6
Continuous
 62
     7
100
AcDbLine
 10
-3.657137101175683
 20
3.9101693257
 30
0.0
 11
-3.657097992575682
 21
3.9098957511
 31
0.0
  0
LINE
  5
B9E
330
21D
100
AcDbEntity
  8
0
  6
Continuous
 62
     7
100
AcDbLine
 10
-3.657097992575682
 20
3.9098957511
 30
0.0
 11
-3.657056514775683
 21
3.909595944999998
 31
0.0
  0
LINE
  5
B9F
330
21D
100
AcDbEntity
  8
0
  6
Continuous
 62
     7
100
AcDbLine
 10
-3.657056514775683
 20
3.909595944999998
 30
0.0
 11
-3.657017985575683
 21
3.9093075041
 31
0.0
  0
LINE
  5
BA0
330
21D
100
AcDbEntity
  8
0
  6
Continuous
 62
     7
100
AcDbLine
 10
-3.657017985575683
 20
3.9093075041
 30
0.0
 11
-3.656985896575683
 21
3.909057776499997
 31
0.0
  0
LINE
  5
BA1
330
21D
100
AcDbEntity
  8
0
  6
Continuous
 62
     7
100
AcDbLine
 10
-3.656985896575683
 20
3.909057776499997
 30
0.0
 11
-3.656953476475683
 21
3.908794209499998
 31
0.0
  0
LINE
  5
BA2
330
21D
100
AcDbEntity
  8
0
  6
Continuous
 62
     7
100
AcDbLine
 10
-3.656953476475683
 20
3.908794209499998
 30
0.0
 11
-3.656925707875683
 21
3.908559134399998
 31
0.0
  0
LWPOLYLINE
  5
BA3
330
21D
100
AcDbEntity
  8
0
  6
Continuous
 62
     7
100
AcDbPolyline
 90
        3
 70
     0
 43
0.0
 10
-3.656925707875683
 20
3.908559134399998
 10
-3.656897933175683
 20
3.908314780699998
 10
-3.656891225775681
 20
3.9082542498
  0
LWPOLYLINE
  5
BA4
330
21D
100
AcDbEntity
  8
0
  6
Continuous
 62
     7
100
AcDbPolyline
 90
       34
 70
     0
 43
0.0
 10
-3.945043228875681
 20
4.058140118299998
 10
-3.942987080075683
 20
4.056422230199999
 10
-3.939204657375683
 20
4.053372004199998
 10
-3.935345724775683
 20
4.0503998976
 10
-3.931410904575681
 20
4.047506993899999
 10
-3.927402680175681
 20
4.044695760199997
 10
-3.923325514375683
 20
4.0419698175
 10
-3.919181025875681
 20
4.039330646799998
 10
-3.914971067975683
 20
4.0367798687
 10
-3.910700677875683
 20
4.034320863699996
 10
-3.906371425675683
 20
4.031954773999998
 10
-3.901985441675683
 20
4.0296830448
 10
-3.897548789575681
 20
4.027508951699998
 10
-3.89306355207568
 20
4.0254335123
 10
-3.888531482975681
 20
4.0234575793
 10
-3.88395828347568
 20
4.021583576499997
 10
-3.879347635875681
 20
4.0198127757
 10
-3.874699703975681
 20
4.0181449737
 10
-3.870015056475681
 20
4.0165798052
 10
-3.865293528175683
 20
4.0151166416
 10
-3.860539358775683
 20
4.0137562747
 10
-3.855759734375681
 20
4.012500027399998
 10
-3.850955303775683
 20
4.0113472549
 10
-3.846129246475681
 20
4.010297958499998
 10
-3.841292494675681
 20
4.009353458099997
 10
-3.836446019775683
 20
4.008512668299998
 10
-3.831592286475681
 20
4.007774799199998
 10
-3.826744360275683
 20
4.0071402837
 10
-3.821903623675682
 20
4.006607450299997
 10
-3.817071497975683
 20
4.006174666199997
 10
-3.812260891375681
 20
4.0058409996
 10
-3.807472773775682
 20
4.0056041442
 10
-3.802708077875683
 20
4.005461841599998
 10
-3.799267317075681
 20
4.0054165252
  0
LINE
  5
BA5
330
21D
100
AcDbEntity
  8
0
  6
Continuous
 62
     7
100
AcDbLine
 10
-3.944827549275683
 20
4.057957931699998
 30
0.0
 11
-3.945046862875683
 21
4.0581431936
 31
0.0
  0
LINE
  5
BA6
330
21D
100
AcDbEntity
  8
0
  6
Continuous
 62
     7
100
AcDbLine
 10
-3.947240166175683
 20
4.060026856899997
 30
0.0
 11
-3.944816856375683
 21
4.057949009999997
 31
0.0
  0
LINE
  5
BA7
330
21D
100
AcDbEntity
  8
0
  6
Continuous
 62
     7
100
AcDbLine
 10
-3.046663225775681
 20
6.6609429524
 30
0.0
 11
-3.046663863275681
 21
2.260709089199997
 31
0.0
  0
LWPOLYLINE
  5
BA8
330
21D
100
AcDbEntity
  8
0
  6
Continuous
 62
     7
100
AcDbPolyline
 90
       26
 70
     0
 43
0.0
 10
-4.160340666475683
 20
6.643588004299999
 10
-4.159877561175683
 20
6.6428483388
 10
-4.158981346475681
 20
6.641374137699997
 10
-4.158095927275684
 20
6.6398580079
 10
-4.157222601675683
 20
6.6382987486
 10
-4.156363203075683
 20
6.636695947
 10
-4.155519694575683
 20
6.635049346599997
 10
-4.154693746975683
 20
6.6333579908
 10
-4.153887498975683
 20
6.631621710399999
 10
-4.15310298087568
 20
6.6298402638
 10
-4.152341793875683
 20
6.6280126587
 10
-4.151606036675683
 20
6.6261389373
 10
-4.150897827975683
 20
6.624219130599999
 10
-4.150218991175683
 20
6.622252286
 10
-4.149571839975681
 20
6.6202385994
 10
-4.148958743175683
 20
6.618178339299999
 10
-4.148381834275681
 20
6.6160707362
 10
-4.147843679875681
 20
6.6139162234
 10
-4.147346905475683
 20
6.6117153125
 10
-4.146893982875683
 20
6.609467454199999
 10
-4.146487750175682
 20
6.6071733325
 10
-4.146131125175681
 20
6.604833789299999
 10
-4.145826964475681
 20
6.6024486498
 10
-4.145578375975683
 20
6.600018590299997
 10
-4.145388630575681
 20
6.5975451571
 10
-4.145309074775683
 20
6.5961369536
  0
LINE
  5
BA9
330
21D
100
AcDbEntity
  8
0
  6
Continuous
 62
     7
100
AcDbLine
 10
-1.456926568575683
 20
1.690296379
 30
0.0
 11
-1.456957988275683
 21
1.6903666058
 31
0.0
  0
LINE
  5
BAA
330
21D
100
AcDbEntity
  8
0
  6
Continuous
 62
     7
100
AcDbLine
 10
-2.097551350675681
 20
2.2253922492
 30
0.0
 11
-2.104947105175683
 21
1.7593443656
 31
0.0
  0
LINE
  5
BAB
330
21D
100
AcDbEntity
  8
0
  6
Continuous
 62
     7
100
AcDbLine
 10
1.093363113824316
 20
4.0054316163
 30
0.0
 11
1.093374796924315
 21
4.0054318432
 31
0.0
  0
LWPOLYLINE
  5
BAC
330
21D
100
AcDbEntity
  8
0
  6
Continuous
 62
     7
100
AcDbPolyline
 90
       35
 70
     0
 43
0.0
 10
1.094830440724314
 20
4.0054546591
 10
1.096978228724314
 20
4.0054926231
 10
1.101963874524314
 20
4.005652988899997
 10
1.106967961924316
 20
4.0059163138
 10
1.111987458524315
 20
4.006284588299998
 10
1.117014521224314
 20
4.006759180899997
 10
1.122047250924316
 20
4.007341691399997
 10
1.127084854624314
 20
4.008033877999998
 10
1.132120650924314
 20
4.008836600099997
 10
1.137154461324314
 20
4.0097515664
 10
1.142182687924314
 20
4.0107799332
 10
1.147193220624314
 20
4.011920707399998
 10
1.152191252124316
 20
4.0131765361
 10
1.157167122824314
 20
4.0145465293
 10
1.162086938124315
 20
4.016021538299997
 10
1.166934207824315
 20
4.0175951324
 10
1.171722312524315
 20
4.0192702085
 10
1.176462495524315
 20
4.0210501905
 10
1.181153831824316
 20
4.022934272799997
 10
1.185793755224316
 20
4.024920901799998
 10
1.190390440624315
 20
4.027013469699998
 10
1.194945029024314
 20
4.029212982599998
 10
1.199451907824314
 20
4.0315172694
 10
1.203908611724314
 20
4.0339255156
 10
1.208313215424314
 20
4.0364371931
 10
1.212662915524316
 20
4.0390512742
 10
1.216953842424316
 20
4.041765976799998
 10
1.221184447524314
 20
4.044580898899997
 10
1.225351433124314
 20
4.047494488399998
 10
1.229448462824314
 20
4.050502774699998
 10
1.233472718224314
 20
4.0536039722
 10
1.237422515724314
 20
4.056797129399997
 10
1.241293505824314
 20
4.0600790473
 10
1.245082360824314
 20
4.063447083599998
 10
1.248788355924314
 20
4.0669005759
  0
LINE
  5
BAD
330
21D
100
AcDbEntity
  8
0
  6
Continuous
 62
     7
100
AcDbLine
 10
1.093363113824316
 20
4.0054316163
 30
0.0
 11
1.094817048824316
 21
4.005450324099998
 31
0.0
  0
LINE
  5
BAE
330
21D
100
AcDbEntity
  8
0
  6
Continuous
 62
     7
100
AcDbLine
 10
-3.799257188575683
 20
4.005414621299999
 30
0.0
 11
-3.793644756875683
 21
4.0053819222
 31
0.0
  0
LWPOLYLINE
  5
BAF
330
21D
100
AcDbEntity
  8
0
  6
Continuous
 62
     7
100
AcDbPolyline
 90
       76
 70
     0
 43
0.0
 10
-3.793648006775683
 20
4.0054064167
 10
-3.791661933075682
 20
4.0053833466
 10
-3.789160115875681
 20
4.0053197768
 10
-3.786654765275683
 20
4.005217502599998
 10
-3.784147626875681
 20
4.005076376899999
 10
-3.781639072275683
 20
4.004896216799997
 10
-3.779128102175683
 20
4.004676697099998
 10
-3.776615722375683
 20
4.0044176172
 10
-3.774103062875683
 20
4.0041188193
 10
-3.771589333475683
 20
4.0037799069
 10
-3.769075615175681
 20
4.0034006929
 10
-3.766563008375681
 20
4.002981025099997
 10
-3.764050798475683
 20
4.0025204364
 10
-3.761540073575683
 20
4.002018747799997
 10
-3.759031997975683
 20
4.0014758282
 10
-3.756526042075681
 20
4.0008911725
 10
-3.754023196475681
 20
4.0002645893
 10
-3.751524819775683
 20
3.999596010899998
 10
-3.749031019875683
 20
3.9988850493
 10
-3.746543141375683
 20
3.9981316607
 10
-3.744062290775683
 20
3.997335768
 10
-3.741588321975681
 20
3.996496885799997
 10
-3.739122989275683
 20
3.995615159999998
 10
-3.736667200875681
 20
3.9946904962
 10
-3.734219887775683
 20
3.9937220399
 10
-3.731782654375682
 20
3.9927099148
 10
-3.729357420475681
 20
3.991654423299998
 10
-3.726943808175683
 20
3.9905548624
 10
-3.724543311575683
 20
3.9894113143
 10
-3.722158163175683
 20
3.9882242622
 10
-3.719789247275683
 20
3.9869935648
 10
-3.717438115375683
 20
3.985719421899998
 10
-3.715107082375683
 20
3.9844025038
 10
-3.71279826597568
 20
3.983043465899998
 10
-3.710513578175683
 20
3.981642923899998
 10
-3.708254983175681
 20
3.9802016006
 10
-3.706024710175681
 20
3.9787204793
 10
-3.703825105575683
 20
3.977200741199998
 10
-3.701657638875681
 20
3.9756430597
 10
-3.699523309875683
 20
3.9740477922
 10
-3.697424259775683
 20
3.972416186299998
 10
-3.695362243075682
 20
3.970749295799997
 10
-3.693337814075683
 20
3.969047242799998
 10
-3.691351614475681
 20
3.967310324199997
 10
-3.689407322675681
 20
3.965541685299998
 10
-3.687509937075681
 20
3.9637460981
 10
-3.685660919975683
 20
3.9619253785
 10
-3.683862392275683
 20
3.960082118
 10
-3.682119692975683
 20
3.958222626
 10
-3.680434800075683
 20
3.956350227699998
 10
-3.678808099975682
 20
3.954466668199998
 10
-3.677241832375683
 20
3.952576046
 10
-3.675736601875683
 20
3.950681052699998
 10
-3.674292874375681
 20
3.9487844324
 10
-3.672912080675683
 20
3.946890420899997
 10
-3.671594920375683
 20
3.9450026001
 10
-3.670340730675683
 20
3.9431227662
 10
-3.669148682675681
 20
3.941252423299998
 10
-3.668019337975683
 20
3.9393953525
 10
-3.666951693475683
 20
3.9375529774
 10
-3.665942725675682
 20
3.9357231387
 10
-3.664991419275683
 20
3.933907136499998
 10
-3.664097958775683
 20
3.932108657699997
 10
-3.663261257775683
 20
3.930329048699998
 10
-3.662480893875682
 20
3.9285711041
 10
-3.661755949775683
 20
3.926836698999998
 10
-3.661084717575683
 20
3.92512572
 10
-3.660466756475681
 20
3.9234411948
 10
-3.659900763675683
 20
3.9217842535
 10
-3.659383936675683
 20
3.920151726
 10
-3.658914826275683
 20
3.918543805799997
 10
-3.658492836275683
 20
3.916963593899998
 10
-3.658116693175681
 20
3.915412063699998
 10
-3.657785177475683
 20
3.9138904106
 10
-3.657497066975681
 20
3.912399970199997
 10
-3.657280660675683
 20
3.9111293177
  0
LWPOLYLINE
  5
BB0
330
21D
100
AcDbEntity
  8
0
  6
Continuous
 62
     7
100
AcDbPolyline
 90
       10
 70
     0
 43
0.0
 10
-4.172480149775683
 20
6.6591089583
 10
-4.171033674075683
 20
6.657565300499999
 10
-4.169593004875681
 20
6.6559592332
 10
-4.168166917475684
 20
6.654297036699999
 10
-4.166757298475681
 20
6.652577689199999
 10
-4.165366967275684
 20
6.650801246
 10
-4.164005129175681
 20
6.648976581
 10
-4.162675849175683
 20
6.647106973999997
 10
-4.161378743375681
 20
6.6451895822
 10
-4.160429070275683
 20
6.6437216621
  0
LINE
  5
BB1
330
21D
100
AcDbEntity
  8
___COSMETIC_SKETCH
  6
Continuous
 62
     7
100
AcDbLine
 10
-1.845061643775683
 20
4.293171864499997
 30
0.0
 11
-1.845061643775683
 21
2.327380635899999
 31
0.0
  0
LINE
  5
BB2
330
21D
100
AcDbEntity
  8
0
  6
Continuous
 62
     7
100
AcDbLine
 10
0.6649414329243162
 20
6.910645275599999
 30
0.0
 11
0.3709799578243165
 21
6.660347923799997
 31
0.0
  0
LINE
  5
BB3
330
21D
100
AcDbEntity
  8
___COSMETIC_SKETCH
  6
Continuous
 62
     7
100
AcDbLine
 10
-0.8608096752756837
 20
4.293171870899997
 30
0.0
 11
-1.845061643775683
 21
4.293171864499997
 31
0.0
  0
LWPOLYLINE
  5
BB4
330
21D
100
AcDbEntity
  8
0
  6
Continuous
 62
     7
100
AcDbPolyline
 90
       10
 70
     0
 43
0.0
 10
-4.441196060975681
 20
6.910645275599999
 10
-4.398416574175683
 20
6.870948350299997
 10
-4.374731463475683
 20
6.848921445299997
 10
-4.351255115575681
 20
6.827054272
 10
-4.327988214675681
 20
6.805347230599999
 10
-4.30493955897568
 20
6.783808312999999
 10
-4.282109700775682
 20
6.7624378411
 10
-4.259498501275682
 20
6.741235492899999
 10
-4.237113635775681
 20
6.720208294299999
 10
-4.214957749275683
 20
6.699358587299999
  0
LINE
  5
BB5
330
21D
100
AcDbEntity
  8
0
  6
Continuous
 62
     7
100
AcDbLine
 10
-4.214957749275683
 20
6.699358587299999
 30
0.0
 11
-4.175936843875683
 21
6.662543122299996
 31
0.0
  0
LWPOLYLINE
  5
BB6
330
21D
100
AcDbEntity
  8
0
  6
Continuous
 62
     7
100
AcDbPolyline
 90
        4
 70
     0
 43
0.0
 10
-4.175936966875681
 20
6.662543534199999
 10
-4.175375730175683
 20
6.662008869
 10
-4.173927615475681
 20
6.660589007499997
 10
-4.172480149775683
 20
6.6591089583
  0
LINE
  5
BB7
330
21D
100
AcDbEntity
  8
0
  6
Continuous
 62
     7
100
AcDbLine
 10
-4.125562944075681
 20
6.910645275599999
 30
0.0
 11
-3.833412420475683
 21
6.6620498851
 31
0.0
  0
LINE
  5
BB8
330
21D
100
AcDbEntity
  8
0
  6
Continuous
 62
     7
100
AcDbLine
 10
1.419690243724314
 20
6.910645275599999
 30
0.0
 11
1.127540676724315
 21
6.6620506294
 31
0.0
  0
LINE
  5
BB9
330
21D
100
AcDbEntity
  8
___COSMETIC_SKETCH
  6
Continuous
 62
     7
100
AcDbLine
 10
-0.8608096752756837
 20
2.3273806423
 30
0.0
 11
-0.8608096752756837
 21
4.293171870899997
 31
0.0
  0
LWPOLYLINE
  5
BBA
330
21D
100
AcDbEntity
  8
0
  6
Continuous
 62
     7
100
AcDbPolyline
 90
        4
 70
     0
 43
0.0
 10
1.466604260324316
 20
6.659103457
 10
1.468053757424314
 20
6.6605858047
 10
1.469503900924316
 20
6.662007780999996
 10
1.470067169224314
 20
6.6625443974
  0
LWPOLYLINE
  5
BBB
330
21D
100
AcDbEntity
  8
0
  6
Continuous
 62
     7
100
AcDbPolyline
 90
        9
 70
     0
 43
0.0
 10
1.470067047224316
 20
6.6625439849
 10
1.509087982624316
 20
6.699359498899997
 10
1.531243856524314
 20
6.720209205499999
 10
1.553628710124316
 20
6.741236404299999
 10
1.576239898524316
 20
6.7624387534
 10
1.599069746124316
 20
6.783809226799999
 10
1.622118392124314
 20
6.8053481466
 10
1.645385283824315
 20
6.8270551908
 10
1.668861623324314
 20
6.8489223674
  0
LWPOLYLINE
  5
BBC
330
21D
100
AcDbEntity
  8
0
  6
Continuous
 62
     7
100
AcDbPolyline
 90
        3
 70
     0
 43
0.0
 10
1.668861623324314
 20
6.8489223674
 10
1.716440768024314
 20
6.893136317899999
 10
1.735325192724315
 20
6.910645275599999
  0
LINE
  5
BBD
330
21D
100
AcDbEntity
  8
0
  6
Continuous
 62
     7
100
AcDbLine
 10
-3.370814028675683
 20
6.910645275599999
 30
0.0
 11
-3.076851863175682
 21
6.660347406499997
 31
0.0
  0
LINE
  5
BBE
330
21D
100
AcDbEntity
  8
0
  6
Continuous
 62
     7
100
AcDbLine
 10
-0.6083277187756835
 20
2.2253922622
 30
0.0
 11
-0.6009325416756833
 21
1.759349182599998
 31
0.0
  0
LINE
  5
BBF
330
21D
100
AcDbEntity
  8
0
  6
Continuous
 62
     7
100
AcDbLine
 10
1.454565737924315
 20
6.643732706699999
 30
0.0
 11
1.454497616424315
 21
6.6436252161
 31
0.0
  0
LWPOLYLINE
  5
BC0
330
21D
100
AcDbEntity
  8
0
  6
Continuous
 62
     7
100
AcDbPolyline
 90
       10
 70
     0
 43
0.0
 10
1.454565737924315
 20
6.643732706699999
 10
1.455488487824314
 20
6.645159408699997
 10
1.456787022324316
 20
6.6470803889
 10
1.458117862624314
 20
6.6489534545
 10
1.459481392624315
 20
6.650781459299999
 10
1.460873531224314
 20
6.6525611082
 10
1.462285036624316
 20
6.654283488799999
 10
1.463713076024315
 20
6.6559485449
 10
1.465155754124315
 20
6.657557302699999
 10
1.466604260324316
 20
6.659103457
  0
LINE
  5
BC1
330
21D
100
AcDbEntity
  8
0
  6
Continuous
 62
     7
100
AcDbLine
 10
0.3407913205243163
 20
6.6609434612
 30
0.0
 11
0.3407906830243164
 21
2.260709580499999
 31
0.0
  0
LINE
  5
BC2
330
21D
100
AcDbEntity
  8
0
  6
Continuous
 62
     7
100
AcDbLine
 10
0.3407913141243166
 20
6.598594159299999
 30
0.0
 11
-3.046663232075681
 21
6.598593650999996
 31
0.0
  0
LWPOLYLINE
  5
BC3
330
21D
100
AcDbEntity
  8
0
  6
Continuous
 62
     7
100
AcDbPolyline
 90
       16
 70
     0
 43
0.0
 10
-1.075376731075682
 20
1.654739763799998
 10
-1.073606780375683
 20
1.6568528224
 10
-1.07100480677568
 20
1.6598451241
 10
-1.068338046275683
 20
1.6627802111
 10
-1.065606575275682
 20
1.6656578836
 10
-1.062812813675682
 20
1.6684754797
 10
-1.059961788375682
 20
1.671228135199998
 10
-1.057055056475683
 20
1.6739147786
 10
-1.054094243975683
 20
1.676534329799999
 10
-1.051084976875682
 20
1.679082453899997
 10
-1.048029048775683
 20
1.6815584803
 10
-1.044928378375683
 20
1.683961686299999
 10
-1.041789235675683
 20
1.686288254499999
 10
-1.038615188775683
 20
1.6885368543
 10
-1.035406856775683
 20
1.6907083366
 10
-1.033149716475683
 20
1.692177267299999
  0
LWPOLYLINE
  5
BC4
330
21D
100
AcDbEntity
  8
0
  6
Continuous
 62
     7
100
AcDbPolyline
 90
       37
 70
     0
 43
0.0
 10
1.249694869424314
 20
4.067708022899997
 10
1.252076174524314
 20
4.070043857099998
 10
1.254983766524314
 20
4.0730054022
 10
1.257825012724316
 20
4.0760213585
 10
1.260600925624314
 20
4.0790910044
 10
1.263310737024315
 20
4.082212017999998
 10
1.265948841624314
 20
4.085376367099997
 10
1.268515666424314
 20
4.088582977299997
 10
1.271010606824314
 20
4.091829885899997
 10
1.273426843524315
 20
4.095106841299998
 10
1.275764455024315
 20
4.098411612799997
 10
1.278025113224315
 20
4.1017430669
 10
1.280204774024314
 20
4.105091285199997
 10
1.282302735024315
 20
4.108450646299997
 10
1.284322521524314
 20
4.111822374099998
 10
1.286266424124316
 20
4.115206331499997
 10
1.288135432924314
 20
4.118600534399997
 10
1.289930381824314
 20
4.122002919399998
 10
1.291652809024316
 20
4.125413049299996
 10
1.293303670724314
 20
4.128829292099998
 10
1.294883973824314
 20
4.1322495419
 10
1.296394798024316
 20
4.135671750899997
 10
1.297837639924314
 20
4.139094845299998
 10
1.299212786224314
 20
4.142514819499997
 10
1.300519524824315
 20
4.145924557299998
 10
1.301761068424315
 20
4.1493269024
 10
1.302936486924316
 20
4.1527134702
 10
1.304040533624315
 20
4.156061047499997
 10
1.305076837024315
 20
4.1593711004
 10
1.306047240524314
 20
4.162639908
 10
1.306946653624315
 20
4.1658379647
 10
1.307779170524316
 20
4.1689649252
 10
1.308548706724314
 20
4.172020426299997
 10
1.309252509024314
 20
4.1749759802
 10
1.309893406124315
 20
4.1778227424
 10
1.310478330824314
 20
4.180570933399997
 10
1.310857778724314
 20
4.1824413067
  0
LINE
  5
BC5
330
21D
100
AcDbEntity
  8
0
  6
Continuous
 62
     7
100
AcDbLine
 10
1.249663561024314
 20
4.067740237999998
 30
0.0
 11
1.249698733224314
 21
4.0677741825
 31
0.0
  0
LINE
  5
BC6
330
21D
100
AcDbEntity
  8
0
  6
Continuous
 62
     7
100
AcDbLine
 10
0.3407913205243163
 20
6.6609434612
 30
0.0
 11
-3.046663225775681
 21
6.660942952999999
 31
0.0
  0
LINE
  5
BC7
330
21D
100
AcDbEntity
  8
CURVE1
  6
Continuous
 62
     7
100
AcDbLine
 10
-5.043880668075683
 20
6.910645275599999
 30
0.0
 11
2.338009095724316
 21
6.910645275599999
 31
0.0
  0
LINE
  5
BC8
330
21D
100
AcDbEntity
  8
0
  6
Continuous
 62
     7
100
AcDbLine
 10
0.8637864767243158
 20
2.262545435099998
 30
0.0
 11
1.093077882524315
 21
6.5908729553
 31
0.0
  0
LINE
  5
BC9
330
21D
100
AcDbEntity
  8
0
  6
Continuous
 62
     7
100
AcDbLine
 10
0.8636152765243163
 20
2.2593431962
 30
0.0
 11
0.8636559827243166
 21
2.2600973232
 31
0.0
  0
LINE
  5
BCA
330
21D
100
AcDbEntity
  8
0
  6
Continuous
 62
     7
100
AcDbLine
 10
0.9509070797243165
 20
3.9071222872
 30
0.0
 11
0.9509212099243159
 21
3.907287156
 31
0.0
  0
LINE
  5
BCB
330
21D
100
AcDbEntity
  8
0
  6
Continuous
 62
     7
100
AcDbLine
 10
0.9509231149243163
 20
3.907308785899997
 30
0.0
 11
0.9509357596243166
 21
3.907448742599997
 31
0.0
  0
LINE
  5
BCC
330
21D
100
AcDbEntity
  8
0
  6
Continuous
 62
     7
100
AcDbLine
 10
0.9509375113243168
 20
3.9074676442
 30
0.0
 11
0.9509497258243163
 21
3.907596336999997
 31
0.0
  0
LINE
  5
BCD
330
21D
100
AcDbEntity
  8
0
  6
Continuous
 62
     7
100
AcDbLine
 10
0.9509514864243168
 20
3.9076144611
 30
0.0
 11
0.9509679453243164
 21
3.907779259999998
 31
0.0
  0
LINE
  5
BCE
330
21D
100
AcDbEntity
  8
0
  6
Continuous
 62
     7
100
AcDbLine
 10
0.9509679453243164
 20
3.907779259999998
 30
0.0
 11
0.9509860818243167
 21
3.907952569299998
 31
0.0
  0
LINE
  5
BCF
330
21D
100
AcDbEntity
  8
0
  6
Continuous
 62
     7
100
AcDbLine
 10
0.9509860818243167
 20
3.907952569299998
 30
0.0
 11
0.9510065622243164
 21
3.908140086299998
 31
0.0
  0
LINE
  5
BD0
330
21D
100
AcDbEntity
  8
0
  6
Continuous
 62
     7
100
AcDbLine
 10
0.9510065622243164
 20
3.908140086299998
 30
0.0
 11
0.9510298952243163
 21
3.908345524699997
 31
0.0
  0
LINE
  5
BD1
330
21D
100
AcDbEntity
  8
0
  6
Continuous
 62
     7
100
AcDbLine
 10
0.9510326818243164
 20
3.908369572099998
 30
0.0
 11
0.9510671059243163
 21
3.908659702499998
 31
0.0
  0
LINE
  5
BD2
330
21D
100
AcDbEntity
  8
0
  6
Continuous
 62
     7
100
AcDbLine
 10
0.9510671059243163
 20
3.908659702499998
 30
0.0
 11
0.9511083943243168
 21
3.908994656
 31
0.0
  0
LINE
  5
BD3
330
21D
100
AcDbEntity
  8
0
  6
Continuous
 62
     7
100
AcDbLine
 10
0.9511083943243168
 20
3.908994656
 30
0.0
 11
0.9511548397243164
 21
3.9093580788
 31
0.0
  0
LINE
  5
BD4
330
21D
100
AcDbEntity
  8
0
  6
Continuous
 62
     7
100
AcDbLine
 10
0.9511548397243164
 20
3.9093580788
 30
0.0
 11
0.9511933490243166
 21
3.9096493574
 31
0.0
  0
LINE
  5
BD5
330
21D
100
AcDbEntity
  8
0
  6
Continuous
 62
     7
100
AcDbLine
 10
0.9511965206243168
 20
3.909672925299997
 30
0.0
 11
0.9512267622243163
 21
3.909894058699998
 31
0.0
  0
LINE
  5
BD6
330
21D
100
AcDbEntity
  8
0
  6
Continuous
 62
     7
100
AcDbLine
 10
0.9512290562243167
 20
3.9099105423
 30
0.0
 11
0.9512540761243162
 21
3.910087436699997
 31
0.0
  0
LINE
  5
BD7
330
21D
100
AcDbEntity
  8
0
  6
Continuous
 62
     7
100
AcDbLine
 10
0.9512564167243159
 20
3.910103729899998
 30
0.0
 11
0.9512879609243164
 21
3.910319545
 31
0.0
  0
LINE
  5
BD8
330
21D
100
AcDbEntity
  8
0
  6
Continuous
 62
     7
100
AcDbLine
 10
0.9512879609243164
 20
3.910319545
 30
0.0
 11
0.9513220597243163
 21
3.910546015299997
 31
0.0
  0
LINE
  5
BD9
330
21D
100
AcDbEntity
  8
0
  6
Continuous
 62
     7
100
AcDbLine
 10
0.9513248105243159
 20
3.910564020899998
 30
0.0
 11
0.9513690743243168
 21
3.910849308099998
 31
0.0
  0
LINE
  5
BDA
330
21D
100
AcDbEntity
  8
0
  6
Continuous
 62
     7
100
AcDbLine
 10
0.9514099606243167
 20
3.911130288
 30
0.0
 11
0.9513723008243164
 21
3.910869817099997
 31
0.0
  0
LWPOLYLINE
  5
BDB
330
21D
100
AcDbEntity
  8
0
  6
Continuous
 62
     7
100
AcDbPolyline
 90
       79
 70
     0
 43
0.0
 10
0.9514099606243167
 20
3.911130288
 10
0.9516218035243163
 20
3.912374341599997
 10
0.9519045656243163
 20
3.9138364916
 10
0.9522281089243163
 20
3.915319271899998
 10
0.9525935028243166
 20
3.9168227122
 10
0.9530019576243166
 20
3.9183471754
 10
0.9534548941243166
 20
3.9198933954
 10
0.9539531187243166
 20
3.9214597918
 10
0.9544981683243168
 20
3.923047026799998
 10
0.9550928532243164
 20
3.924658788099998
 10
0.9557387498243162
 20
3.9262950264
 10
0.9564364927243163
 20
3.9279533873
 10
0.9571875879243163
 20
3.929633686499998
 10
0.9579931344243167
 20
3.931334668799998
 10
0.9588538222243164
 20
3.933054258399998
 10
0.9597705120243166
 20
3.934790816499997
 10
0.9607433099243165
 20
3.936541394499998
 10
0.9617732906243166
 20
3.938304963299998
 10
0.9628626566243166
 20
3.9400825455
 10
0.9640125743243167
 20
3.9418732844
 10
0.9652223499243163
 20
3.9436734862
 10
0.9664912402243164
 20
3.945479733099998
 10
0.9678194868243167
 20
3.9472902129
 10
0.9692064629243164
 20
3.9491020254
 10
0.9706496322243165
 20
3.950910119899998
 10
0.9721479960243165
 20
3.9527117914
 10
0.9737009645243167
 20
3.9545050611
 10
0.9753059426243163
 20
3.9562860455
 10
0.9769619025243168
 20
3.958052913299998
 10
0.9786670649243164
 20
3.959803161499997
 10
0.9804171614243164
 20
3.961532063399997
 10
0.9822088881243168
 20
3.963236316499997
 10
0.9840418254243164
 20
3.9649155472
 10
0.9859159245243166
 20
3.966569626
 10
0.9878286592243163
 20
3.968196241399997
 10
0.9897789232243168
 20
3.9697944768
 10
0.9917691800243167
 20
3.9713664237
 10
0.9937990138243167
 20
3.972911688399997
 10
0.9958655754243164
 20
3.9744280785
 10
0.9979679897243162
 20
3.9759149861
 10
1.000105267624314
 20
3.9773717266
 10
1.002275135724316
 20
3.978796800499998
 10
1.004474846124314
 20
3.9801885486
 10
1.006702510224315
 20
3.981545997299997
 10
1.008956570324315
 20
3.982868446999998
 10
1.011234759424316
 20
3.9841548568
 10
1.013535019524314
 20
3.985404407499999
 10
1.015855918524315
 20
3.986616688199998
 10
1.018196192624314
 20
3.9877914049
 10
1.020553558824314
 20
3.988927803199997
 10
1.022926886824314
 20
3.9900257505
 10
1.025316806524314
 20
3.9910858887
 10
1.027721406624314
 20
3.9921076836
 10
1.030139406524314
 20
3.9930909242
 10
1.032572603424315
 20
3.9940365941
 10
1.035019555824314
 20
3.994944313599997
 10
1.037478757224314
 20
3.995813773999998
 10
1.039952153224315
 20
3.996645952099997
 10
1.042439055324315
 20
3.9974408316
 10
1.044937534924314
 20
3.998198025099997
 10
1.047447838824316
 20
3.9989178281
 10
1.049968692624314
 20
3.9996000723
 10
1.052498867424314
 20
4.0002446355
 10
1.055038797124316
 20
4.0008518122
 10
1.057587193624314
 20
4.001421454199998
 10
1.060142934524314
 20
4.0019534837
 10
1.062706797624314
 20
4.0024482019
 10
1.065277578624314
 20
4.0029054849
 10
1.067854140824314
 20
4.003325252299998
 10
1.070437432224314
 20
4.003707745599998
 10
1.073026309024314
 20
4.004052848799998
 10
1.075619609224315
 20
4.0043604736
 10
1.078218290524316
 20
4.0046307677
 10
1.080821250324315
 20
4.0048636166
 10
1.083427281424314
 20
4.0050589263
 10
1.086037187224314
 20
4.0052167431
 10
1.088650448424314
 20
4.005336978399998
 10
1.091265226524314
 20
4.005419504899998
 10
1.093373843824315
 20
4.0054585499
  0
LINE
  5
BDC
330
21D
100
AcDbEntity
  8
0
  6
Continuous
 62
     7
100
AcDbLine
 10
-4.856872794075681
 20
7.0976531496
 30
0.0
 11
2.151001221724314
 21
7.0976531496
 31
0.0
  0
LINE
  5
BDD
330
21D
100
AcDbEntity
  8
0
  6
Continuous
 62
     7
100
AcDbLine
 10
1.396687344324314
 20
5.7312231839
 30
0.0
 11
1.396633503224316
 21
5.732058390099997
 31
0.0
  0
LINE
  5
BDE
330
21D
100
AcDbEntity
  8
0
  6
Continuous
 62
     7
100
AcDbLine
 10
1.438326249124316
 20
6.573523424299999
 30
0.0
 11
1.439437768124316
 21
6.5961353694
 31
0.0
  0
LINE
  5
BDF
330
21D
100
AcDbEntity
  8
0
  6
Continuous
 62
     7
100
AcDbLine
 10
1.421507322224314
 20
6.232230441
 30
0.0
 11
1.438326249124316
 21
6.573523424299999
 31
0.0
  0
LINE
  5
BE0
330
21D
100
AcDbEntity
  8
0
  6
Continuous
 62
     7
100
AcDbLine
 10
1.396687356424314
 20
5.731223010399999
 30
0.0
 11
1.421507322224314
 21
6.232230441
 31
0.0
  0
LINE
  5
BE1
330
21D
100
AcDbEntity
  8
0
  6
Continuous
 62
     7
100
AcDbLine
 10
1.389448973824314
 20
5.585978576599998
 30
0.0
 11
1.396687344324314
 21
5.7312231839
 31
0.0
  0
LINE
  5
BE2
330
21D
100
AcDbEntity
  8
0
  6
Continuous
 62
     7
100
AcDbLine
 10
1.382112789724314
 20
5.4398657619
 30
0.0
 11
1.389448973824314
 21
5.585978576599998
 31
0.0
  0
LINE
  5
BE3
330
21D
100
AcDbEntity
  8
0
  6
Continuous
 62
     7
100
AcDbLine
 10
1.374722793624314
 20
5.294052056099999
 30
0.0
 11
1.382112789724314
 21
5.4398657619
 31
0.0
  0
LWPOLYLINE
  5
BE4
330
21D
100
AcDbEntity
  8
0
  6
Continuous
 62
     7
100
AcDbPolyline
 90
       13
 70
     0
 43
0.0
 10
1.324518444924314
 20
4.355395688699998
 10
1.328556530024314
 20
4.426943732499998
 10
1.332559725324314
 20
4.498613476
 10
1.336529521924316
 20
4.570401567799999
 10
1.340467423824314
 20
4.6423047879
 10
1.344374928124316
 20
4.7143196772
 10
1.348253538324315
 20
4.786442780599998
 10
1.352104775724314
 20
4.8586708608
 10
1.355930150024314
 20
4.9310003439
 10
1.359731185124315
 20
5.0034278047
 10
1.363509431224316
 20
5.075950203
 10
1.367266414924314
 20
5.1485639261
 10
1.374722793624314
 20
5.294052056099999
  0
LWPOLYLINE
  5
BE5
330
21D
100
AcDbEntity
  8
0
  6
Continuous
 62
     7
100
AcDbPolyline
 90
       24
 70
     0
 43
0.0
 10
1.439439255824314
 20
6.596137792899999
 10
1.439532619824315
 20
6.597758632999999
 10
1.439747024524314
 20
6.6004384844
 10
1.440030332124314
 20
6.6030683897
 10
1.440378511824314
 20
6.605646555299997
 10
1.440787710024316
 20
6.6081719769
 10
1.441254329024314
 20
6.610644418699997
 10
1.441774747824314
 20
6.6130628509
 10
1.442345450224314
 20
6.615426445399999
 10
1.442963280524314
 20
6.617735463799997
 10
1.443624973824315
 20
6.619989321699999
 10
1.444327342924315
 20
6.6221875332
 10
1.445067615124314
 20
6.624330659099997
 10
1.445842836324314
 20
6.626418441599997
 10
1.446650128124316
 20
6.628450723099999
 10
1.447487074024314
 20
6.630428329999999
 10
1.448351012124314
 20
6.6323512924
 10
1.449239279924315
 20
6.6342197271
 10
1.450149513324315
 20
6.6360347509
 10
1.451079018824315
 20
6.637796697299996
 10
1.452025230724315
 20
6.6395060161
 10
1.452986180324316
 20
6.6411640532
 10
1.453959645024314
 20
6.6427714996
 10
1.454494940524315
 20
6.643626912
  0
LINE
  5
BE6
330
21D
100
AcDbEntity
  8
0
  6
Continuous
 62
     7
100
AcDbLine
 10
1.317680514524316
 20
4.235975398999998
 30
0.0
 11
1.324518444924314
 21
4.355395688699998
 31
0.0
  0
LWPOLYLINE
  5
BE7
330
21D
100
AcDbEntity
  8
0
  6
Continuous
 62
     7
100
AcDbPolyline
 90
       10
 70
     0
 43
0.0
 10
1.310854330424314
 20
4.1824239056
 10
1.311880640324315
 20
4.187776321499997
 10
1.312987697124314
 20
4.194069355799999
 10
1.313992364624315
 20
4.200389755499998
 10
1.314894197024315
 20
4.206736443999997
 10
1.315692630824314
 20
4.213107779599997
 10
1.316387026724314
 20
4.219501550199997
 10
1.316976800324314
 20
4.2259160269
 10
1.317461377224314
 20
4.232349966
 10
1.317687402324315
 20
4.2359756729
  0
LINE
  5
BE8
330
21D
100
AcDbEntity
  8
0
  6
Continuous
 62
     7
100
AcDbLine
 10
-1.033149584175683
 20
1.692177352299998
 30
0.0
 11
-1.026984749975683
 21
1.6961058424
 31
0.0
  0
LWPOLYLINE
  5
BE9
330
21D
100
AcDbEntity
  8
0
  6
Continuous
 62
     7
100
AcDbPolyline
 90
       19
 70
     0
 43
0.0
 10
-1.026984749975683
 20
1.6961058424
 10
-1.020221739875682
 20
1.700359120899999
 10
-1.016938047175683
 20
1.7023967468
 10
-1.013723760675683
 20
1.704370796699999
 10
-1.010571010875682
 20
1.706285359299998
 10
-1.007470044975683
 20
1.7081458591
 10
-1.004424911375682
 20
1.709949783999999
 10
-1.001430698175683
 20
1.7117003306
 10
-0.998479538475683
 20
1.7134025578
 10
-0.9955727333756836
 20
1.715056373799999
 10
-0.9927065993756832
 20
1.7166647357
 10
-0.9898780598756832
 20
1.718230328199999
 10
-0.9870925850756837
 20
1.7197507531
 10
-0.9843534976756831
 20
1.721224366399997
 10
-0.981662380575683
 20
1.722650664199998
 10
-0.9790251443756828
 20
1.724027078099999
 10
-0.9764471859756833
 20
1.725351117299998
 10
-0.9739329976756836
 20
1.7266206365
 10
-0.9714877744756831
 20
1.727833480099999
  0
LINE
  5
BEA
330
21D
100
AcDbEntity
  8
0
  6
Continuous
 62
     7
100
AcDbLine
 10
-0.9714877744756831
 20
1.727833480099999
 30
0.0
 11
-0.9688500793756835
 21
1.729116281999998
 31
0.0
  0
LWPOLYLINE
  5
BEB
330
21D
100
AcDbEntity
  8
0
  6
Continuous
 62
     7
100
AcDbPolyline
 90
       14
 70
     0
 43
0.0
 10
-0.9688838965756836
 20
1.729100008899998
 10
-0.9678516269756832
 20
1.729594671599999
 10
-0.9661959108756832
 20
1.7303789941
 10
-0.9645954453756827
 20
1.731126234499997
 10
-0.9630380300756831
 20
1.731842804199998
 10
-0.9615242520756835
 20
1.732529049199998
 10
-0.9600555887756827
 20
1.733184953199998
 10
-0.9586207249756828
 20
1.733816136699998
 10
-0.9572195033756836
 20
1.734423132499999
 10
-0.9558535556756837
 20
1.7350057218
 10
-0.9545139870756838
 20
1.735568122199999
 10
-0.9532005760756828
 20
1.736110766599999
 10
-0.9519147168756836
 20
1.7366334368
 10
-0.9506498285756828
 20
1.7371391191
  0
LINE
  5
BEC
330
21D
100
AcDbEntity
  8
0
  6
Continuous
 62
     7
100
AcDbLine
 10
-0.9506498285756828
 20
1.7371391191
 30
0.0
 11
-0.9485835800756834
 21
1.7379464999
 31
0.0
  0
LWPOLYLINE
  5
BED
330
21D
100
AcDbEntity
  8
0
  6
Continuous
 62
     7
100
AcDbPolyline
 90
       30
 70
     0
 43
0.0
 10
-0.9485835800756834
 20
1.7379464999
 10
-0.9469181528756838
 20
1.738580212899998
 10
-0.9452843589756836
 20
1.7391869569
 10
-0.943682567875683
 20
1.739767119099998
 10
-0.9421137052756831
 20
1.7403209169
 10
-0.9405823904756827
 20
1.74084736
 10
-0.9390886833756839
 20
1.741347142199999
 10
-0.9376336205756832
 20
1.741820654199998
 10
-0.9362232962756833
 20
1.7422667543
 10
-0.9348583905756827
 20
1.742686164
 10
-0.9335390916756836
 20
1.743079773499998
 10
-0.9322707416756832
 20
1.7434470077
 10
-0.9310556928756835
 20
1.7437882968
 10
-0.9298921762756835
 20
1.744105243799999
 10
-0.9287792895756835
 20
1.744399157199999
 10
-0.9277177817756836
 20
1.744670896399999
 10
-0.9267072745756832
 20
1.744921601999998
 10
-0.925745147675683
 20
1.745152911599999
 10
-0.9248316094756834
 20
1.745365712299999
 10
-0.9239666615756831
 20
1.745560919799999
 10
-0.9231473796756841
 20
1.745740052199999
 10
-0.9223798042756834
 20
1.7459026511
 10
-0.9216580214756831
 20
1.746050800099999
 10
-0.9209611956756827
 20
1.746189324199999
 10
-0.920284159875683
 20
1.746319578
 10
-0.9196323051756838
 20
1.7464408583
 10
-0.9190007276756835
 20
1.746554409999999
 10
-0.9183833071756836
 20
1.7466615554
 10
-0.9177865381756832
 20
1.746761385
 10
-0.9172244846756836
 20
1.746851944499999
  0
LINE
  5
BEE
330
21D
100
AcDbEntity
  8
CURVE1
  6
Continuous
 62
     7
100
AcDbLine
 10
2.151001221724314
 20
7.0976531496
 30
0.0
 11
2.151001221724314
 21
6.910645275599999
 31
0.0
  0
ARC
  5
C87
330
21D
100
AcDbEntity
  8
0
  6
Continuous
 62
     7
100
AcDbCircle
 10
-1.364217816075683
 20
-20.9100678586
 30
0.0
 40
22.6609596601
100
AcDbArc
 50
89.6148989221
 51
89.83743386749997
  0
ARC
  5
C88
330
21D
100
AcDbEntity
  8
0
  6
Continuous
 62
     7
100
AcDbCircle
 10
-1.350217752475682
 20
-18.6464623383
 30
0.0
 40
20.3973378153
100
AcDbArc
 50
90.0076351799
 51
90.2816924022
  0
ARC
  5
C89
330
21D
100
AcDbEntity
  8
0
  6
Continuous
 62
     7
100
AcDbCircle
 10
-1.353064270175682
 20
-17.1500680855
 30
0.0
 40
18.9009433818
100
AcDbArc
 50
89.8389047326
 51
89.99961080749995
  0
ARC
  5
C8A
330
21D
100
AcDbEntity
  8
0
  6
Continuous
 62
     7
100
AcDbCircle
 10
-1.403699223575681
 20
-14.9310102619
 30
0.0
 40
16.6824927064
100
AcDbArc
 50
89.16298036040002
 51
89.34128223060001
  0
ARC
  5
C8B
330
21D
100
AcDbEntity
  8
0
  6
Continuous
 62
     7
100
AcDbCircle
 10
-1.572953073875683
 20
2.758266112799999
 30
0.0
 40
1.0649612304
100
AcDbArc
 50
267.4729227296
 51
267.8079245978
  0
ARC
  5
C8C
330
21D
100
AcDbEntity
  8
0
  6
Continuous
 62
     7
100
AcDbCircle
 10
-1.641276930575683
 20
2.0447957146
 30
0.0
 40
0.3490268347
100
AcDbArc
 50
265.5139951318
 51
265.7696327457
  0
ARC
  5
C8D
330
21D
100
AcDbEntity
  8
0
  6
Continuous
 62
     7
100
AcDbCircle
 10
-1.776411302375684
 20
1.546505844799999
 30
0.0
 40
0.1818542553
100
AcDbArc
 50
36.5246529954
 51
56.1274550964
  0
ARC
  5
C8E
330
21D
100
AcDbEntity
  8
0
  6
Continuous
 62
     7
100
AcDbCircle
 10
-1.770447142875681
 20
1.548734424499999
 30
0.0
 40
0.1797552354
100
AcDbArc
 50
36.1371731232
 51
55.47912798199998
  0
ARC
  5
C8F
330
21D
100
AcDbEntity
  8
0
  6
Continuous
 62
     7
100
AcDbCircle
 10
-1.769021082275684
 20
1.5492974331
 30
0.0
 40
0.1792675684
100
AcDbArc
 50
36.02825164010001
 51
55.321682245
  0
ARC
  5
C90
330
21D
100
AcDbEntity
  8
0
  6
Continuous
 62
     7
100
AcDbCircle
 10
-1.766862298775683
 20
1.5500499002
 30
0.0
 40
0.1786620335
100
AcDbArc
 50
35.87125740140001
 51
55.09865668499998
  0
ARC
  5
C91
330
21D
100
AcDbEntity
  8
0
  6
Continuous
 62
     7
100
AcDbCircle
 10
-1.796141245575681
 20
1.603574916399999
 30
0.0
 40
0.1438089339
100
AcDbArc
 50
81.47707082370002
 51
82.06259866239999
  0
ARC
  5
C92
330
21D
100
AcDbEntity
  8
0
  6
Continuous
 62
     7
100
AcDbCircle
 10
-1.795761359875683
 20
1.606284678
 30
0.0
 40
0.1410726743
100
AcDbArc
 50
82.06343214109997
 51
82.39225899359999
  0
ARC
  5
C93
330
21D
100
AcDbEntity
  8
0
  6
Continuous
 62
     7
100
AcDbCircle
 10
-1.798592202775683
 20
1.608697168
 30
0.0
 40
0.1387989587
100
AcDbArc
 50
81.11023043240001
 51
84.8181418293
  0
ARC
  5
C94
330
21D
100
AcDbEntity
  8
0
  6
Continuous
 62
     7
100
AcDbCircle
 10
-1.794536955375681
 20
1.6160647465
 30
0.0
 40
0.1312166191
100
AcDbArc
 50
82.35682071460002
 51
85.67465133479997
  0
ARC
  5
C95
330
21D
100
AcDbEntity
  8
0
  6
Continuous
 62
     7
100
AcDbCircle
 10
-1.76308306937568
 20
5.102790729599997
 30
0.0
 40
3.3562056975
100
AcDbArc
 50
270.554948023
 51
270.6982757552999
  0
ARC
  5
C96
330
21D
100
AcDbEntity
  8
0
  6
Continuous
 62
     7
100
AcDbCircle
 10
-3.046701593375681
 20
5.8974492835
 30
0.0
 40
0.7634936704000001
100
AcDbArc
 50
89.99712073079995
 51
92.26319166689998
  0
ARC
  5
C97
330
21D
100
AcDbEntity
  8
0
  6
Continuous
 62
     7
100
AcDbCircle
 10
-3.740832445575683
 20
4.263921699499999
 30
0.0
 40
0.2832912721
100
AcDbArc
 50
182.2148667185
 51
184.8799474970999
  0
ARC
  5
C98
330
21D
100
AcDbEntity
  8
0
  6
Continuous
 62
     7
100
AcDbCircle
 10
-3.822618745775681
 20
4.2028508106
 30
0.0
 40
0.1895492807
100
AcDbArc
 50
229.8543068409999
 51
230.1717061409
  0
ARC
  5
C99
330
21D
100
AcDbEntity
  8
0
  6
Continuous
 62
     7
100
AcDbCircle
 10
-3.858412590175681
 20
4.192313599999998
 30
0.0
 40
0.1533578043
100
AcDbArc
 50
201.6875112914
 51
201.9784767973
  0
ARC
  5
C9A
330
21D
100
AcDbEntity
  8
0
  6
Continuous
 62
     7
100
AcDbCircle
 10
-3.858576360075682
 20
4.1922472647
 30
0.0
 40
0.1531811099
100
AcDbArc
 50
201.978393696
 51
202.6759347649
  0
ARC
  5
C9B
330
21D
100
AcDbEntity
  8
0
  6
Continuous
 62
     7
100
AcDbCircle
 10
-3.858779827775683
 20
4.192162404499997
 30
0.0
 40
0.1529606551
100
AcDbArc
 50
202.6759872428
 51
203.2139749752
  0
ARC
  5
C9C
330
21D
100
AcDbEntity
  8
0
  6
Continuous
 62
     7
100
AcDbCircle
 10
-3.884562449275683
 20
4.247854424699998
 30
0.0
 40
0.1394431758
100
AcDbArc
 50
177.8962380682
 51
183.3271606471
  0
ARC
  5
C9D
330
21D
100
AcDbEntity
  8
0
  6
Continuous
 62
     7
100
AcDbCircle
 10
-3.785772506075683
 20
3.898178517599998
 30
0.0
 40
0.1293255487
100
AcDbArc
 50
5.377794243700001
 51
8.846808014699998
  0
ARC
  5
C9E
330
21D
100
AcDbEntity
  8
0
  6
Continuous
 62
     7
100
AcDbCircle
 10
-3.785166976375681
 20
3.898375800699998
 30
0.0
 40
0.1287042702
100
AcDbArc
 50
4.340214812600001
 51
5.315619922599997
  0
ARC
  5
C9F
330
21D
100
AcDbEntity
  8
0
  6
Continuous
 62
     7
100
AcDbCircle
 10
-3.59616277837568
 20
3.920810729499998
 30
0.0
 40
0.0618835631
100
AcDbArc
 50
182.5403898197
 51
189.0012019336
  0
ARC
  5
CA0
330
21D
100
AcDbEntity
  8
0
  6
Continuous
 62
     7
100
AcDbCircle
 10
-1.105249430075684
 20
2.9511187697
 30
0.0
 40
1.260535465999998
100
AcDbArc
 50
270.4704929876
 51
270.8557282416999
  0
ARC
  5
CA1
330
21D
100
AcDbEntity
  8
0
  6
Continuous
 62
     7
100
AcDbCircle
 10
-0.7820977903756834
 20
1.3434321577
 30
0.0
 40
0.4285268851
100
AcDbArc
 50
117.0021908715
 51
117.1813446453
  0
ARC
  5
CA2
330
21D
100
AcDbEntity
  8
0
  6
Continuous
 62
     7
100
AcDbCircle
 10
-0.7948208819756843
 20
1.368475997299998
 30
0.0
 40
0.4004365007
100
AcDbArc
 50
116.3664267759999
 51
117.0071103228
  0
ARC
  5
CA3
330
21D
100
AcDbEntity
  8
0
  6
Continuous
 62
     7
100
AcDbCircle
 10
-0.8122450444756832
 20
1.4036788779
 30
0.0
 40
0.3611573653
100
AcDbArc
 50
115.7034648968999
 51
116.2348412856
  0
ARC
  5
CA4
330
21D
100
AcDbEntity
  8
0
  6
Continuous
 62
     7
100
AcDbCircle
 10
-1.053599653875681
 20
1.993389579799998
 30
0.0
 40
0.3021689563
100
AcDbArc
 50
272.0737744781
 51
272.6454652404
  0
ARC
  5
CA5
330
21D
100
AcDbEntity
  8
0
  6
Continuous
 62
     7
100
AcDbCircle
 10
-0.861028712275683
 20
1.510814332899999
 30
0.0
 40
0.2434235202
100
AcDbArc
 50
111.4617744237
 51
111.6373312621
  0
ARC
  5
CA6
330
21D
100
AcDbEntity
  8
0
  6
Continuous
 62
     7
100
AcDbCircle
 10
-0.9344180251756835
 20
1.5381038246
 30
0.0
 40
0.1830068748
100
AcDbArc
 50
122.6879355002
 51
140.406920653
  0
ARC
  5
CA7
330
21D
100
AcDbEntity
  8
0
  6
Continuous
 62
     7
100
AcDbCircle
 10
-0.9346929622756832
 20
1.538177385399998
 30
0.0
 40
0.1828598075
100
AcDbArc
 50
122.6976579314
 51
140.3987187857
  0
ARC
  5
CA8
330
21D
100
AcDbEntity
  8
0
  6
Continuous
 62
     7
100
AcDbCircle
 10
-0.9415222330756831
 20
1.5413554515
 30
0.0
 40
0.1794049592
100
AcDbArc
 50
123.1609662871
 51
140.8020193255
  0
ARC
  5
CA9
330
21D
100
AcDbEntity
  8
0
  6
Continuous
 62
     7
100
AcDbCircle
 10
-0.9444411573756832
 20
1.542572016399998
 30
0.0
 40
0.1783346812
100
AcDbArc
 50
123.4209035266
 51
141.025587972
  0
ARC
  5
CAA
330
21D
100
AcDbEntity
  8
0
  6
Continuous
 62
     7
100
AcDbCircle
 10
-0.9451497256756827
 20
1.542801441399998
 30
0.0
 40
0.1781487871
100
AcDbArc
 50
123.4768676214
 51
141.0721133937
  0
ARC
  5
CAB
330
21D
100
AcDbEntity
  8
0
  6
Continuous
 62
     7
100
AcDbCircle
 10
-0.9116470266756831
 20
1.634089671399999
 30
0.0
 40
0.1131898801
100
AcDbArc
 50
94.62519593149997
 51
98.88481900759998
  0
ARC
  5
CAC
330
21D
100
AcDbEntity
  8
0
  6
Continuous
 62
     7
100
AcDbCircle
 10
-1.046099996075682
 20
1.7975500137
 30
0.0
 40
0.1061870522
100
AcDbArc
 50
271.4480222098
 51
271.8536068861
  0
ARC
  5
CAD
330
21D
100
AcDbEntity
  8
0
  6
Continuous
 62
     7
100
AcDbCircle
 10
-0.9417154497756834
 20
5.2020133073
 30
0.0
 40
3.4554338313
100
AcDbArc
 50
269.2483283355
 51
269.4431505486
  0
ARC
  5
CAE
330
21D
100
AcDbEntity
  8
0
  6
Continuous
 62
     7
100
AcDbCircle
 10
0.3408299701243167
 20
5.8974524824
 30
0.0
 40
0.7634909798000003
100
AcDbArc
 50
87.73682153200001
 51
90.0029004379
  0
ARC
  5
CAF
330
21D
100
AcDbEntity
  8
0
  6
Continuous
 62
     7
100
AcDbCircle
 10
0.9695519870243163
 20
4.2624295092
 30
0.0
 40
0.3486172525
100
AcDbArc
 50
355.6763763311
 51
358.4465859198
  0
ARC
  5
CB0
330
21D
100
AcDbEntity
  8
0
  6
Continuous
 62
     7
100
AcDbCircle
 10
0.9697606945243164
 20
4.2622923354
 30
0.0
 40
0.3483987738
100
AcDbArc
 50
342.2028962245
 51
355.6741749119999
  0
ARC
  5
CB1
330
21D
100
AcDbEntity
  8
0
  6
Continuous
 62
     7
100
AcDbCircle
 10
1.089542252224314
 20
4.2493131868
 30
0.0
 40
0.2285277901
100
AcDbArc
 50
356.6879448861
 51
0.9190308757000002
  0
ARC
  5
CB2
330
21D
100
AcDbEntity
  8
0
  6
Continuous
 62
     7
100
AcDbCircle
 10
1.115781074324317
 20
4.206498704599997
 30
0.0
 40
0.192817088
100
AcDbArc
 50
313.5723193244
 51
313.9463877788
  0
ARC
  5
CB3
330
21D
100
AcDbEntity
  8
0
  6
Continuous
 62
     7
100
AcDbCircle
 10
1.116472913224314
 20
4.2057688868
 30
0.0
 40
0.1918114652
100
AcDbArc
 50
312.8044930573
 51
313.4741942583
  0
ARC
  5
CB4
330
21D
100
AcDbEntity
  8
0
  6
Continuous
 62
     7
100
AcDbCircle
 10
1.080180086824314
 20
3.898100366099997
 30
0.0
 40
0.1296126319
100
AcDbArc
 50
171.137495818
 51
174.5573299369
  0
ARC
  5
CB5
330
21D
100
AcDbEntity
  8
0
  6
Continuous
 62
     7
100
AcDbCircle
 10
1.068060553424315
 20
3.899424732299997
 30
0.0
 40
0.1174222438
100
AcDbArc
 50
174.6397252034999
 51
175.7953440285
  0
ARC
  5
CB6
330
21D
100
AcDbEntity
  8
0
  6
Continuous
 62
     7
100
AcDbCircle
 10
1.212400227024315
 20
4.202115673499998
 30
0.0
 40
0.1004040646
100
AcDbArc
 50
332.5329261001
 51
348.6895350816
  0
ARC
  5
CB7
330
21D
100
AcDbEntity
  8
0
  6
Continuous
 62
     7
100
AcDbCircle
 10
0.8908259082243166
 20
3.920790054499997
 30
0.0
 40
0.0613493154
100
AcDbArc
 50
350.9408081062001
 51
357.4579377874
  0
ARC
  5
CB8
330
21D
100
AcDbEntity
  8
0
  6
Continuous
 62
     7
100
AcDbCircle
 10
11.64741103622431
 20
1.5081596231
 30
0.0
 40
13.0016141811
100
AcDbArc
 50
179.2000022696
 51
179.3540339513
  0
ARC
  5
CB9
330
21D
100
AcDbEntity
  8
0
  6
Continuous
 62
     7
100
AcDbCircle
 10
-161.2118441524756
 20
13.6307273187
 30
0.0
 40
162.8002015457
100
AcDbArc
 50
356.6977743378
 51
357.2187639864
  0
ARC
  5
CBA
330
21D
100
AcDbEntity
  8
0
  6
Continuous
 62
     7
100
AcDbCircle
 10
-1.400424066075682
 20
32.8294057024
 30
0.0
 40
31.0859879139
100
AcDbArc
 50
271.7871737676999
 51
273.3107416876
  0
ARC
  5
CBB
330
21D
100
AcDbEntity
  8
0
  6
Continuous
 62
     7
100
AcDbCircle
 10
-1.305463216075682
 20
32.82933177949999
 30
0.0
 40
31.0859138253
100
AcDbArc
 50
266.6892764384
 51
268.2127605118
  0
ARC
  5
CBC
330
21D
100
AcDbEntity
  8
0
  6
Continuous
 62
     7
100
AcDbCircle
 10
-1.380294749575681
 20
19.9106377179
 30
0.0
 40
18.1680173298
100
AcDbArc
 50
271.2402688196
 51
272.4585993753
  0
ARC
  5
CBD
330
21D
100
AcDbEntity
  8
0
  6
Continuous
 62
     7
100
AcDbCircle
 10
-1.325587586975682
 20
19.9105566323
 30
0.0
 40
18.1679362616
100
AcDbArc
 50
267.5413983628
 51
268.7597491589
  0
ARC
  5
CBE
330
21D
100
AcDbEntity
  8
0
  6
Continuous
 62
     7
100
AcDbCircle
 10
-1.324276175975682
 20
16.1947322145
 30
0.0
 40
14.5050706609
100
AcDbArc
 50
269.8887946604
 51
270.0400219535
  0
ARC
  5
CBF
330
21D
100
AcDbEntity
  8
0
  6
Continuous
 62
     7
100
AcDbCircle
 10
-1.321280769075682
 20
14.2899107372
 30
0.0
 40
12.6002746251
100
AcDbArc
 50
269.3830386637
 51
269.5252960896
  0
ARC
  5
CC0
330
21D
100
AcDbEntity
  8
0
  6
Continuous
 62
     7
100
AcDbCircle
 10
-1.326623221675682
 20
13.7517098433
 30
0.0
 40
12.0620485529
100
AcDbArc
 50
269.5318365406
 51
269.8750128333
  0
ARC
  5
CC1
330
21D
100
AcDbEntity
  8
0
  6
Continuous
 62
     7
100
AcDbCircle
 10
-3.046650541075683
 20
6.000590075599999
 30
0.0
 40
0.59800318
100
AcDbArc
 50
90.00121595069996
 51
92.5572925169
  0
ARC
  5
CC2
330
21D
100
AcDbEntity
  8
0
  6
Continuous
 62
     7
100
AcDbCircle
 10
0.3407788257243167
 20
6.000591959199999
 30
0.0
 40
0.5980018051
100
AcDbArc
 50
87.4427210348
 51
89.99880345739995
  0
ARC
  5
CC3
330
21D
100
AcDbEntity
  8
CURVE1
  6
Continuous
 62
     7
100
AcDbCircle
 10
2.151001221724314
 20
6.910645275599999
 30
0.0
 40
0.187007874
100
AcDbArc
 50
0.0
 51
90.0
  0
ARC
  5
CC4
330
21D
100
AcDbEntity
  8
CURVE1
  6
Continuous
 62
     7
100
AcDbCircle
 10
-4.856872794075681
 20
6.910645275599999
 30
0.0
 40
0.187007874
100
AcDbArc
 50
90.0
 51
180.0
  0
ARC
  5
CC5
330
21D
100
AcDbEntity
  8
0
  6
Continuous
 62
     7
100
AcDbCircle
 10
1.538198213424314
 20
6.590655771
 30
0.0
 40
0.0990532788
100
AcDbArc
 50
147.6725593602
 51
147.9885725997
  0
ARC
  5
CC6
330
21D
100
AcDbEntity
  8
0
  6
Continuous
 62
     7
100
AcDbCircle
 10
1.191275997824315
 20
6.585543696699999
 30
0.0
 40
0.0983431271
100
AcDbArc
 50
128.6864877611
 51
176.8959257721
  0
ARC
  5
CC7
330
21D
100
AcDbEntity
  8
0
  6
Continuous
 62
     7
100
AcDbCircle
 10
-3.894961509275683
 20
6.5856724126
 30
0.0
 40
0.0980908163
100
AcDbArc
 50
2.881024023399998
 51
51.1362583989
  0
ARC
  5
CC8
330
21D
100
AcDbEntity
  8
0
  6
Continuous
 62
     7
100
AcDbCircle
 10
-4.243070747775683
 20
6.5912736584
 30
0.0
 40
0.0978828566
100
AcDbArc
 50
2.8436269797
 51
32.01377613509999
  0
ARC
  5
CC9
330
21D
100
AcDbEntity
  8
0
  6
Continuous
 62
     7
100
AcDbCircle
 10
1.537085876324316
 20
6.5913103385
 30
0.0
 40
0.0977631085
100
AcDbArc
 50
147.9682938055999
 51
177.1740407256
  0
ARC
  5
CCA
330
21D
100
AcDbEntity
  8
0
  6
Continuous
 62
     7
100
AcDbCircle
 10
-1.352952982975683
 20
6.223566006299997
 30
0.0
 40
0.0245908088
100
AcDbArc
 50
181.9062205161
 51
270.0400660559
  0
ARC
  5
CCB
330
21D
100
AcDbEntity
  8
0
  6
Continuous
 62
     7
100
AcDbCircle
 10
-1.352918589475684
 20
6.223566006299997
 30
0.0
 40
0.0245908088
100
AcDbArc
 50
269.9599339437
 51
358.0937798564
  0
ARC
  5
CCC
330
21D
100
AcDbEntity
  8
0
  6
Continuous
 62
     7
100
AcDbCircle
 10
197.1396585106243
 20
15.6834932147
 30
0.0
 40
201.4880610407
100
AcDbArc
 50
182.8312098022
 51
183.2521646718999
  0
LINE
  5
E2E
330
21D
100
AcDbEntity
  8
0
  6
Continuous
 62
     7
100
AcDbLine
 10
-0.9312539160756836
 20
1.7467332505
 30
0.0
 11
-0.9297005294756829
 21
1.746757312699998
 31
0.0
  0
LINE
  5
E2F
330
21D
100
AcDbEntity
  8
0
  6
Continuous
 62
     7
100
AcDbLine
 10
-3.569653184775683
 20
2.262425788799999
 30
0.0
 11
-3.569659362075681
 21
2.262544759899999
 31
0.0
  0
LINE
  5
E30
330
21D
100
AcDbEntity
  8
0
  6
Continuous
 62
     7
100
AcDbLine
 10
0.8637804393243165
 20
2.2624326125
 30
0.0
 11
0.8637863018243168
 21
2.262545413999998
 31
0.0
  0
LINE
  5
E31
330
21D
100
AcDbEntity
  8
0
  6
Continuous
 62
     7
100
AcDbLine
 10
-1.77617220947568
 20
1.7467567822
 30
0.0
 11
-1.774693181875683
 21
1.746733854699999
 31
0.0
  0
LINE
  5
E32
330
21D
100
AcDbEntity
  8
0
  6
Continuous
 62
     7
100
AcDbLine
 10
-3.569628384975683
 20
2.261963324099999
 30
0.0
 11
-3.569653184775683
 21
2.262425788799999
 31
0.0
  0
LINE
  5
E33
330
21D
100
AcDbEntity
  8
0
  6
Continuous
 62
     7
100
AcDbLine
 10
0.8637553241243164
 20
2.261963971399997
 30
0.0
 11
0.8637804393243165
 21
2.2624326125
 31
0.0
  0
SPLINE
  5
E34
330
21D
100
AcDbEntity
  8
0
  6
Continuous
 62
     7
100
AcDbSpline
210
0.0
220
0.0
230
1.0
 70
     8
 71
     3
 72
    12
 73
     8
 74
     0
 42
0.0000000001
 43
0.0000000001
 40
0.0
 40
0.0
 40
0.0
 40
0.0
 40
0.2614831416
 40
0.5132262523
 40
0.6322198308
 40
0.7508089538
 40
1.0
 40
1.0
 40
1.0
 40
1.0
 10
-1.786963961875683
 20
1.746945945
 30
0.0
 10
-1.775705208675683
 20
1.745828763899998
 30
0.0
 10
-1.753889792975683
 20
1.740850192199999
 30
0.0
 10
-1.728269490075684
 20
1.7311379138
 30
0.0
 10
-1.70916494197568
 20
1.7219817955
 30
0.0
 10
-1.690756860675683
 20
1.711724704
 30
0.0
 10
-1.677447748975683
 20
1.7029655156
 30
0.0
 10
-1.668575983275682
 20
1.696837937399997
 30
0.0
  0
LINE
  5
E35
330
21D
100
AcDbEntity
  8
0
  6
Continuous
 62
     7
100
AcDbLine
 10
-0.9718951595756831
 20
1.727633324099999
 30
0.0
 11
-0.9726588358756831
 21
1.7272559483
 31
0.0
  0
SPLINE
  5
E36
330
21D
100
AcDbEntity
  8
0
  6
Continuous
 62
     7
100
AcDbSpline
210
0.0
220
0.0
230
1.0
 70
     8
 71
     3
 72
     9
 73
     5
 74
     0
 42
0.0000000001
 43
0.0000000001
 40
0.0
 40
0.0
 40
0.0
 40
0.0
 40
0.5029609967999999
 40
1.0
 40
1.0
 40
1.0
 40
1.0
 10
-0.9778524330756829
 20
1.7246347431
 30
0.0
 10
-0.9874351672756835
 20
1.719713931899998
 30
0.0
 10
-1.006153604775682
 20
1.7092703034
 30
0.0
 10
-1.024288488175683
 20
1.697867889
 30
0.0
 10
-1.033253287975681
 20
1.6921268974
 30
0.0
  0
SPLINE
  5
E37
330
21D
100
AcDbEntity
  8
0
  6
Continuous
 62
     7
100
AcDbSpline
210
0.0
220
0.0
230
1.0
 70
     8
 71
     3
 72
    11
 73
     7
 74
     0
 42
0.0000000001
 43
0.0000000001
 40
0.0
 40
0.0
 40
0.0
 40
0.0
 40
0.2615429572
 40
0.5231849078000002
 40
0.7636628913
 40
1.0
 40
1.0
 40
1.0
 40
1.0
 10
-0.9182684130756831
 20
1.746945459199998
 30
0.0
 10
-0.9299289288756831
 20
1.745699771999998
 30
0.0
 10
-0.9528696546756831
 20
1.739640887599998
 30
0.0
 10
-0.9840707559756838
 20
1.7254197608
 30
0.0
 10
-1.012883234275683
 20
1.7090388937
 30
0.0
 10
-1.03080148307568
 20
1.697368770299999
 30
0.0
 10
-1.039652841775682
 20
1.6915426574
 30
0.0
  0
SPLINE
  5
E38
330
21D
100
AcDbEntity
  8
0
  6
Continuous
 62
     7
100
AcDbSpline
210
0.0
220
0.0
230
1.0
 70
     8
 71
     3
 72
     9
 73
     5
 74
     0
 42
0.0000000001
 43
0.0000000001
 40
0.0
 40
0.0
 40
0.0
 40
0.0
 40
0.2516867913
 40
1.0
 40
1.0
 40
1.0
 40
1.0
 10
-0.9507863334756834
 20
1.737085364199999
 30
0.0
 10
-0.9522552418756832
 20
1.736502680099999
 30
0.0
 10
-0.9580690581756828
 20
1.7341310693
 30
0.0
 10
-0.9637977120756831
 20
1.731553226399998
 30
0.0
 10
-0.9680411541756829
 20
1.7295362386
 30
0.0
  0
LINE
  5
E39
330
21D
100
AcDbEntity
  8
0
  6
Continuous
 62
     7
100
AcDbLine
 10
-0.9680411541756829
 20
1.7295362386
 30
0.0
 11
-0.9688973352756836
 21
1.7291278087
 31
0.0
  0
SPLINE
  5
E3A
330
21D
100
AcDbEntity
  8
0
  6
Continuous
 62
     7
100
AcDbSpline
210
0.0
220
0.0
230
1.0
 70
     8
 71
     3
 72
    10
 73
     6
 74
     0
 42
0.0000000001
 43
0.0000000001
 40
0.0
 40
0.0
 40
0.0
 40
0.0
 40
0.2626046784
 40
0.6296284825000003
 40
1.0
 40
1.0
 40
1.0
 40
1.0
 10
-0.9688973352756836
 20
1.7291278087
 30
0.0
 10
-0.974779717075684
 20
1.7263116349
 30
0.0
 10
-0.9886948652756835
 20
1.719164633
 30
0.0
 10
-1.010248862075683
 20
1.706808364
 30
0.0
 10
-1.025732152275683
 20
1.6970231376
 30
0.0
 10
-1.033476029375681
 20
1.6920594785
 30
0.0
  0
LINE
  5
E3B
330
21D
100
AcDbEntity
  8
0
  6
Continuous
 62
     7
100
AcDbLine
 10
-1.745887525475683
 20
1.7353671036
 30
0.0
 11
-1.745592359075683
 21
1.735254552599998
 31
0.0
  0
LINE
  5
E3C
330
21D
100
AcDbEntity
  8
0
  6
Continuous
 62
     7
100
AcDbLine
 10
-1.745592359075683
 20
1.735254552599998
 30
0.0
 11
-1.745039179475681
 21
1.735042624
 31
0.0
  0
SPLINE
  5
E3D
330
21D
100
AcDbEntity
  8
0
  6
Continuous
 62
     7
100
AcDbSpline
210
0.0
220
0.0
230
1.0
 70
     8
 71
     3
 72
     9
 73
     5
 74
     0
 42
0.0000000001
 43
0.0000000001
 40
0.0
 40
0.0
 40
0.0
 40
0.0
 40
0.4940976778000001
 40
1.0
 40
1.0
 40
1.0
 40
1.0
 10
-1.745039179475681
 20
1.735042624
 30
0.0
 10
-1.732857197775683
 20
1.7303613356
 30
0.0
 10
-1.708802683075683
 20
1.719221727899999
 30
0.0
 10
-1.686417194775684
 20
1.705118500999998
 30
0.0
 10
-1.675321125975681
 20
1.6976735216
 30
0.0
  0
LINE
  5
E3E
330
21D
100
AcDbEntity
  8
0
  6
Continuous
 62
     7
100
AcDbLine
 10
-1.675321125975681
 20
1.6976735216
 30
0.0
 11
-1.675056674075683
 21
1.6974959935
 31
0.0
  0
SPLINE
  5
E3F
330
21D
100
AcDbEntity
  8
0
  6
Continuous
 62
     7
100
AcDbSpline
210
0.0
220
0.0
230
1.0
 70
     8
 71
     3
 72
    11
 73
     7
 74
     0
 42
0.0000000001
 43
0.0000000001
 40
0.0
 40
0.0
 40
0.0
 40
0.0
 40
0.2606805138
 40
0.522555177
 40
0.7636131425000002
 40
1.0
 40
1.0
 40
1.0
 40
1.0
 10
-0.9202873220756837
 20
1.746916490099998
 30
0.0
 10
-0.9320258315756831
 20
1.745911246899999
 30
0.0
 10
-0.9552220154756827
 20
1.740072380999998
 30
0.0
 10
-0.9867128259756832
 20
1.7258215312
 30
0.0
 10
-1.015753477775682
 20
1.709219379699999
 30
0.0
 10
-1.033770578375681
 20
1.6973364544
 30
0.0
 10
-1.042665280275683
 20
1.6914185255
 30
0.0
  0
LINE
  5
E40
330
21D
100
AcDbEntity
  8
0
  6
Continuous
 62
     7
100
AcDbLine
 10
-3.569517178575683
 20
2.2599150908
 30
0.0
 11
-3.569500759075683
 21
2.2596250519
 31
0.0
  0
SPLINE
  5
E41
330
21D
100
AcDbEntity
  8
0
  6
Continuous
 62
     7
100
AcDbSpline
210
0.0
220
0.0
230
1.0
 70
     8
 71
     3
 72
    15
 73
    11
 74
     0
 42
0.0000000001
 43
0.0000000001
 40
0.0
 40
0.0
 40
0.0
 40
0.0
 40
0.1243595889
 40
0.2488236645
 40
0.3734745579
 40
0.4983527873
 40
0.6234759564
 40
0.7488252979000001
 40
0.8743532652
 40
1.0
 40
1.0
 40
1.0
 40
1.0
 10
-3.569500759075683
 20
2.2596250519
 30
0.0
 10
-3.56780245957568
 20
2.2297849933
 30
0.0
 10
-3.558831265675681
 20
2.1702584513
 30
0.0
 10
-3.529399939875683
 20
2.0849485793
 30
0.0
 10
-3.484716419175683
 20
2.0063706946
 30
0.0
 10
-3.426496931975683
 20
1.937026176699998
 30
0.0
 10
-3.356459814075683
 20
1.879381796999999
 30
0.0
 10
-3.277098996375681
 20
1.8351239221
 30
0.0
 10
-3.190942236875683
 20
1.8059436119
 30
0.0
 10
-3.130851036375681
 20
1.7970132527
 30
0.0
 10
-3.100702003175682
 20
1.7952995591
 30
0.0
  0
LINE
  5
E42
330
21D
100
AcDbEntity
  8
0
  6
Continuous
 62
     7
100
AcDbLine
 10
-3.833412420475683
 20
6.6620498851
 30
0.0
 11
-3.835679345075681
 21
6.6623074021
 31
0.0
  0
SPLINE
  5
E43
330
21D
100
AcDbEntity
  8
0
  6
Continuous
 62
     7
100
AcDbSpline
210
0.0
220
0.0
230
1.0
 70
     8
 71
     3
 72
    30
 73
    26
 74
     0
 42
0.0000000001
 43
0.0000000001
 40
0.0
 40
0.0
 40
0.0
 40
0.0
 40
0.0264729988
 40
0.0545705225
 40
0.0831302675
 40
0.1117596421
 40
0.1683496302
 40
0.2235707738
 40
0.3289492556
 40
0.4270059579
 40
0.5174756815000002
 40
0.6002528369000001
 40
0.6752925505
 40
0.7425687699
 40
0.8020599755999999
 40
0.8537559491999997
 40
0.8976497943
 40
0.9337342997
 40
0.9620036626
 40
0.9732079233
 40
0.9824593393
 40
0.9897589476
 40
0.9951087622999999
 40
0.9985140098999998
 40
1.0
 40
1.0
 40
1.0
 40
1.0
 10
-3.835677070475681
 20
6.662305581
 30
0.0
 10
-3.838608863975681
 20
6.661649892299996
 30
0.0
 10
-3.844781103875681
 20
6.6609284709
 30
0.0
 10
-3.854189878875682
 20
6.6603169903
 30
0.0
 10
-3.863863471575683
 20
6.659937480299997
 30
0.0
 10
-3.876771401275683
 20
6.6596321545
 30
0.0
 10
-3.892708215775681
 20
6.659425570399999
 30
0.0
 10
-3.917355039275683
 20
6.659293193099999
 30
0.0
 10
-3.946708215075683
 20
6.659304937199999
 30
0.0
 10
-3.980061013575683
 20
6.659432753099999
 30
0.0
 10
-4.010848681375683
 20
6.659616935099997
 30
0.0
 10
-4.039024038575683
 20
6.659831872699997
 30
0.0
 10
-4.064567081575683
 20
6.660067253099999
 30
0.0
 10
-4.087467287275684
 20
6.6603172688
 30
0.0
 10
-4.107718137475683
 20
6.6605757195
 30
0.0
 10
-4.125315064675683
 20
6.6608406511
 30
0.0
 10
-4.140255605275683
 20
6.661109475599999
 30
0.0
 10
-4.152536284075683
 20
6.6613814475
 30
0.0
 10
-4.161108894875683
 20
6.6616188872
 30
0.0
 10
-4.166632743975681
 20
6.6618209419
 30
0.0
 10
-4.16978379827568
 20
6.661953897999999
 30
0.0
 10
-4.172254196375681
 20
6.662102611399999
 30
0.0
 10
-4.174097930775682
 20
6.6622071635
 30
0.0
 10
-4.17520291717568
 20
6.6623880745
 30
0.0
 10
-4.175811357275684
 20
6.6624259122
 30
0.0
 10
-4.175934458975683
 20
6.662541165399999
 30
0.0
  0
SPLINE
  5
E44
330
21D
100
AcDbEntity
  8
0
  6
Continuous
 62
     7
100
AcDbSpline
210
0.0
220
0.0
230
1.0
 70
     8
 71
     3
 72
    16
 73
    12
 74
     0
 42
0.0000000001
 43
0.0000000001
 40
0.0
 40
0.0
 40
0.0
 40
0.0
 40
0.1850806048
 40
0.3640132519
 40
0.5304453603
 40
0.6787666563000001
 40
0.8038098312999998
 40
0.9013499366999999
 40
0.9385684107999999
 40
0.9676221606
 40
1.0
 40
1.0
 40
1.0
 40
1.0
 10
-3.076851863175682
 20
6.660347406499997
 30
0.0
 10
-3.123521610675683
 20
6.661074128099999
 30
0.0
 10
-3.215320586175683
 20
6.661855587899999
 30
0.0
 10
-3.349092861375681
 20
6.6621983002
 30
0.0
 10
-3.473595509575681
 20
6.6622232474
 30
0.0
 10
-3.584507470075683
 20
6.662121839199999
 30
0.0
 10
-3.678046080175682
 20
6.662125910299997
 30
0.0
 10
-3.743564647775683
 20
6.662151204799996
 30
0.0
 10
-3.784877467975681
 20
6.6622204361
 30
0.0
 10
-3.809753597975681
 20
6.6622070724
 30
0.0
 10
-3.825252144575681
 20
6.662337834199999
 30
0.0
 10
-3.833412420475683
 20
6.6620498851
 30
0.0
  0
SPLINE
  5
E45
330
21D
100
AcDbEntity
  8
0
  6
Continuous
 62
     7
100
AcDbSpline
210
0.0
220
0.0
230
1.0
 70
     8
 71
     3
 72
    16
 73
    12
 74
     0
 42
0.0000000001
 43
0.0000000001
 40
0.0
 40
0.0
 40
0.0
 40
0.0
 40
0.0323778812
 40
0.0614316466
 40
0.0986501313
 40
0.1961902467
 40
0.3212334198
 40
0.4695547005
 40
0.6359867847000002
 40
0.8149194097
 40
1.0
 40
1.0
 40
1.0
 40
1.0
 10
1.127540676724315
 20
6.6620506294
 30
0.0
 10
1.119380388424314
 20
6.662338575499999
 30
0.0
 10
1.103881824124316
 20
6.662207807899999
 30
0.0
 10
1.079005671624315
 20
6.6622211649
 30
0.0
 10
1.037692833524314
 20
6.6621519233
 30
0.0
 10
0.9721742471243164
 20
6.662126610399999
 30
0.0
 10
0.8786356188243168
 20
6.6621225085
 30
0.0
 10
0.7677236449243166
 20
6.6622238812
 30
0.0
 10
0.6432209856243169
 20
6.662198898699998
 30
0.0
 10
0.5094486972243164
 20
6.6618561483
 30
0.0
 10
0.417649711524317
 20
6.6610746595
 30
0.0
 10
0.3709799578243165
 20
6.660347923799997
 30
0.0
  0
LINE
  5
E46
330
21D
100
AcDbEntity
  8
0
  6
Continuous
 62
     7
100
AcDbLine
 10
1.129805838024315
 20
6.6623081621
 30
0.0
 11
1.127540676724315
 21
6.6620506294
 31
0.0
  0
SPLINE
  5
E47
330
21D
100
AcDbEntity
  8
0
  6
Continuous
 62
     7
100
AcDbSpline
210
0.0
220
0.0
230
1.0
 70
     8
 71
     3
 72
    18
 73
    14
 74
     0
 42
0.0000000001
 43
0.0000000001
 40
0.0
 40
0.0
 40
0.0
 40
0.0
 40
0.0146331688
 40
0.0372734819
 40
0.0677810586
 40
0.1059869105
 40
0.1516252097
 40
0.2042492465
 40
0.328673989
 40
0.4754452788
 40
0.6397175091
 40
0.8164279898
 40
1.0
 40
1.0
 40
1.0
 40
1.0
 10
1.091120274124316
 20
6.5906034025
 30
0.0
 10
1.087681358124314
 20
6.589799270599999
 30
0.0
 10
1.078719569124314
 20
6.588724609299999
 30
0.0
 10
1.062414767124316
 20
6.587542567499999
 30
0.0
 10
1.040376720824314
 20
6.586644676499997
 30
0.0
 10
1.012788258624314
 20
6.585968955499999
 30
0.0
 10
0.9798534269243166
 20
6.585537058099999
 30
0.0
 10
0.9261091489243169
 20
6.5852563871
 30
0.0
 10
0.8479548690243166
 20
6.5855799673
 30
0.0
 10
0.7428626282243167
 20
6.5868545719
 30
0.0
 10
0.6251660486243164
 20
6.589183039699999
 30
0.0
 10
0.4986139242243164
 20
6.592717763799997
 30
0.0
 10
0.4117209253243166
 20
6.5960213534
 30
0.0
 10
0.3674603941243166
 20
6.597998624799996
 30
0.0
  0
LINE
  5
E48
330
21D
100
AcDbEntity
  8
0
  6
Continuous
 62
     7
100
AcDbLine
 10
1.093077872924316
 20
6.5908727623
 30
0.0
 11
1.091122849224315
 21
6.590603187799997
 31
0.0
  0
LINE
  5
E49
330
21D
100
AcDbEntity
  8
0
  6
Continuous
 62
     7
100
AcDbLine
 10
-3.796994614975683
 20
6.5906024558
 30
0.0
 11
-3.798949092875683
 21
6.5908720234
 31
0.0
  0
SPLINE
  5
E4A
330
21D
100
AcDbEntity
  8
0
  6
Continuous
 62
     7
100
AcDbSpline
210
0.0
220
0.0
230
1.0
 70
     8
 71
     3
 72
    18
 73
    14
 74
     0
 42
0.0000000001
 43
0.0000000001
 40
0.0
 40
0.0
 40
0.0
 40
0.0
 40
0.1835720255
 40
0.3602825267
 40
0.5245547806000001
 40
0.6713260858
 40
0.7957508337000001
 40
0.848374869
 40
0.8940131576
 40
0.9322189918999999
 40
0.9627265543
 40
0.9853668523999999
 40
1.0
 40
1.0
 40
1.0
 40
1.0
 10
-3.073332312075681
 20
6.5979981086
 30
0.0
 10
-3.117592837275683
 20
6.596020824299999
 30
0.0
 10
-3.204485825875681
 20
6.592717210599999
 30
0.0
 10
-3.331037937275683
 20
6.589182447299996
 30
0.0
 10
-3.448734506175683
 20
6.5868539424
 30
0.0
 10
-3.553826735575682
 20
6.585579306599997
 30
0.0
 10
-3.631981003875683
 20
6.585255703699997
 30
0.0
 10
-3.685725269175683
 20
6.5855363582
 30
0.0
 10
-3.718660087075681
 20
6.585968245499999
 30
0.0
 10
-3.74624853347568
 20
6.586643958099999
 30
0.0
 10
-3.768286564175683
 20
6.5875418419
 30
0.0
 10
-3.784591350775681
 20
6.588723878799997
 30
0.0
 10
-3.793553129675681
 20
6.5897985374
 30
0.0
 10
-3.79699203967568
 20
6.590602669199999
 30
0.0
  0
SPLINE
  5
E4B
330
21D
100
AcDbEntity
  8
0
  6
Continuous
 62
     7
100
AcDbSpline
210
0.0
220
0.0
230
1.0
 70
     8
 71
     3
 72
    11
 73
     7
 74
     0
 42
0.0000000001
 43
0.0000000001
 40
0.0
 40
0.0
 40
0.0
 40
0.0
 40
0.2628105611
 40
0.5235228588
 40
0.7628981049
 40
1.0
 40
1.0
 40
1.0
 40
1.0
 10
-0.9291290465756834
 20
1.7459213661
 30
0.0
 10
-0.9401656222756836
 20
1.7442055756
 30
0.0
 10
-0.9616861980756832
 20
1.737802423699999
 30
0.0
 10
-0.9910351208756836
 20
1.7239284705
 30
0.0
 10
-1.018148016875682
 20
1.708172264499999
 30
0.0
 10
-1.035034029675683
 20
1.696988731999999
 30
0.0
 10
-1.04341664227568
 20
1.6913968712
 30
0.0
  0
SPLINE
  5
E4C
330
21D
100
AcDbEntity
  8
0
  6
Continuous
 62
     7
100
AcDbSpline
210
0.0
220
0.0
230
1.0
 70
     8
 71
     3
 72
    30
 73
    26
 74
     0
 42
0.0000000001
 43
0.0000000001
 40
0.0
 40
0.0
 40
0.0
 40
0.0
 40
0.0014859825
 40
0.0048912206
 40
0.0102410252
 40
0.0175406239
 40
0.026792032
 40
0.037996288
 40
0.0662656553
 40
0.1023501831
 40
0.1462440401
 40
0.1979399988
 40
0.2574312065
 40
0.3247074714
 40
0.3997472021
 40
0.4825243219
 40
0.572994084
 40
0.6710508146000001
 40
0.7764293782
 40
0.8316505979
 40
0.8882406040999999
 40
0.9168700244
 40
0.9454298167000001
 40
0.9735273408000001
 40
1.0
 40
1.0
 40
1.0
 40
1.0
 10
1.470064666124314
 20
6.6625420332
 30
0.0
 10
1.469941564524314
 20
6.6624267784
 30
0.0
 10
1.469333119324314
 20
6.662388938999997
 30
0.0
 10
1.468228125124315
 20
6.662208022
 30
0.0
 10
1.466384373824315
 20
6.6621034637
 30
0.0
 10
1.463913952524316
 20
6.661954742299996
 30
0.0
 10
1.460762866624316
 20
6.6618217783
 30
0.0
 10
1.455238958624315
 20
6.6616197126
 30
0.0
 10
1.446666251924316
 20
6.6613822639
 30
0.0
 10
1.434385434924314
 20
6.6611102915
 30
0.0
 10
1.419444729124315
 20
6.660841470199997
 30
0.0
 10
1.401847610124316
 20
6.6605765408
 30
0.0
 10
1.381596535624316
 20
6.660318079199999
 30
0.0
 10
1.358696073224314
 20
6.660068031499997
 30
0.0
 10
1.333152748924314
 20
6.659832635499999
 30
0.0
 10
1.304977082124314
 20
6.6596177209
 30
0.0
 10
1.274189075424314
 20
6.659433508099999
 30
0.0
 10
1.240835896524316
 20
6.6593056789
 30
0.0
 10
1.211482379724315
 20
6.6592939169
 30
0.0
 10
1.186835267424314
 20
6.659426252799997
 30
0.0
 10
1.170898263124314
 20
6.659632845499999
 30
0.0
 10
1.157990180224314
 20
6.659938153099999
 30
0.0
 10
1.148316469024314
 20
6.6603176484
 30
0.0
 10
1.138907630124314
 20
6.660929133499996
 30
0.0
 10
1.132735348024316
 20
6.661650558599996
 30
0.0
 10
1.129803585324314
 20
6.6623063585
 30
0.0
  0
SPLINE
  5
E4D
330
21D
100
AcDbEntity
  8
0
  6
Continuous
 62
     7
100
AcDbSpline
210
0.0
220
0.0
230
1.0
 70
     8
 71
     3
 72
    11
 73
     7
 74
     0
 42
0.0000000001
 43
0.0000000001
 40
0.0
 40
0.0
 40
0.0
 40
0.0
 40
0.2620200025
 40
0.5115582215
 40
0.7493701744
 40
1.0
 40
1.0
 40
1.0
 40
1.0
 10
-1.774828014675683
 20
1.745795715399999
 30
0.0
 10
-1.764317080675681
 20
1.7442207712
 30
0.0
 10
-1.74413333587568
 20
1.7389255786
 30
0.0
 10
-1.715827607675683
 20
1.7277127149
 30
0.0
 10
-1.689422174875684
 20
1.713473470099998
 30
0.0
 10
-1.67296573937568
 20
1.702408754399999
 30
0.0
 10
-1.664638120575681
 20
1.6965775019
 30
0.0
  0
SPLINE
  5
E4E
330
21D
100
AcDbEntity
  8
0
  6
Continuous
 62
     7
100
AcDbSpline
210
0.0
220
0.0
230
1.0
 70
     8
 71
     3
 72
    10
 73
     6
 74
     0
 42
0.0000000001
 43
0.0000000001
 40
0.0
 40
0.0
 40
0.0
 40
0.0
 40
0.5000148490000002
 40
0.7500153879000001
 40
1.0
 40
1.0
 40
1.0
 40
1.0
 10
0.9521148546243164
 20
3.918068604499998
 30
0.0
 10
0.9754113793243167
 20
4.35443419
 30
0.0
 10
1.010128305124314
 20
5.008988720599997
 30
0.0
 10
1.056031987224314
 20
5.8817304532
 30
0.0
 10
1.078764446424314
 20
6.318099809299999
 30
0.0
 10
1.090185092924314
 20
6.5362746707
 30
0.0
  0
LINE
  5
E4F
330
21D
100
AcDbEntity
  8
0
  6
Continuous
 62
     7
100
AcDbLine
 10
1.090185092924314
 20
6.5362746707
 30
0.0
 11
1.090199508524315
 21
6.5365500552
 31
0.0
  0
SPLINE
  5
E50
330
21D
100
AcDbEntity
  8
0
  6
Continuous
 62
     7
100
AcDbSpline
210
0.0
220
0.0
230
1.0
 70
     8
 71
     3
 72
    14
 73
    10
 74
     0
 42
0.0000000001
 43
0.0000000001
 40
0.0
 40
0.0
 40
0.0
 40
0.0
 40
0.2500537348
 40
0.5000987940999999
 40
0.6251185858000003
 40
0.7501347003
 40
0.8751381948
 40
0.9376198849999999
 40
1.0
 40
1.0
 40
1.0
 40
1.0
 10
1.083471500324314
 20
4.040367609899996
 30
0.0
 10
1.086101053524314
 20
4.2483927313
 30
0.0
 10
1.090322784524315
 20
4.664449562499997
 30
0.0
 10
1.093007675624314
 20
5.184536120999998
 30
0.0
 10
1.093601446824316
 20
5.6005974812
 30
0.0
 10
1.093281248324315
 20
5.9126259896
 30
0.0
 10
1.092352535124314
 20
6.172621969199999
 30
0.0
 10
1.091300639524314
 20
6.3805042496
 30
0.0
 10
1.090601711824314
 20
6.4843856346
 30
0.0
 10
1.090409065824314
 20
6.5362847925
 30
0.0
  0
LINE
  5
E51
330
21D
100
AcDbEntity
  8
0
  6
Continuous
 62
     7
100
AcDbLine
 10
1.090409065824314
 20
6.5362847925
 30
0.0
 11
1.090408051024314
 21
6.5365588969
 31
0.0
  0
LINE
  5
E52
330
21D
100
AcDbEntity
  8
0
  6
Continuous
 62
     7
100
AcDbLine
 10
1.090408051024314
 20
6.5365588969
 30
0.0
 11
1.090394973224315
 21
6.5402393399
 31
0.0
  0
SPLINE
  5
E53
330
21D
100
AcDbEntity
  8
0
  6
Continuous
 62
     7
100
AcDbSpline
210
0.0
220
0.0
230
1.0
 70
     8
 71
     3
 72
    14
 73
    10
 74
     0
 42
0.0000000001
 43
0.0000000001
 40
0.0
 40
0.0
 40
0.0
 40
0.0
 40
0.2500515259
 40
0.5000963312
 40
0.6251167812000002
 40
0.7501340574
 40
0.8751390412999999
 40
0.9376212789
 40
1.0
 40
1.0
 40
1.0
 40
1.0
 10
1.087928433024314
 20
4.040435787099998
 30
0.0
 10
1.090230362724314
 20
4.2484567737
 30
0.0
 10
1.093775234524315
 20
4.664505596799997
 30
0.0
 10
1.095560030524316
 20
5.184579166699998
 30
0.0
 10
1.095401399824315
 20
5.600629878799997
 30
0.0
 10
1.094500944124314
 20
5.9126507511
 30
0.0
 10
1.093075038724314
 20
6.1726394278
 30
0.0
 10
1.091618812824314
 20
6.3805136286
 30
0.0
 10
1.090714489024314
 20
6.484389644099997
 30
0.0
 10
1.090421526224314
 20
6.5362856312
 30
0.0
  0
LINE
  5
E54
330
21D
100
AcDbEntity
  8
0
  6
Continuous
 62
     7
100
AcDbLine
 10
1.090421526224314
 20
6.5362856312
 30
0.0
 11
1.090419981824314
 21
6.5365596949
 31
0.0
  0
LINE
  5
E55
330
21D
100
AcDbEntity
  8
0
  6
Continuous
 62
     7
100
AcDbLine
 10
1.090419981824314
 20
6.5365596949
 30
0.0
 11
1.090399360024314
 21
6.5403221384
 31
0.0
  0
SPLINE
  5
E56
330
21D
100
AcDbEntity
  8
0
  6
Continuous
 62
     7
100
AcDbSpline
210
0.0
220
0.0
230
1.0
 70
     8
 71
     3
 72
    16
 73
    12
 74
     0
 42
0.0000000001
 43
0.0000000001
 40
0.0
 40
0.0
 40
0.0
 40
0.0
 40
0.2499958485
 40
0.5000317718
 40
0.6250669857
 40
0.7501115977
 40
0.8126346155
 40
0.8751527621999999
 40
0.9376492627000001
 40
0.9688676009999998
 40
1.0
 40
1.0
 40
1.0
 40
1.0
 10
1.161240597324314
 20
4.0305460732
 30
0.0
 10
1.158440921324314
 20
4.2394274236
 30
0.0
 10
1.151285884924314
 20
4.6572043213
 30
0.0
 10
1.138454325124314
 20
5.179366621199998
 30
0.0
 10
1.125863466224314
 20
5.597081579299999
 30
0.0
 10
1.117028387224314
 20
5.858148207
 30
0.0
 10
1.109385832324315
 20
6.066983756799999
 30
0.0
 10
1.103375657124314
 20
6.223577705499999
 30
0.0
 10
1.098138644924316
 20
6.354023216399999
 30
0.0
 10
1.093869068524314
 20
6.458259900999999
 30
0.0
 10
1.091721627824314
 20
6.510316898999997
 30
0.0
 10
1.090725311524314
 20
6.5363124919
 30
0.0
  0
LINE
  5
E57
330
21D
100
AcDbEntity
  8
0
  6
Continuous
 62
     7
100
AcDbLine
 10
1.090725311524314
 20
6.5363124919
 30
0.0
 11
1.090714847224314
 21
6.5365856176
 31
0.0
  0
LINE
  5
E58
330
21D
100
AcDbEntity
  8
0
  6
Continuous
 62
     7
100
AcDbLine
 10
1.090714847224314
 20
6.5365856176
 30
0.0
 11
1.090500354224315
 21
6.5422283477
 31
0.0
  0
SPLINE
  5
E59
330
21D
100
AcDbEntity
  8
0
  6
Continuous
 62
     7
100
AcDbSpline
210
0.0
220
0.0
230
1.0
 70
     8
 71
     3
 72
    17
 73
    13
 74
     0
 42
0.0000000001
 43
0.0000000001
 40
0.0
 40
0.0
 40
0.0
 40
0.0
 40
0.2497291418
 40
0.3746828343
 40
0.499700795
 40
0.6247854270000001
 40
0.7499349703
 40
0.8125296667
 40
0.8751282557999997
 40
0.9376998575
 40
0.9689343852
 40
1.0
 40
1.0
 40
1.0
 40
1.0
 10
1.301486768824315
 20
4.1558051768
 30
0.0
 10
1.288923451224314
 20
4.355162653099998
 30
0.0
 10
1.268179292824314
 20
4.6541551903
 30
0.0
 10
1.236735266824314
 20
5.052618072699999
 30
0.0
 10
1.211249298624315
 20
5.3515351609
 30
0.0
 10
1.183868909124314
 20
5.650441692
 30
0.0
 10
1.159482707224315
 20
5.899477406799999
 30
0.0
 10
1.139038432324315
 20
6.0986751045
 30
0.0
 10
1.123252705624314
 20
6.2480325261
 30
0.0
 10
1.109728469824315
 20
6.372404343099999
 30
0.0
 10
1.098789455924314
 20
6.4716855807
 30
0.0
 10
1.093303578824314
 20
6.521215550099999
 30
0.0
 10
1.090696320624314
 20
6.5459271023
 30
0.0
  0
SPLINE
  5
E5A
330
21D
100
AcDbEntity
  8
0
  6
Continuous
 62
     7
100
AcDbSpline
210
0.0
220
0.0
230
1.0
 70
     8
 71
     3
 72
    17
 73
    13
 74
     0
 42
0.0000000001
 43
0.0000000001
 40
0.0
 40
0.0
 40
0.0
 40
0.0
 40
0.2496453097
 40
0.3745859009000001
 40
0.4996115781000002
 40
0.6247253944
 40
0.7499242489000002
 40
0.8125490583999999
 40
0.8751776143999999
 40
0.9377666633
 40
0.9689916533999999
 40
1.0
 40
1.0
 40
1.0
 40
1.0
 10
1.305333772124315
 20
4.435199804499998
 30
0.0
 10
1.292590973724314
 20
4.611483347
 30
0.0
 10
1.271522185224315
 20
4.875856545199999
 30
0.0
 10
1.239543209624314
 20
5.228124325099999
 30
0.0
 10
1.213600159724314
 20
5.4924052513
 30
0.0
 10
1.185710150724314
 20
5.7566713085
 30
0.0
 10
1.160857181624316
 20
5.9768280749
 30
0.0
 10
1.140015946224316
 20
6.152914077799997
 30
0.0
 10
1.123925247024315
 20
6.2849257133
 30
0.0
 10
1.110143041224314
 20
6.394823110099999
 30
0.0
 10
1.099013614624314
 20
6.4824908646
 30
0.0
 10
1.093447319624314
 20
6.526198086099999
 30
0.0
 10
1.090805712824314
 20
6.547991817699997
 30
0.0
  0
LINE
  5
E5B
330
21D
100
AcDbEntity
  8
0
  6
Continuous
 62
     7
100
AcDbLine
 10
1.318041103124314
 20
4.2529783636
 30
0.0
 11
1.305333772124315
 21
4.435199804499998
 31
0.0
  0
SPLINE
  5
E5C
330
21D
100
AcDbEntity
  8
0
  6
Continuous
 62
     7
100
AcDbSpline
210
0.0
220
0.0
230
1.0
 70
     8
 71
     3
 72
    12
 73
     8
 74
     0
 42
0.0000000001
 43
0.0000000001
 40
0.0
 40
0.0
 40
0.0
 40
0.0
 40
0.2365492492
 40
0.4802987310000001
 40
0.7353288309
 40
0.8679236852999999
 40
1.0
 40
1.0
 40
1.0
 40
1.0
 10
1.396635036924314
 20
5.732058240399999
 30
0.0
 10
1.391376610224315
 20
5.803258349299999
 30
0.0
 10
1.370143574924314
 20
5.9472414919
 30
0.0
 10
1.307542816324315
 20
6.1608012557
 30
0.0
 10
1.230894034224315
 20
6.335822007099999
 30
0.0
 10
1.155961489324314
 20
6.473678777599999
 30
0.0
 10
1.114093046924314
 20
6.541769048799999
 30
0.0
 10
1.092242446224314
 20
6.575109342999999
 30
0.0
  0
SPLINE
  5
E5D
330
21D
100
AcDbEntity
  8
0
  6
Continuous
 62
     7
100
AcDbSpline
210
0.0
220
0.0
230
1.0
 70
     8
 71
     3
 72
    14
 73
    10
 74
     0
 42
0.0000000001
 43
0.0000000001
 40
0.0
 40
0.0
 40
0.0
 40
0.0
 40
0.236587937
 40
0.4803674653
 40
0.7353829639000003
 40
0.8679452318999999
 40
0.9351389272
 40
0.9684613735999999
 40
1.0
 40
1.0
 40
1.0
 40
1.0
 10
-4.102505135375681
 20
5.732057531799999
 30
0.0
 10
-4.097155994575683
 20
5.8032446485
 30
0.0
 10
-4.075787179875684
 20
5.9471860823
 30
0.0
 10
-4.013130717675681
 20
6.160685027599997
 30
0.0
 10
-3.936535554975683
 20
6.335660527199999
 30
0.0
 10
-3.871058505175682
 20
6.45631573
 30
0.0
 10
-3.835019206275683
 20
6.5167191944
 30
0.0
 10
-3.813919607975683
 20
6.550522118499999
 30
0.0
 10
-3.803280417475682
 20
6.5669494119
 30
0.0
 10
-3.798104849975683
 20
6.574935400000001
 30
0.0
  0
SPLINE
  5
E5E
330
21D
100
AcDbEntity
  8
0
  6
Continuous
 62
     7
100
AcDbSpline
210
0.0
220
0.0
230
1.0
 70
     8
 71
     3
 72
    17
 73
    13
 74
     0
 42
0.0000000001
 43
0.0000000001
 40
0.0
 40
0.0
 40
0.0
 40
0.0
 40
0.2496155134
 40
0.3745425336999999
 40
0.4995565452000001
 40
0.6246617154000002
 40
0.7498571104
 40
0.8124836704999999
 40
0.8751181929000001
 40
0.9377231413
 40
0.9689643248000001
 40
1.0
 40
1.0
 40
1.0
 40
1.0
 10
-4.023912077175682
 20
4.252973320299997
 30
0.0
 10
-4.010803093675683
 20
4.444405056299999
 30
0.0
 10
-3.988925714775684
 20
4.731499411999998
 30
0.0
 10
-3.955348667275683
 20
5.1140414641
 30
0.0
 10
-3.927946473375683
 20
5.401038265199998
 30
0.0
 10
-3.898336369875682
 20
5.688022650199997
 30
0.0
 10
-3.871833641875682
 20
5.927108580499999
 30
0.0
 10
-3.849541517675683
 20
6.118340520299997
 30
0.0
 10
-3.832295097975681
 20
6.261720406799999
 30
0.0
 10
-3.817492189375681
 20
6.381093449999998
 30
0.0
 10
-3.805513981175683
 20
6.4763399548
 30
0.0
 10
-3.799500017175683
 20
6.5238335123
 30
0.0
 10
-3.796652580675683
 20
6.547520176499997
 30
0.0
  0
SPLINE
  5
E5F
330
21D
100
AcDbEntity
  8
0
  6
Continuous
 62
     7
100
AcDbSpline
210
0.0
220
0.0
230
1.0
 70
     8
 71
     3
 72
    17
 73
    13
 74
     0
 42
0.0000000001
 43
0.0000000001
 40
0.0
 40
0.0
 40
0.0
 40
0.0
 40
0.2498973621
 40
0.3748892068
 40
0.4999121356
 40
0.6249669361
 40
0.7500514096
 40
0.8126013165000001
 40
0.8751494822999998
 40
0.937673754
 40
0.9688975549
 40
1.0
 40
1.0
 40
1.0
 40
1.0
 10
-3.943427986275683
 20
4.0639582338
 30
0.0
 10
-3.934932783875681
 20
4.270701439899998
 30
0.0
 10
-3.920765291175681
 20
4.580795972899998
 30
0.0
 10
-3.899030096075683
 20
4.9941584482
 30
0.0
 10
-3.881303982375681
 20
5.304214931199997
 30
0.0
 10
-3.862157116775683
 20
5.614263603999998
 30
0.0
 10
-3.845023124175683
 20
5.8726069785
 30
0.0
 10
-3.830614173575683
 20
6.079259195199997
 30
0.0
 10
-3.819468667675681
 20
6.2342122907
 30
0.0
 10
-3.809901483975681
 20
6.363273239299999
 30
0.0
 10
-3.802159088175681
 20
6.4663603546
 30
0.0
 10
-3.798273196175683
 20
6.5178208441
 30
0.0
 10
-3.796440079075683
 20
6.5435086752
 30
0.0
  0
SPLINE
  5
E60
330
21D
100
AcDbEntity
  8
0
  6
Continuous
 62
     7
100
AcDbSpline
210
0.0
220
0.0
230
1.0
 70
     8
 71
     3
 72
    14
 73
    10
 74
     0
 42
0.0000000001
 43
0.0000000001
 40
0.0
 40
0.0
 40
0.0
 40
0.0
 40
0.2500487049
 40
0.5000913844000002
 40
0.6251108956
 40
0.7501273590000001
 40
0.8751321098
 40
0.9376152375
 40
1.0
 40
1.0
 40
1.0
 40
1.0
 10
-3.793798591375681
 20
4.040396818899997
 30
0.0
 10
-3.795985269875683
 20
4.248416668099999
 30
0.0
 10
-3.799357346075683
 20
4.6644625247
 30
0.0
 10
-3.801070407375683
 20
5.184531106899997
 30
0.0
 10
-3.800940829375683
 20
5.600578496499998
 30
0.0
 10
-3.800104863575683
 20
5.9125978086
 30
0.0
 10
-3.798769172775683
 20
6.1725867637
 30
0.0
 10
-3.797403106075683
 20
6.380467116699999
 30
0.0
 10
-3.796552103975681
 20
6.484349316
 30
0.0
 10
-3.796278997775683
 20
6.536250429299999
 30
0.0
  0
SPLINE
  5
E61
330
21D
100
AcDbEntity
  8
0
  6
Continuous
 62
     7
100
AcDbSpline
210
0.0
220
0.0
230
1.0
 70
    24
 71
     3
 72
     8
 73
     4
 74
     0
 42
0.0000000001
 43
0.0000000001
 40
0.0
 40
0.0
 40
0.0
 40
0.0
 40
1.0
 40
1.0
 40
1.0
 40
1.0
 10
-3.796278997775683
 20
6.536250429299999
 30
0.0
 10
-3.796278946775683
 20
6.536260133899999
 30
0.0
 10
-3.796278895675681
 20
6.536269838399999
 30
0.0
 10
-3.796278844675683
 20
6.536279542999999
 30
0.0
  0
LINE
  5
E62
330
21D
100
AcDbEntity
  8
0
  6
Continuous
 62
     7
100
AcDbLine
 10
-3.796278844675683
 20
6.536279542999999
 30
0.0
 11
-3.79627749587568
 21
6.5365364158
 31
0.0
  0
LINE
  5
E63
330
21D
100
AcDbEntity
  8
0
  6
Continuous
 62
     7
100
AcDbLine
 10
-3.79627749587568
 20
6.5365364158
 30
0.0
 11
-3.796259302775683
 21
6.540096070199997
 31
0.0
  0
SPLINE
  5
E64
330
21D
100
AcDbEntity
  8
0
  6
Continuous
 62
     7
100
AcDbSpline
210
0.0
220
0.0
230
1.0
 70
     8
 71
     3
 72
    14
 73
    10
 74
     0
 42
0.0000000001
 43
0.0000000001
 40
0.0
 40
0.0
 40
0.0
 40
0.0
 40
0.2500507533
 40
0.5000936301
 40
0.625112499
 40
0.7501278481
 40
0.8751311869
 40
0.9376138133000001
 40
1.0
 40
1.0
 40
1.0
 40
1.0
 10
-3.789342153275681
 20
4.0403667249
 30
0.0
 10
-3.791857219575681
 20
4.2483875831
 30
0.0
 10
-3.795907298175681
 20
4.6644352145
 30
0.0
 10
-3.798520917675681
 20
5.1845088363
 30
0.0
 10
-3.799143539875683
 20
5.600560500299998
 30
0.0
 10
-3.798887392575683
 20
5.9125827009
 30
0.0
 10
-3.798048300375683
 20
6.172574972899999
 30
0.0
 10
-3.797085944075683
 20
6.3804601936
 30
0.0
 10
-3.796440022575683
 20
6.4843461386
 30
0.0
 10
-3.796267035175683
 20
6.5362496195
 30
0.0
  0
SPLINE
  5
E65
330
21D
100
AcDbEntity
  8
0
  6
Continuous
 62
     7
100
AcDbSpline
210
0.0
220
0.0
230
1.0
 70
    24
 71
     3
 72
     8
 73
     4
 74
     0
 42
0.0000000001
 43
0.0000000001
 40
0.0
 40
0.0
 40
0.0
 40
0.0
 40
1.0
 40
1.0
 40
1.0
 40
1.0
 10
-3.796267035175683
 20
6.5362496195
 30
0.0
 10
-3.796267002775683
 20
6.536259325599999
 30
0.0
 10
-3.796266970475683
 20
6.536269031599997
 30
0.0
 10
-3.796266938175683
 20
6.5362787377
 30
0.0
  0
LINE
  5
E66
330
21D
100
AcDbEntity
  8
0
  6
Continuous
 62
     7
100
AcDbLine
 10
-3.796266938175683
 20
6.5362787377
 30
0.0
 11
-3.79626608467568
 21
6.53653565
 31
0.0
  0
LINE
  5
E67
330
21D
100
AcDbEntity
  8
0
  6
Continuous
 62
     7
100
AcDbLine
 10
-3.79626608467568
 20
6.53653565
 30
0.0
 11
-3.79625499587568
 21
6.5400147658
 31
0.0
  0
SPLINE
  5
E68
330
21D
100
AcDbEntity
  8
0
  6
Continuous
 62
     7
100
AcDbSpline
210
0.0
220
0.0
230
1.0
 70
     8
 71
     3
 72
    10
 73
     6
 74
     0
 42
0.0000000001
 43
0.0000000001
 40
0.0
 40
0.0
 40
0.0
 40
0.0
 40
0.5000139072
 40
0.7500144126999999
 40
1.0
 40
1.0
 40
1.0
 40
1.0
 10
-3.657985544875683
 20
3.9180678923
 30
0.0
 10
-3.681263904675683
 20
4.3544280985
 30
0.0
 10
-3.715968045475681
 20
5.0089741606
 30
0.0
 10
-3.761879145675683
 20
5.8817044521
 30
0.0
 10
-3.784629248075682
 20
6.318068187499997
 30
0.0
 10
-3.796055252575681
 20
6.5362408599
 30
0.0
  0
LINE
  5
E69
330
21D
100
AcDbEntity
  8
0
  6
Continuous
 62
     7
100
AcDbLine
 10
-3.796056780575683
 20
6.536270035
 30
0.0
 11
-3.796070262075681
 21
6.5365274523
 31
0.0
  0
SPLINE
  5
E6A
330
21D
100
AcDbEntity
  8
0
  6
Continuous
 62
     7
100
AcDbSpline
210
0.0
220
0.0
230
1.0
 70
     8
 71
     3
 72
     9
 73
     5
 74
     0
 42
0.0000000001
 43
0.0000000001
 40
0.0
 40
0.0
 40
0.0
 40
0.0
 40
0.2176416607
 40
1.0
 40
1.0
 40
1.0
 40
1.0
 10
-1.774693181875683
 20
1.746733854699999
 30
0.0
 10
-1.771492934575682
 20
1.7466869937
 30
0.0
 10
-1.756787578575684
 20
1.7465514415
 30
0.0
 10
-1.742081136875683
 20
1.7466321837
 30
0.0
 10
-1.730576475875681
 20
1.7467424574
 30
0.0
  0
LINE
  5
E6B
330
21D
100
AcDbEntity
  8
0
  6
Continuous
 62
     7
100
AcDbLine
 10
0.8636440954243163
 20
2.2599156968
 30
0.0
 11
0.8636115252243165
 21
2.2593434916
 31
0.0
  0
SPLINE
  5
E6C
330
21D
100
AcDbEntity
  8
0
  6
Continuous
 62
     7
100
AcDbSpline
210
0.0
220
0.0
230
1.0
 70
     8
 71
     3
 72
    15
 73
    11
 74
     0
 42
0.0000000001
 43
0.0000000001
 40
0.0
 40
0.0
 40
0.0
 40
0.0
 40
0.1243596061
 40
0.2488235786
 40
0.3734749047
 40
0.4983531021000001
 40
0.6234765428
 40
0.7488256375
 40
0.8743535770999999
 40
1.0
 40
1.0
 40
1.0
 40
1.0
 10
0.8636115252243165
 20
2.2593434916
 30
0.0
 10
0.8618959617243163
 20
2.2295160998
 30
0.0
 10
0.8528968888243165
 20
2.1700179496
 30
0.0
 10
0.8234366517243163
 20
2.084755541999999
 30
0.0
 10
0.7787397785243165
 20
2.006226277899997
 30
0.0
 10
0.7205206888243168
 20
1.936927848199998
 30
0.0
 10
0.6504967679243167
 20
1.879323807899998
 30
0.0
 10
0.5711594529243165
 20
1.8350973671
 30
0.0
 10
0.4850336746243167
 20
1.805938016999999
 30
0.0
 10
0.4249660310243164
 20
1.7970127452
 30
0.0
 10
0.3948288182243167
 20
1.795300081699997
 30
0.0
  0
LINE
  5
E6D
330
21D
100
AcDbEntity
  8
0
  6
Continuous
 62
     7
100
AcDbLine
 10
-3.569617403775683
 20
2.2619633591
 30
0.0
 11
-3.046663863275681
 21
2.260709089199997
 31
0.0
  0
SPLINE
  5
E6E
330
21D
100
AcDbEntity
  8
0
  6
Continuous
 62
     7
100
AcDbSpline
210
0.0
220
0.0
230
1.0
 70
     8
 71
     3
 72
    12
 73
     8
 74
     0
 42
0.0000000001
 43
0.0000000001
 40
0.0
 40
0.0
 40
0.0
 40
0.0
 40
0.1241802199
 40
0.2491317726
 40
0.4993658361000002
 40
0.7496854229000001
 40
1.0
 40
1.0
 40
1.0
 40
1.0
 10
-0.6083283370756841
 20
2.225392253
 30
0.0
 10
-0.5690161143756836
 20
2.225972554999998
 30
0.0
 10
-0.4901551692756831
 20
2.227636816399999
 30
0.0
 10
-0.3321068171756831
 20
2.231816334799999
 30
0.0
 10
-0.1341752149756834
 20
2.2384673846
 30
0.0
 10
0.1033496330243162
 20
2.2484273202
 30
0.0
 10
0.2616566156243167
 20
2.256393040799999
 30
0.0
 10
0.3407906830243164
 20
2.260709580499999
 30
0.0
  0
SPLINE
  5
E6F
330
21D
100
AcDbEntity
  8
0
  6
Continuous
 62
     7
100
AcDbSpline
210
0.0
220
0.0
230
1.0
 70
     8
 71
     3
 72
    13
 73
     9
 74
     0
 42
0.0000000001
 43
0.0000000001
 40
0.0
 40
0.0
 40
0.0
 40
0.0
 40
0.2505947079
 40
0.3756012153999999
 40
0.4999998704000002
 40
0.6243985984
 40
0.7494052002
 40
1.0
 40
1.0
 40
1.0
 40
1.0
 10
-2.09755073207568
 20
2.225392240099997
 30
0.0
 10
-1.973158791075683
 20
2.2235559276
 30
0.0
 10
-1.786714272675683
 20
2.2208469578
 30
0.0
 10
-1.538511027575681
 20
2.2179332872
 30
0.0
 10
-1.352939692075681
 20
2.216791126499999
 30
0.0
 10
-1.167368310675682
 20
2.217933448499997
 30
0.0
 10
-0.9191649401756832
 20
2.220847384
 30
0.0
 10
-0.7327203250756833
 20
2.223556025399997
 30
0.0
 10
-0.6083283370756841
 20
2.225392253
 30
0.0
  0
SPLINE
  5
E70
330
21D
100
AcDbEntity
  8
0
  6
Continuous
 62
     7
100
AcDbSpline
210
0.0
220
0.0
230
1.0
 70
     8
 71
     3
 72
    12
 73
     8
 74
     0
 42
0.0000000001
 43
0.0000000001
 40
0.0
 40
0.0
 40
0.0
 40
0.0
 40
0.2503145015
 40
0.5006341352
 40
0.7508680856000001
 40
0.8758196062000001
 40
1.0
 40
1.0
 40
1.0
 40
1.0
 10
-3.046663863275681
 20
2.260709089199997
 30
0.0
 10
-2.967530310075682
 20
2.256392605299998
 30
0.0
 10
-2.809224317875683
 20
2.248426986399997
 30
0.0
 10
-2.571700988275683
 20
2.2384671791
 30
0.0
 10
-2.373770645575683
 20
2.2318162287
 30
0.0
 10
-2.215723265675681
 20
2.227636766799999
 30
0.0
 10
-2.136862765175683
 20
2.225972562299999
 30
0.0
 10
-2.09755073207568
 20
2.22539224
 30
0.0
  0
LINE
  5
E71
330
21D
100
AcDbEntity
  8
0
  6
Continuous
 62
     7
100
AcDbLine
 10
0.3407906830243164
 20
2.260709580499999
 30
0.0
 11
0.8637441813243164
 21
2.261964006999999
 31
0.0
  0
SPLINE
  5
E72
330
21D
100
AcDbEntity
  8
0
  6
Continuous
 62
     7
100
AcDbSpline
210
0.0
220
0.0
230
1.0
 70
     8
 71
     3
 72
     9
 73
     5
 74
     0
 42
0.0000000001
 43
0.0000000001
 40
0.0
 40
0.0
 40
0.0
 40
0.0
 40
0.3827825393
 40
1.0
 40
1.0
 40
1.0
 40
1.0
 10
-3.100260845775681
 20
1.7936226896
 30
0.0
 10
-3.100010034575681
 20
1.7936191802
 30
0.0
 10
-3.099847291675683
 20
1.794634057199997
 30
0.0
 10
-3.100327910175681
 20
1.7951341611
 30
0.0
 10
-3.100697130875681
 20
1.795299279099999
 30
0.0
  0
LINE
  5
E73
330
21D
100
AcDbEntity
  8
0
  6
Continuous
 62
     7
100
AcDbLine
 10
1.396635040624314
 20
5.732058314999997
 30
0.0
 11
1.439439499824314
 21
6.596130358099999
 31
0.0
  0
LINE
  5
E74
330
21D
100
AcDbEntity
  8
0
  6
Continuous
 62
     7
100
AcDbLine
 10
1.396592065424316
 20
5.7312277063
 30
0.0
 11
1.396633502424314
 21
5.7320583958
 31
0.0
  0
LINE
  5
E75
330
21D
100
AcDbEntity
  8
0
  6
Continuous
 62
     7
100
AcDbLine
 10
1.083471341924316
 20
4.040367955199998
 30
0.0
 11
1.087928265024314
 21
4.040436131799998
 31
0.0
  0
SPLINE
  5
E76
330
21D
100
AcDbEntity
  8
0
  6
Continuous
 62
     7
100
AcDbSpline
210
0.0
220
0.0
230
1.0
 70
     8
 71
     3
 72
     9
 73
     5
 74
     0
 42
0.0000000001
 43
0.0000000001
 40
0.0
 40
0.0
 40
0.0
 40
0.0
 40
0.2675443059
 40
1.0
 40
1.0
 40
1.0
 40
1.0
 10
1.087928265024314
 20
4.040436131699998
 30
0.0
 10
1.090134973624314
 20
4.0382805398
 30
0.0
 10
1.098588900524315
 20
4.0304409744
 30
0.0
 10
1.107877107824315
 20
4.023471859799998
 30
0.0
 10
1.115109228024316
 20
4.019110685
 30
0.0
  0
SPLINE
  5
E77
330
21D
100
AcDbEntity
  8
0
  6
Continuous
 62
     7
100
AcDbSpline
210
0.0
220
0.0
230
1.0
 70
     8
 71
     3
 72
    10
 73
     6
 74
     0
 42
0.0000000001
 43
0.0000000001
 40
0.0
 40
0.0
 40
0.0
 40
0.0
 40
0.2599014811
 40
0.4979808474000003
 40
1.0
 40
1.0
 40
1.0
 40
1.0
 10
1.115109228024316
 20
4.019110685
 30
0.0
 10
1.114303282824314
 20
4.017013439499997
 30
0.0
 10
1.112277944124316
 20
4.013137004999999
 30
0.0
 10
1.105929995724316
 20
4.007027964299997
 30
0.0
 10
1.099193939124314
 20
4.005508913499998
 30
0.0
 10
1.094854520324314
 20
4.0054507247
 30
0.0
  0
SPLINE
  5
E78
330
21D
100
AcDbEntity
  8
0
  6
Continuous
 62
     7
100
AcDbSpline
210
0.0
220
0.0
230
1.0
 70
     8
 71
     3
 72
    12
 73
     8
 74
     0
 42
0.0000000001
 43
0.0000000001
 40
0.0
 40
0.0
 40
0.0
 40
0.0
 40
0.4202980037
 40
0.7252274635
 40
0.9150744253999999
 40
0.9686235083999999
 40
1.0
 40
1.0
 40
1.0
 40
1.0
 10
1.083470811724315
 20
4.0403679473
 30
0.0
 10
1.084330357224315
 20
4.035277166499997
 30
0.0
 10
1.085918527624314
 20
4.026496071299997
 30
0.0
 10
1.088386430524316
 20
4.0155660393
 30
0.0
 10
1.090441240124314
 20
4.009061493599998
 30
0.0
 10
1.092033214424315
 20
4.0061293856
 30
0.0
 10
1.092977339324314
 20
4.0054266891
 30
0.0
 10
1.093362728824314
 20
4.005431611399997
 30
0.0
  0
SPLINE
  5
E79
330
21D
100
AcDbEntity
  8
0
  6
Continuous
 62
     7
100
AcDbSpline
210
0.0
220
0.0
230
1.0
 70
     8
 71
     3
 72
    11
 73
     7
 74
     0
 42
0.0000000001
 43
0.0000000001
 40
0.0
 40
0.0
 40
0.0
 40
0.0
 40
0.2431118997
 40
0.4947896715
 40
0.7496933445
 40
1.0
 40
1.0
 40
1.0
 40
1.0
 10
0.9521149130243163
 20
3.918068981499997
 30
0.0
 10
0.9544968068243168
 20
3.933431507699998
 30
0.0
 10
0.9650373486243159
 20
3.9640247866
 30
0.0
 10
0.9949112196243168
 20
4.002529132
 30
0.0
 10
1.035729390324314
 20
4.0300394291
 30
0.0
 10
1.067549139824315
 20
4.0387303716
 30
0.0
 10
1.083471344524314
 20
4.0403675936
 30
0.0
  0
LINE
  5
E7A
330
21D
100
AcDbEntity
  8
0
  6
Continuous
 62
     7
100
AcDbLine
 10
-4.145309318175683
 20
6.596129521099999
 30
0.0
 11
-4.102505133775681
 21
5.732057500199997
 31
0.0
  0
LINE
  5
E7B
330
21D
100
AcDbEntity
  8
0
  6
Continuous
 62
     7
100
AcDbLine
 10
-4.102503608775681
 20
5.732057579099997
 30
0.0
 11
-4.102462176875683
 21
5.7312269834
 31
0.0
  0
LINE
  5
E7C
330
21D
100
AcDbEntity
  8
0
  6
Continuous
 62
     7
100
AcDbLine
 10
-3.793798442775683
 20
4.040396819299997
 30
0.0
 11
-3.789342005675683
 21
4.0403667251
 31
0.0
  0
SPLINE
  5
E7D
330
21D
100
AcDbEntity
  8
0
  6
Continuous
 62
     7
100
AcDbSpline
210
0.0
220
0.0
230
1.0
 70
     8
 71
     3
 72
     9
 73
     5
 74
     0
 42
0.0000000001
 43
0.0000000001
 40
0.0
 40
0.0
 40
0.0
 40
0.0
 40
0.476690528
 40
1.0
 40
1.0
 40
1.0
 40
1.0
 10
-3.816489408975681
 20
4.012645898799998
 30
0.0
 10
-3.81452440457568
 20
4.0103219554
 30
0.0
 10
-3.809122717775683
 20
4.0063957493
 30
0.0
 10
-3.802610142275683
 20
4.0054377791
 30
0.0
 10
-3.799269245375683
 20
4.0054147299
 30
0.0
  0
SPLINE
  5
E7E
330
21D
100
AcDbEntity
  8
0
  6
Continuous
 62
     7
100
AcDbSpline
210
0.0
220
0.0
230
1.0
 70
     8
 71
     3
 72
     9
 73
     5
 74
     0
 42
0.0000000001
 43
0.0000000001
 40
0.0
 40
0.0
 40
0.0
 40
0.0
 40
0.5608004004
 40
1.0
 40
1.0
 40
1.0
 40
1.0
 10
-3.793798442775683
 20
4.0403968192
 30
0.0
 10
-3.797264984075683
 20
4.034636599399997
 30
0.0
 10
-3.804128499775683
 20
4.0247572249
 30
0.0
 10
-3.812438680975683
 20
4.016009399299997
 30
0.0
 10
-3.816489408975681
 20
4.012645898799998
 30
0.0
  0
SPLINE
  5
E7F
330
21D
100
AcDbEntity
  8
0
  6
Continuous
 62
     7
100
AcDbSpline
210
0.0
220
0.0
230
1.0
 70
     8
 71
     3
 72
    11
 73
     7
 74
     0
 42
0.0000000001
 43
0.0000000001
 40
0.0
 40
0.0
 40
0.0
 40
0.0
 40
0.2473978529
 40
0.5010174008
 40
0.7549134119
 40
1.0
 40
1.0
 40
1.0
 40
1.0
 10
-3.789342006175683
 20
4.040366718
 30
0.0
 10
-3.773468072075681
 20
4.0396447135
 30
0.0
 10
-3.741337411275681
 20
4.03176162
 30
0.0
 10
-3.700640739175683
 20
4.003761735799997
 30
0.0
 10
-3.671030478775683
 20
3.9645905699
 30
0.0
 10
-3.660397364275683
 20
3.933623928999998
 30
0.0
 10
-3.657985544675683
 20
3.918067891
 30
0.0
  0
SPLINE
  5
E80
330
21D
100
AcDbEntity
  8
0
  6
Continuous
 62
     7
100
AcDbSpline
210
0.0
220
0.0
230
1.0
 70
     8
 71
     3
 72
    15
 73
    11
 74
     0
 42
0.0000000001
 43
0.0000000001
 40
0.0
 40
0.0
 40
0.0
 40
0.0
 40
0.2311644238
 40
0.432065863
 40
0.6025980381
 40
0.7426661736
 40
0.8521999581999999
 40
0.9311917346000001
 40
0.9798549089999999
 40
1.0
 40
1.0
 40
1.0
 40
1.0
 10
-3.789342199575681
 20
4.040366720799998
 30
0.0
 10
-3.789541703175681
 20
4.037648502099997
 30
0.0
 10
-3.789929299175683
 20
4.032569603799998
 30
0.0
 10
-3.790527041975681
 20
4.025487393599997
 30
0.0
 10
-3.791096921975681
 20
4.019490302099997
 30
0.0
 10
-3.791643033875681
 20
4.014547442699997
 30
0.0
 10
-3.792145993575683
 20
4.0107553423
 30
0.0
 10
-3.79263875087568
 20
4.0078861299
 30
0.0
 10
-3.79302379097568
 20
4.0063984206
 30
0.0
 10
-3.793407094275683
 20
4.005409982099997
 30
0.0
 10
-3.793644587275683
 20
4.005406433
 30
0.0
  0
SPLINE
  5
E81
330
21D
100
AcDbEntity
  8
0
  6
Continuous
 62
     7
100
AcDbSpline
210
0.0
220
0.0
230
1.0
 70
     8
 71
     3
 72
     9
 73
     5
 74
     0
 42
0.0000000001
 43
0.0000000001
 40
0.0
 40
0.0
 40
0.0
 40
0.0
 40
0.4744458489000002
 40
1.0
 40
1.0
 40
1.0
 40
1.0
 10
1.115108567924316
 20
4.0190955373
 30
0.0
 10
1.137479770324314
 20
4.015928213999997
 30
0.0
 10
1.186718473124314
 20
4.022165208799997
 30
0.0
 10
1.228445873524316
 20
4.0480347692
 30
0.0
 10
1.246808581424315
 20
4.0650413068
 30
0.0
  0
LINE
  5
E82
330
21D
100
AcDbEntity
  8
0
  6
Continuous
 62
     7
100
AcDbLine
 10
1.248444533824314
 20
4.0665743124
 30
0.0
 11
1.248684031824314
 21
4.066801770799997
 31
0.0
  0
SPLINE
  5
E83
330
21D
100
AcDbEntity
  8
0
  6
Continuous
 62
     7
100
AcDbSpline
210
0.0
220
0.0
230
1.0
 70
    24
 71
     3
 72
     8
 73
     4
 74
     0
 42
0.0000000001
 43
0.0000000001
 40
0.0
 40
0.0
 40
0.0
 40
0.0
 40
1.0
 40
1.0
 40
1.0
 40
1.0
 10
1.249593236024316
 20
4.067672428899999
 30
0.0
 10
1.249616646424315
 20
4.0676950052
 30
0.0
 10
1.249640056924316
 20
4.0677175814
 30
0.0
 10
1.249663467324314
 20
4.067740157699997
 30
0.0
  0
SPLINE
  5
E84
330
21D
100
AcDbEntity
  8
0
  6
Continuous
 62
     7
100
AcDbSpline
210
0.0
220
0.0
230
1.0
 70
     8
 71
     3
 72
     9
 73
     5
 74
     0
 42
0.0000000001
 43
0.0000000001
 40
0.0
 40
0.0
 40
0.0
 40
0.0
 40
0.2581075693
 40
1.0
 40
1.0
 40
1.0
 40
1.0
 10
1.087928200824314
 20
4.0404358539
 30
0.0
 10
1.094061133024314
 20
4.038686333399997
 30
0.0
 10
1.118048426124314
 20
4.0327440213
 30
0.0
 10
1.142912329924316
 20
4.030203166499997
 30
0.0
 10
1.161240577024315
 20
4.0305460734
 30
0.0
  0
SPLINE
  5
E85
330
21D
100
AcDbEntity
  8
0
  6
Continuous
 62
     7
100
AcDbSpline
210
0.0
220
0.0
230
1.0
 70
     8
 71
     3
 72
    12
 73
     8
 74
     0
 42
0.0000000001
 43
0.0000000001
 40
0.0
 40
0.0
 40
0.0
 40
0.0
 40
0.0986956703
 40
0.2163103412
 40
0.4802653233
 40
0.7524991767
 40
1.0
 40
1.0
 40
1.0
 40
1.0
 10
1.161240470524316
 20
4.030546456299997
 30
0.0
 10
1.167763435124316
 20
4.030668499699998
 30
0.0
 10
1.182023986324316
 20
4.0329473261
 30
0.0
 10
1.212023747824314
 20
4.0436886219
 30
0.0
 10
1.248518924924316
 20
4.068277275599998
 30
0.0
 10
1.281959672724314
 20
4.1086507747
 30
0.0
 10
1.296481598724314
 20
4.140229051499997
 30
0.0
 10
1.301486332124314
 20
4.1558053893
 30
0.0
  0
SPLINE
  5
E86
330
21D
100
AcDbEntity
  8
0
  6
Continuous
 62
     7
100
AcDbSpline
210
0.0
220
0.0
230
1.0
 70
     8
 71
     3
 72
     9
 73
     5
 74
     0
 42
0.0000000001
 43
0.0000000001
 40
0.0
 40
0.0
 40
0.0
 40
0.0
 40
0.2526995748
 40
1.0
 40
1.0
 40
1.0
 40
1.0
 10
1.161240451124315
 20
4.0305464407
 30
0.0
 10
1.157558019924316
 20
4.0289486104
 30
0.0
 10
1.142732603924315
 20
4.0232282911
 30
0.0
 10
1.126948998624314
 20
4.019968248899997
 30
0.0
 10
1.115110230124314
 20
4.0190953669
 30
0.0
  0
LINE
  5
E87
330
21D
100
AcDbEntity
  8
0
  6
Continuous
 62
     7
100
AcDbLine
 10
1.317166962724314
 20
4.236013248799999
 30
0.0
 11
1.317177121624314
 21
4.236147299599998
 31
0.0
  0
LINE
  5
E88
330
21D
100
AcDbEntity
  8
0
  6
Continuous
 62
     7
100
AcDbLine
 10
-4.023096823575681
 20
4.2398226167
 30
0.0
 11
-4.023086812275684
 21
4.239705523299997
 31
0.0
  0
SPLINE
  5
E89
330
21D
100
AcDbEntity
  8
0
  6
Continuous
 62
     7
100
AcDbSpline
210
0.0
220
0.0
230
1.0
 70
     8
 71
     3
 72
     9
 73
     5
 74
     0
 42
0.0000000001
 43
0.0000000001
 40
0.0
 40
0.0
 40
0.0
 40
0.0
 40
0.5027712897
 40
1.0
 40
1.0
 40
1.0
 40
1.0
 10
-4.023086812275684
 20
4.239705523299997
 30
0.0
 10
-4.020284746175684
 20
4.2070111881
 30
0.0
 10
-4.003491073875681
 20
4.1424618936
 30
0.0
 10
-3.966006652575681
 20
4.0872683586
 30
0.0
 10
-3.943427952975683
 20
4.0639581991
 30
0.0
  0
SPLINE
  5
E8A
330
21D
100
AcDbEntity
  8
0
  6
Continuous
 62
     7
100
AcDbSpline
210
0.0
220
0.0
230
1.0
 70
     8
 71
     3
 72
     9
 73
     5
 74
     0
 42
0.0000000001
 43
0.0000000001
 40
0.0
 40
0.0
 40
0.0
 40
0.0
 40
0.504621297
 40
1.0
 40
1.0
 40
1.0
 40
1.0
 10
-3.943427835275683
 20
4.063958333999997
 30
0.0
 10
-3.955673841475681
 20
4.072520508999997
 30
0.0
 10
-3.977830948875681
 20
4.092771136199996
 30
0.0
 10
-3.993574744175683
 20
4.118389376
 30
0.0
 10
-3.999356669775684
 20
4.131870502199998
 30
0.0
  0
SPLINE
  5
E8B
330
21D
100
AcDbEntity
  8
0
  6
Continuous
 62
     7
100
AcDbSpline
210
0.0
220
0.0
230
1.0
 70
     8
 71
     3
 72
     9
 73
     5
 74
     0
 42
0.0000000001
 43
0.0000000001
 40
0.0
 40
0.0
 40
0.0
 40
0.0
 40
0.5013248198
 40
1.0
 40
1.0
 40
1.0
 40
1.0
 10
-3.816490282575681
 20
4.0126209154
 30
0.0
 10
-3.839384810675682
 20
4.012233286299998
 30
0.0
 10
-3.885570033775683
 20
4.019497261999998
 30
0.0
 10
-3.926293050575683
 20
4.0425406097
 30
0.0
 10
-3.943806522575683
 20
4.057102902599997
 30
0.0
  0
LINE
  5
E8C
330
21D
100
AcDbEntity
  8
0
  6
Continuous
 62
     7
100
AcDbLine
 10
-3.943806522575683
 20
4.057102902599997
 30
0.0
 11
-3.944022978075683
 21
4.0572831555
 31
0.0
  0
SPLINE
  5
E8D
330
21D
100
AcDbEntity
  8
0
  6
Continuous
 62
     7
100
AcDbSpline
210
0.0
220
0.0
230
1.0
 70
     8
 71
     3
 72
     9
 73
     5
 74
     0
 42
0.0000000001
 43
0.0000000001
 40
0.0
 40
0.0
 40
0.0
 40
0.0
 40
0.497591845
 40
1.0
 40
1.0
 40
1.0
 40
1.0
 10
-3.816490283275681
 20
4.012620915199997
 30
0.0
 10
-3.839537309675683
 20
4.013375745
 30
0.0
 10
-3.885929083375681
 20
4.0232525368
 30
0.0
 10
-3.926070248275681
 20
4.0484479532
 30
0.0
 10
-3.943405264275683
 20
4.0639906625
 30
0.0
  0
SPLINE
  5
E8E
330
21D
100
AcDbEntity
  8
0
  6
Continuous
 62
     7
100
AcDbSpline
210
0.0
220
0.0
230
1.0
 70
     8
 71
     3
 72
     9
 73
     5
 74
     0
 42
0.0000000001
 43
0.0000000001
 40
0.0
 40
0.0
 40
0.0
 40
0.0
 40
0.4839343914
 40
1.0
 40
1.0
 40
1.0
 40
1.0
 10
-3.943427904875683
 20
4.063958187699999
 30
0.0
 10
-3.921888829275683
 20
4.051668316999998
 30
0.0
 10
-3.872110527375683
 20
4.0349220882
 30
0.0
 10
-3.819855801875683
 20
4.0358846324
 30
0.0
 10
-3.793798425175681
 20
4.040396848
 30
0.0
  0
LINE
  5
E8F
330
21D
100
AcDbEntity
  8
0
  6
Continuous
 62
     7
100
AcDbLine
 10
-3.100702003675681
 20
1.795299555999999
 30
0.0
 11
-3.100183995575683
 21
1.795717766699999
 31
0.0
  0
LINE
  5
E90
330
21D
100
AcDbEntity
  8
0
  6
Continuous
 62
     7
100
AcDbLine
 10
-3.100183995575683
 20
1.795717766699999
 30
0.0
 11
-3.074052281875681
 21
1.794518580999999
 31
0.0
  0
SPLINE
  5
E91
330
21D
100
AcDbEntity
  8
0
  6
Continuous
 62
     7
100
AcDbSpline
210
0.0
220
0.0
230
1.0
 70
     8
 71
     3
 72
    14
 73
    10
 74
     0
 42
0.0000000001
 43
0.0000000001
 40
0.0
 40
0.0
 40
0.0
 40
0.0
 40
0.2501275379
 40
0.5002520988
 40
0.6253108494
 40
0.7503601431
 40
0.8753765576000001
 40
0.9378300040999999
 40
1.0
 40
1.0
 40
1.0
 40
1.0
 10
-3.074052281875681
 20
1.794518580999999
 30
0.0
 10
-2.993313261675683
 20
1.7901273005
 30
0.0
 10
-2.831798080975683
 20
1.78203112
 30
0.0
 10
-2.62982746707568
 20
1.7736173952
 30
0.0
 10
-2.468217787575681
 20
1.767924184499998
 30
0.0
 10
-2.347008355975681
 20
1.7642121252
 30
0.0
 10
-2.246012864475681
 20
1.761630037699998
 30
0.0
 10
-2.16532839097568
 20
1.7600189761
 30
0.0
 10
-2.12504443097568
 20
1.7594493993
 30
0.0
 10
-2.104947105175683
 20
1.759344365699998
 30
0.0
  0
LINE
  5
E92
330
21D
100
AcDbEntity
  8
0
  6
Continuous
 62
     7
100
AcDbLine
 10
-1.722181294875683
 20
1.746834274499998
 30
0.0
 11
-1.718828393875683
 21
1.7468766727
 31
0.0
  0
LINE
  5
E93
330
21D
100
AcDbEntity
  8
0
  6
Continuous
 62
     7
100
AcDbLine
 10
-1.718828393875683
 20
1.7468766727
 30
0.0
 11
-1.51819587877568
 21
1.750083187299997
 31
0.0
  0
SPLINE
  5
E94
330
21D
100
AcDbEntity
  8
0
  6
Continuous
 62
     7
100
AcDbSpline
210
0.0
220
0.0
230
1.0
 70
     8
 71
     3
 72
    11
 73
     7
 74
     0
 42
0.0000000001
 43
0.0000000001
 40
0.0
 40
0.0
 40
0.0
 40
0.0
 40
0.2500011903
 40
0.4999999988
 40
0.7499988129000002
 40
1.0
 40
1.0
 40
1.0
 40
1.0
 10
-2.104947105175683
 20
1.759344365699998
 30
0.0
 10
-1.979617221275684
 20
1.757550294699997
 30
0.0
 10
-1.728960989475681
 20
1.754014401699999
 30
0.0
 10
-1.352939786075681
 20
1.7500753786
 30
0.0
 10
-0.9769185926756842
 20
1.7540149834
 30
0.0
 10
-0.7262623544756837
 20
1.757550489799998
 30
0.0
 10
-0.6009324703756837
 20
1.7593444269
 30
0.0
  0
LINE
  5
E95
330
21D
100
AcDbEntity
  8
0
  6
Continuous
 62
     7
100
AcDbLine
 10
-0.9875563472756834
 20
1.746883536299999
 30
0.0
 11
-0.9870464883756831
 21
1.746876832499999
 31
0.0
  0
LINE
  5
E96
330
21D
100
AcDbEntity
  8
0
  6
Continuous
 62
     7
100
AcDbLine
 10
-1.159997549875682
 20
1.7497023246
 30
0.0
 11
-0.9875563473756834
 21
1.746883536299999
 31
0.0
  0
LINE
  5
E97
330
21D
100
AcDbEntity
  8
0
  6
Continuous
 62
     7
100
AcDbLine
 10
-1.451173097375683
 20
1.7506256786
 30
0.0
 11
-1.450500041875683
 21
1.7506289595
 31
0.0
  0
LINE
  5
E98
330
21D
100
AcDbEntity
  8
0
  6
Continuous
 62
     7
100
AcDbLine
 10
-1.493966325775683
 20
1.7503797646
 30
0.0
 11
-1.451173097375683
 21
1.7506256786
 31
0.0
  0
LINE
  5
E99
330
21D
100
AcDbEntity
  8
0
  6
Continuous
 62
     7
100
AcDbLine
 10
-1.51819587877568
 20
1.750083187299997
 30
0.0
 11
-1.493966325775683
 21
1.7503797646
 31
0.0
  0
SPLINE
  5
E9A
330
21D
100
AcDbEntity
  8
0
  6
Continuous
 62
     7
100
AcDbSpline
210
0.0
220
0.0
230
1.0
 70
     8
 71
     3
 72
    14
 73
    10
 74
     0
 42
0.0000000001
 43
0.0000000001
 40
0.0
 40
0.0
 40
0.0
 40
0.0
 40
0.062168723
 40
0.1246227905
 40
0.2496389091
 40
0.3746885329
 40
0.4997472839000002
 40
0.7498721292
 40
1.0
 40
1.0
 40
1.0
 40
1.0
 10
-0.6009324703756837
 20
1.7593444269
 30
0.0
 10
-0.580835505775684
 20
1.759447528
 30
0.0
 10
-0.5405517066756831
 20
1.760021151699999
 30
0.0
 10
-0.4598673463756838
 20
1.7616294099
 30
0.0
 10
-0.3588714746756834
 20
1.764213588199998
 30
0.0
 10
-0.2376617567756831
 20
1.7679242371
 30
0.0
 10
-0.0760515133756834
 20
1.773616462899999
 30
0.0
 10
0.1259196493243166
 20
1.7820315625
 30
0.0
 10
0.2874353498243165
 20
1.7901277634
 30
0.0
 10
0.3681746380243163
 20
1.7945190815
 30
0.0
  0
LINE
  5
E9B
330
21D
100
AcDbEntity
  8
0
  6
Continuous
 62
     7
100
AcDbLine
 10
0.3681746380243163
 20
1.7945190815
 30
0.0
 11
0.3943080111243162
 21
1.7957182808
 31
0.0
  0
LINE
  5
E9C
330
21D
100
AcDbEntity
  8
0
  6
Continuous
 62
     7
100
AcDbLine
 10
0.3943080111243162
 20
1.7957182808
 30
0.0
 11
0.3948288181243167
 21
1.795300081899999
 31
0.0
  0
SPLINE
  5
E9D
330
21D
100
AcDbEntity
  8
0
  6
Continuous
 62
     7
100
AcDbSpline
210
0.0
220
0.0
230
1.0
 70
     8
 71
     3
 72
     9
 73
     5
 74
     0
 42
0.0000000001
 43
0.0000000001
 40
0.0
 40
0.0
 40
0.0
 40
0.0
 40
0.2795640968
 40
1.0
 40
1.0
 40
1.0
 40
1.0
 10
-0.9752977861756827
 20
1.7467426682
 30
0.0
 10
-0.9711935688756836
 20
1.746703330899999
 30
0.0
 10
-0.9565127111756835
 20
1.7465912009
 30
0.0
 10
-0.9418298319756829
 20
1.7465788956
 30
0.0
 10
-0.9312539160756836
 20
1.7467332505
 30
0.0
  0
SPLINE
  5
E9E
330
21D
100
AcDbEntity
  8
0
  6
Continuous
 62
     7
100
AcDbSpline
210
0.0
220
0.0
230
1.0
 70
     8
 71
     3
 72
     9
 73
     5
 74
     0
 42
0.0000000001
 43
0.0000000001
 40
0.0
 40
0.0
 40
0.0
 40
0.0
 40
0.6172029701000003
 40
1.0
 40
1.0
 40
1.0
 40
1.0
 10
0.3948237637243168
 20
1.7952997949
 30
0.0
 10
0.3944545540243167
 20
1.795134673
 30
0.0
 10
0.3939739615243165
 20
1.794634531099998
 30
0.0
 10
0.3941367205243162
 20
1.793619689799998
 30
0.0
 10
0.3943875420243166
 20
1.7936231825
 30
0.0
  0
SPLINE
  5
E9F
330
21D
100
AcDbEntity
  8
0
  6
Continuous
 62
     7
100
AcDbSpline
210
0.0
220
0.0
230
1.0
 70
     8
 71
     3
 72
     9
 73
     5
 74
     0
 42
0.0000000001
 43
0.0000000001
 40
0.0
 40
0.0
 40
0.0
 40
0.0
 40
0.2559634065
 40
1.0
 40
1.0
 40
1.0
 40
1.0
 10
-1.585252562275684
 20
1.6547397615
 30
0.0
 10
-1.587655551475683
 20
1.6585446127
 30
0.0
 10
-1.597592244875683
 20
1.673051676699999
 30
0.0
 10
-1.609787586375683
 20
1.6860438077
 30
0.0
 10
-1.619901107575683
 20
1.694340212899998
 30
0.0
  0
SPLINE
  5
EA0
330
21D
100
AcDbEntity
  8
0
  6
Continuous
 62
     7
100
AcDbSpline
210
0.0
220
0.0
230
1.0
 70
     8
 71
     3
 72
    30
 73
    26
 74
     0
 42
0.0000000001
 43
0.0000000001
 40
0.0
 40
0.0
 40
0.0
 40
0.0
 40
0.0015681742
 40
0.0050706574
 40
0.0105087769
 40
0.0178828364
 40
0.0384393394
 40
0.0667412825
 40
0.1027883498
 40
0.1465749635
 40
0.1980946143
 40
0.2573423375
 40
0.3989870954999999
 40
0.4813530671000001
 40
0.5713814862
 40
0.6690034589
 40
0.7206188035
 40
0.7740433981
 40
0.8292002245
 40
0.8858933401000001
 40
0.9146963948999999
 40
0.9435774789999999
 40
0.9722695010999995
 40
0.9863547225999999
 40
1.0
 40
1.0
 40
1.0
 40
1.0
 10
1.439437821424314
 20
6.5961306745
 30
0.0
 10
1.439259204224315
 20
6.596161552199999
 30
0.0
 10
1.438670073724316
 20
6.5961678845
 30
0.0
 10
1.437458682824316
 20
6.596218971299999
 30
0.0
 10
1.435571759724316
 20
6.5962480862
 30
0.0
 10
1.431715957524314
 20
6.5963135282
 30
0.0
 10
1.425215797024316
 20
6.596384836799999
 30
0.0
 10
1.415402184924315
 20
6.5964749636
 30
0.0
 10
1.402902905924316
 20
6.596564214099997
 30
0.0
 10
1.387719978924314
 20
6.5966555286
 30
0.0
 10
1.369855173524314
 20
6.5967464932
 30
0.0
 10
1.340678911324316
 20
6.596869211299997
 30
0.0
 10
1.307936945224315
 20
6.596963219
 30
0.0
 10
1.271636920224316
 20
6.5970082046
 30
0.0
 10
1.240425501124315
 20
6.59699212
 30
0.0
 10
1.212768631224314
 20
6.5969057588
 30
0.0
 10
1.189343322724314
 20
6.596742235599999
 30
0.0
 10
1.170827001024316
 20
6.596545064899999
 30
0.0
 10
1.151725527124314
 20
6.596214517299999
 30
0.0
 10
1.135472996424314
 20
6.5957546107
 30
0.0
 10
1.122266688924314
 20
6.5951052184
 30
0.0
 10
1.112308156524316
 20
6.594401196299997
 30
0.0
 10
1.104065286124314
 20
6.5934861783
 30
0.0
 10
1.097658631524314
 20
6.5922666325
 30
0.0
 10
1.094550312724315
 20
6.591433159099997
 30
0.0
 10
1.093077411524316
 20
6.590868944199999
 30
0.0
  0
SPLINE
  5
EA1
330
21D
100
AcDbEntity
  8
0
  6
Continuous
 62
     7
100
AcDbSpline
210
0.0
220
0.0
230
1.0
 70
     8
 71
     3
 72
     9
 73
     5
 74
     0
 42
0.0000000001
 43
0.0000000001
 40
0.0
 40
0.0
 40
0.0
 40
0.0
 40
0.2565755635
 40
1.0
 40
1.0
 40
1.0
 40
1.0
 10
-1.579970866875683
 20
1.654739764399999
 30
0.0
 10
-1.582313291275681
 20
1.658515076599998
 30
0.0
 10
-1.591976947175681
 20
1.672886687899999
 30
0.0
 10
-1.603845750575683
 20
1.685810563899998
 30
0.0
 10
-1.613708024275683
 20
1.6940846706
 30
0.0
  0
SPLINE
  5
EA2
330
21D
100
AcDbEntity
  8
0
  6
Continuous
 62
     7
100
AcDbSpline
210
0.0
220
0.0
230
1.0
 70
     8
 71
     3
 72
     9
 73
     5
 74
     0
 42
0.0000000001
 43
0.0000000001
 40
0.0
 40
0.0
 40
0.0
 40
0.0
 40
0.2568321241
 40
1.0
 40
1.0
 40
1.0
 40
1.0
 10
-1.577865577075683
 20
1.654739764499999
 30
0.0
 10
-1.580181824775681
 20
1.658505286
 30
0.0
 10
-1.589729351375683
 20
1.672830035699998
 30
0.0
 10
-1.601463988075683
 20
1.6857333208
 30
0.0
 10
-1.611224721275681
 20
1.694001879799998
 30
0.0
  0
SPLINE
  5
EA3
330
21D
100
AcDbEntity
  8
0
  6
Continuous
 62
     7
100
AcDbSpline
210
0.0
220
0.0
230
1.0
 70
     8
 71
     3
 72
     9
 73
     5
 74
     0
 42
0.0000000001
 43
0.0000000001
 40
0.0
 40
0.0
 40
0.0
 40
0.0
 40
0.2263623567
 40
1.0
 40
1.0
 40
1.0
 40
1.0
 10
-1.456926568675683
 20
1.690296379399998
 30
0.0
 10
-1.455687268975683
 20
1.687731421599998
 30
0.0
 10
-1.450587140575683
 20
1.676219151399997
 30
0.0
 10
-1.446798071775683
 20
1.664160026699998
 30
0.0
 10
-1.444339295675683
 20
1.654739764199999
 30
0.0
  0
SPLINE
  5
EA4
330
21D
100
AcDbEntity
  8
0
  6
Continuous
 62
     7
100
AcDbSpline
210
0.0
220
0.0
230
1.0
 70
     8
 71
     3
 72
     9
 73
     5
 74
     0
 42
0.0000000001
 43
0.0000000001
 40
0.0
 40
0.0
 40
0.0
 40
0.0
 40
0.2719537325
 40
1.0
 40
1.0
 40
1.0
 40
1.0
 10
-1.460304524375683
 20
1.654739768299998
 30
0.0
 10
-1.461285380875683
 20
1.658097091999997
 30
0.0
 10
-1.465146538775683
 20
1.670360758
 30
0.0
 10
-1.470059032475683
 20
1.6823359315
 30
0.0
 10
-1.47451355177568
 20
1.690572088399999
 30
0.0
  0
LINE
  5
EA5
330
21D
100
AcDbEntity
  8
0
  6
Continuous
 62
     7
100
AcDbLine
 10
-1.675376121575683
 20
1.6975903753
 30
0.0
 11
-1.675056674075683
 21
1.6974959935
 31
0.0
  0
SPLINE
  5
EA6
330
21D
100
AcDbEntity
  8
0
  6
Continuous
 62
     7
100
AcDbSpline
210
0.0
220
0.0
230
1.0
 70
     8
 71
     3
 72
    29
 73
    25
 74
     0
 42
0.0000000001
 43
0.0000000001
 40
0.0
 40
0.0
 40
0.0
 40
0.0
 40
0.0015677279
 40
0.0050698565
 40
0.0105077129
 40
0.0178815986
 40
0.0384380134
 40
0.0667402082
 40
0.1027878689
 40
0.1465754447
 40
0.1980964457
 40
0.257345872
 40
0.3989950515
 40
0.4813638467000001
 40
0.5713953923
 40
0.6690208353
 40
0.7206380588
 40
0.7740645124
 40
0.8292233448999999
 40
0.8859186196999997
 40
0.9147202124999999
 40
0.9436052397999999
 40
0.9722978501
 40
1.0
 40
1.0
 40
1.0
 40
1.0
 10
-4.145307678575683
 20
6.596129797399996
 30
0.0
 10
-4.145129126275683
 20
6.596160712799997
 30
0.0
 10
-4.14454009587568
 20
6.5961670082
 30
0.0
 10
-4.143328878775681
 20
6.596218142799997
 30
0.0
 10
-4.141442104475681
 20
6.596247243699997
 30
0.0
 10
-4.137586494375683
 20
6.596312716199999
 30
0.0
 10
-4.131086548775683
 20
6.5963840598
 30
0.0
 10
-4.121273175875681
 20
6.596474223099999
 30
0.0
 10
-4.108774101875683
 20
6.5965634552
 30
0.0
 10
-4.093591342475683
 20
6.596654747
 30
0.0
 10
-4.075726665275683
 20
6.5967457189
 30
0.0
 10
-4.046550506575683
 20
6.596868461499997
 30
0.0
 10
-4.01380859217568
 20
6.596962602
 30
0.0
 10
-3.977508571475683
 20
6.5970075024
 30
0.0
 10
-3.946297099375683
 20
6.596991426399997
 30
0.0
 10
-3.918640163575683
 20
6.5969050571
 30
0.0
 10
-3.895214804875683
 20
6.5967417339
 30
0.0
 10
-3.876698415675683
 20
6.596543529999999
 30
0.0
 10
-3.857596944575681
 20
6.5962173638
 30
0.0
 10
-3.841344431375683
 20
6.595743158899997
 30
0.0
 10
-3.828138468975681
 20
6.5951232619
 30
0.0
 10
-3.81817497837568
 20
6.5944003272
 30
0.0
 10
-3.808389901875683
 20
6.593292882899999
 30
0.0
 10
-3.801953312875683
 20
6.5919752626
 30
0.0
 10
-3.798948849875683
 20
6.5908679883
 30
0.0
  0
SPLINE
  5
EA7
330
21D
100
AcDbEntity
  8
0
  6
Continuous
 62
     7
100
AcDbSpline
210
0.0
220
0.0
230
1.0
 70
     8
 71
     3
 72
     9
 73
     5
 74
     0
 42
0.0000000001
 43
0.0000000001
 40
0.0
 40
0.0
 40
0.0
 40
0.0
 40
0.2178175074
 40
1.0
 40
1.0
 40
1.0
 40
1.0
 10
-3.076851751875683
 20
6.6603374638
 30
0.0
 10
-3.076508503875681
 20
6.6558169507
 30
0.0
 10
-3.075069148375681
 20
6.635052991499997
 30
0.0
 10
-3.074019383875683
 20
6.6142634913
 30
0.0
 10
-3.073332315775681
 20
6.597998108099999
 30
0.0
  0
SPLINE
  5
EA8
330
21D
100
AcDbEntity
  8
0
  6
Continuous
 62
     7
100
AcDbSpline
210
0.0
220
0.0
230
1.0
 70
     8
 71
     3
 72
     9
 73
     5
 74
     0
 42
0.0000000001
 43
0.0000000001
 40
0.0
 40
0.0
 40
0.0
 40
0.0
 40
0.2181263492
 40
1.0
 40
1.0
 40
1.0
 40
1.0
 10
0.3709799562243168
 20
6.660347923799997
 30
0.0
 10
0.3706361405243164
 20
6.655820285099999
 30
0.0
 10
0.3692025509243164
 20
6.635052615
 30
0.0
 10
0.3681473044243169
 20
6.6142601639
 30
0.0
 10
0.3674603932243166
 20
6.5979986245
 30
0.0
  0
SPLINE
  5
EA9
330
21D
100
AcDbEntity
  8
0
  6
Continuous
 62
     7
100
AcDbSpline
210
0.0
220
0.0
230
1.0
 70
     8
 71
     3
 72
     9
 73
     5
 74
     0
 42
0.0000000001
 43
0.0000000001
 40
0.0
 40
0.0
 40
0.0
 40
0.0
 40
0.5002215132
 40
1.0
 40
1.0
 40
1.0
 40
1.0
 10
1.127543775824314
 20
6.662046876399997
 30
0.0
 10
1.116909387924314
 20
6.6534523803
 30
0.0
 10
1.099032450424314
 20
6.6315738333
 30
0.0
 10
1.091806454024314
 20
6.604247351299997
 30
0.0
 10
1.091122919324317
 20
6.5906034025
 30
0.0
  0
SPLINE
  5
EAA
330
21D
100
AcDbEntity
  8
0
  6
Continuous
 62
     7
100
AcDbSpline
210
0.0
220
0.0
230
1.0
 70
     8
 71
     3
 72
     9
 73
     5
 74
     0
 42
0.0000000001
 43
0.0000000001
 40
0.0
 40
0.0
 40
0.0
 40
0.0
 40
0.4998520426
 40
1.0
 40
1.0
 40
1.0
 40
1.0
 10
-3.835679288775683
 20
6.6623074021
 30
0.0
 10
-3.825009742775683
 20
6.6537376608
 30
0.0
 10
-3.807041234975683
 20
6.6318854494
 30
0.0
 10
-3.799676384475683
 20
6.6045460058
 30
0.0
 10
-3.798949102875683
 20
6.590872215399999
 30
0.0
  0
SPLINE
  5
EAB
330
21D
100
AcDbEntity
  8
0
  6
Continuous
 62
     7
100
AcDbSpline
210
0.0
220
0.0
230
1.0
 70
     8
 71
     3
 72
    21
 73
    17
 74
     0
 42
0.0000000001
 43
0.0000000001
 40
0.0
 40
0.0
 40
0.0
 40
0.0
 40
0.1958814364
 40
0.3829359665
 40
0.5545301271000001
 40
0.7047260944
 40
0.7700386552
 40
0.828080879
 40
0.8783729559999999
 40
0.9204350974
 40
0.9538376282999999
 40
0.9783512566
 40
0.9872188205
 40
0.9937971742
 40
0.9980643425
 40
1.0
 40
1.0
 40
1.0
 40
1.0
 10
0.3407906522243165
 20
2.260709578799998
 30
0.0
 10
0.342492090624317
 20
2.230264841599999
 30
0.0
 10
0.3458345295243168
 20
2.170748189
 30
0.0
 10
0.3507234718243168
 20
2.084564788799998
 30
0.0
 10
0.3552615188243169
 20
2.005484648899999
 30
0.0
 10
0.3587607693243169
 20
1.945327268299998
 30
0.0
 10
0.3612706375243166
 20
1.902818526599999
 30
0.0
 10
0.3628824563243169
 20
1.875835540099999
 30
0.0
 10
0.3642997139243165
 20
1.852466807199999
 30
0.0
 10
0.3655066295243166
 20
1.8329276799
 30
0.0
 10
0.3664983190243167
 20
1.817396525299999
 30
0.0
 10
0.3671810863243166
 20
1.8070218068
 30
0.0
 10
0.3676319963243166
 20
1.8008192772
 30
0.0
 10
0.3678511307243166
 20
1.797755814499998
 30
0.0
 10
0.3680507937243167
 20
1.795780773
 30
0.0
 10
0.3681174175243167
 20
1.7948113965
 30
0.0
 10
0.3681905096243168
 20
1.7945190783
 30
0.0
  0
SPLINE
  5
EAC
330
21D
100
AcDbEntity
  8
0
  6
Continuous
 62
     7
100
AcDbSpline
210
0.0
220
0.0
230
1.0
 70
     8
 71
     3
 72
    21
 73
    17
 74
     0
 42
0.0000000001
 43
0.0000000001
 40
0.0
 40
0.0
 40
0.0
 40
0.0
 40
0.195881428
 40
0.3829359506
 40
0.5545301054000003
 40
0.7047260699
 40
0.7700386304000002
 40
0.8280808548999999
 40
0.8783729337
 40
0.9204350778
 40
0.9538376123999999
 40
0.9783512453
 40
0.9872188118999998
 40
0.9937971685
 40
0.9980643396999999
 40
1.0
 40
1.0
 40
1.0
 40
1.0
 10
-3.046663862975683
 20
2.260709089199997
 30
0.0
 10
-3.04836530837568
 20
2.230264353199999
 30
0.0
 10
-3.05170775967568
 20
2.170747702699999
 30
0.0
 10
-3.056596715975683
 20
2.0845643052
 30
0.0
 10
-3.061134771675683
 20
2.0054841669
 30
0.0
 10
-3.064634024975683
 20
1.9453267868
 30
0.0
 10
-3.067143892175683
 20
1.9028180447
 30
0.0
 10
-3.068755708875681
 20
1.875835057199999
 30
0.0
 10
-3.070172962875683
 20
1.852466322899999
 30
0.0
 10
-3.071379873775683
 20
1.832927193799999
 30
0.0
 10
-3.072371556975681
 20
1.817396036599999
 30
0.0
 10
-3.073054318475683
 20
1.807021315999999
 30
0.0
 10
-3.073505221575683
 20
1.800818783899998
 30
0.0
 10
-3.073724352875683
 20
1.79775532
 30
0.0
 10
-3.073924009175683
 20
1.795780275699998
 30
0.0
 10
-3.07399063217568
 20
1.794810899299998
 30
0.0
 10
-3.074063719775683
 20
1.7945185796
 30
0.0
  0
LINE
  5
EAD
330
21D
100
AcDbEntity
  8
0
  6
Continuous
 62
     7
100
AcDbLine
 10
-3.569624121375681
 20
2.261963804199997
 30
0.0
 11
-3.569599664875683
 21
2.261516256699998
 31
0.0
  0
LINE
  5
EAE
330
21D
100
AcDbEntity
  8
0
  6
Continuous
 62
     7
100
AcDbLine
 10
-3.569599664875683
 20
2.261516256699998
 30
0.0
 11
-3.569577453375681
 21
2.2611161747
 31
0.0
  0
SPLINE
  5
EAF
330
21D
100
AcDbEntity
  8
0
  6
Continuous
 62
     7
100
AcDbSpline
210
0.0
220
0.0
230
1.0
 70
     8
 71
     3
 72
    13
 73
     9
 74
     0
 42
0.0000000001
 43
0.0000000001
 40
0.0
 40
0.0
 40
0.0
 40
0.0
 40
0.1255229593
 40
0.2510448522
 40
0.5009791519000001
 40
0.7506765245000003
 40
0.8757445509
 40
1.0
 40
1.0
 40
1.0
 40
1.0
 10
-3.569577453375681
 20
2.2611161747
 30
0.0
 10
-3.567893341775683
 20
2.231004520399999
 30
0.0
 10
-3.558845081975681
 20
2.1709399886
 30
0.0
 10
-3.519280556075683
 20
2.056681305699997
 30
0.0
 10
-3.431118761975683
 20
1.930580750399998
 30
0.0
 10
-3.303780000475683
 20
1.844625160599997
 30
0.0
 10
-3.189641105175681
 20
1.806293731699998
 30
0.0
 10
-3.130003726975683
 20
1.7974602615
 30
0.0
 10
-3.100200430675681
 20
1.7957180511
 30
0.0
  0
SPLINE
  5
EB0
330
21D
100
AcDbEntity
  8
0
  6
Continuous
 62
     7
100
AcDbSpline
210
0.0
220
0.0
230
1.0
 70
     8
 71
     3
 72
    11
 73
     7
 74
     0
 42
0.0000000001
 43
0.0000000001
 40
0.0
 40
0.0
 40
0.0
 40
0.0
 40
0.2622059544
 40
0.5115682679
 40
0.7494494378000001
 40
1.0
 40
1.0
 40
1.0
 40
1.0
 10
-1.777143047375683
 20
1.7458288006
 30
0.0
 10
-1.766646612675683
 20
1.744195721999999
 30
0.0
 10
-1.746506211175683
 20
1.7388582802
 30
0.0
 10
-1.71823531677568
 20
1.727653972999998
 30
0.0
 10
-1.691843065975683
 20
1.7134902106
 30
0.0
 10
-1.675360505475683
 20
1.702510104499999
 30
0.0
 10
-1.667023513575683
 20
1.696719796399998
 30
0.0
  0
LINE
  5
EB1
330
21D
100
AcDbEntity
  8
0
  6
Continuous
 62
     7
100
AcDbLine
 10
0.8637553219243168
 20
2.261963971899997
 30
0.0
 11
0.8637308754243163
 21
2.2615166569
 31
0.0
  0
LINE
  5
EB2
330
21D
100
AcDbEntity
  8
0
  6
Continuous
 62
     7
100
AcDbLine
 10
0.8637308754243163
 20
2.2615166569
 30
0.0
 11
0.8637098265243166
 21
2.2611374827
 31
0.0
  0
SPLINE
  5
EB3
330
21D
100
AcDbEntity
  8
0
  6
Continuous
 62
     7
100
AcDbSpline
210
0.0
220
0.0
230
1.0
 70
     8
 71
     3
 72
    13
 73
     9
 74
     0
 42
0.0000000001
 43
0.0000000001
 40
0.0
 40
0.0
 40
0.0
 40
0.0
 40
0.1255230628
 40
0.251044646
 40
0.500978243
 40
0.7506746515
 40
0.8757421800999999
 40
1.0
 40
1.0
 40
1.0
 40
1.0
 10
0.8637098265243166
 20
2.2611374827
 30
0.0
 10
0.8620262879243163
 20
2.2310245796
 30
0.0
 10
0.8529748464243166
 20
2.170958193499997
 30
0.0
 10
0.8134147868243164
 20
2.0566935843
 30
0.0
 10
0.7252516922243169
 20
1.930586163499999
 30
0.0
 10
0.5979091308243169
 20
1.844626229799997
 30
0.0
 10
0.4837653702243168
 20
1.8062933525
 30
0.0
 10
0.4241251166243166
 20
1.7974601315
 30
0.0
 10
0.3943200786243164
 20
1.7957177712
 30
0.0
  0
SPLINE
  5
EB4
330
21D
100
AcDbEntity
  8
0
  6
Continuous
 62
     7
100
AcDbSpline
210
0.0
220
0.0
230
1.0
 70
     8
 71
     3
 72
     9
 73
     5
 74
     0
 42
0.0000000001
 43
0.0000000001
 40
0.0
 40
0.0
 40
0.0
 40
0.0
 40
0.2555020224
 40
1.0
 40
1.0
 40
1.0
 40
1.0
 10
-1.120768920275682
 20
1.654739766299998
 30
0.0
 10
-1.118323595075684
 20
1.658211134999999
 30
0.0
 10
-1.108272650575682
 20
1.6714495244
 30
0.0
 10
-1.096252673975683
 20
1.683219261999999
 30
0.0
 10
-1.086416112075681
 20
1.69072444
 30
0.0
  0
SPLINE
  5
EB5
330
21D
100
AcDbEntity
  8
0
  6
Continuous
 62
     7
100
AcDbSpline
210
0.0
220
0.0
230
1.0
 70
     8
 71
     3
 72
     9
 73
     5
 74
     0
 42
0.0000000001
 43
0.0000000001
 40
0.0
 40
0.0
 40
0.0
 40
0.0
 40
0.256368934
 40
1.0
 40
1.0
 40
1.0
 40
1.0
 10
-1.128136126875682
 20
1.6547397605
 30
0.0
 10
-1.125770847075682
 20
1.6581969668
 30
0.0
 10
-1.116075310775682
 20
1.6713511277
 30
0.0
 10
-1.104445517375682
 20
1.6831100402
 30
0.0
 10
-1.094898460675683
 20
1.6906257888
 30
0.0
  0
LINE
  5
EB6
330
21D
100
AcDbEntity
  8
0
  6
Continuous
 62
     7
100
AcDbLine
 10
-1.128497955075682
 20
1.654739764199999
 30
0.0
 11
-1.128380328275683
 21
1.654911597499999
 31
0.0
  0
SPLINE
  5
EB7
330
21D
100
AcDbEntity
  8
0
  6
Continuous
 62
     7
100
AcDbSpline
210
0.0
220
0.0
230
1.0
 70
     8
 71
     3
 72
     9
 73
     5
 74
     0
 42
0.0000000001
 43
0.0000000001
 40
0.0
 40
0.0
 40
0.0
 40
0.0
 40
0.2563717624
 40
1.0
 40
1.0
 40
1.0
 40
1.0
 10
-1.128380328275683
 20
1.654911597499999
 30
0.0
 10
-1.126023072975682
 20
1.658350828199998
 30
0.0
 10
-1.116363378575682
 20
1.6714372987
 30
0.0
 10
-1.104787646975682
 20
1.683139597599998
 30
0.0
 10
-1.095287980175682
 20
1.6906244422
 30
0.0
  0
SPLINE
  5
EB8
330
21D
100
AcDbEntity
  8
0
  6
Continuous
 62
     7
100
AcDbSpline
210
0.0
220
0.0
230
1.0
 70
     8
 71
     3
 72
     9
 73
     5
 74
     0
 42
0.0000000001
 43
0.0000000001
 40
0.0
 40
0.0
 40
0.0
 40
0.0
 40
0.2698987962999999
 40
1.0
 40
1.0
 40
1.0
 40
1.0
 10
-1.229396967675682
 20
1.654739753
 30
0.0
 10
-1.228145751775682
 20
1.6580638237
 30
0.0
 10
-1.223215214875682
 20
1.670259914799999
 30
0.0
 10
-1.217048358175682
 20
1.6820079626
 30
0.0
 10
-1.211609657575682
 20
1.689928254299998
 30
0.0
  0
SPLINE
  5
EB9
330
21D
100
AcDbEntity
  8
0
  6
Continuous
 62
     7
100
AcDbSpline
210
0.0
220
0.0
230
1.0
 70
     8
 71
     3
 72
     9
 73
     5
 74
     0
 42
0.0000000001
 43
0.0000000001
 40
0.0
 40
0.0
 40
0.0
 40
0.0
 40
0.2756528586
 40
1.0
 40
1.0
 40
1.0
 40
1.0
 10
-1.41669325627568
 20
1.654739763499998
 30
0.0
 10
-1.417321758675683
 20
1.6580310918
 30
0.0
 10
-1.419760341075683
 20
1.669937538799999
 30
0.0
 10
-1.422831678775681
 20
1.681735117199997
 30
0.0
 10
-1.425674692375682
 20
1.6900685731
 30
0.0
  0
SPLINE
  5
EBA
330
21D
100
AcDbEntity
  8
0
  6
Continuous
 62
     7
100
AcDbSpline
210
0.0
220
0.0
230
1.0
 70
    24
 71
     3
 72
     8
 73
     4
 74
     0
 42
0.0000000001
 43
0.0000000001
 40
0.0
 40
0.0
 40
0.0
 40
0.0
 40
1.0
 40
1.0
 40
1.0
 40
1.0
 10
-1.416278595275683
 20
1.654739760699998
 30
0.0
 10
-1.416283532675683
 20
1.6547658364
 30
0.0
 10
-1.416288469975683
 20
1.6547919121
 30
0.0
 10
-1.416293407275681
 20
1.6548179878
 30
0.0
  0
SPLINE
  5
EBB
330
21D
100
AcDbEntity
  8
0
  6
Continuous
 62
     7
100
AcDbSpline
210
0.0
220
0.0
230
1.0
 70
     8
 71
     3
 72
     9
 73
     5
 74
     0
 42
0.0000000001
 43
0.0000000001
 40
0.0
 40
0.0
 40
0.0
 40
0.0
 40
0.2756579336
 40
1.0
 40
1.0
 40
1.0
 40
1.0
 10
-1.416293407275681
 20
1.6548179878
 30
0.0
 10
-1.416915366775683
 20
1.658100933899999
 30
0.0
 10
-1.419328494175681
 20
1.669977373899999
 30
0.0
 10
-1.422367562975683
 20
1.681746969199997
 30
0.0
 10
-1.425181044975681
 20
1.6900639763
 30
0.0
  0
SPLINE
  5
EBC
330
21D
100
AcDbEntity
  8
0
  6
Continuous
 62
     7
100
AcDbSpline
210
0.0
220
0.0
230
1.0
 70
     8
 71
     3
 72
     9
 73
     5
 74
     0
 42
0.0000000001
 43
0.0000000001
 40
0.0
 40
0.0
 40
0.0
 40
0.0
 40
0.2777661897
 40
1.0
 40
1.0
 40
1.0
 40
1.0
 10
-1.319599371875682
 20
1.654739764
 30
0.0
 10
-1.319208279875682
 20
1.6579896837
 30
0.0
 10
-1.317709639675682
 20
1.6696777349
 30
0.0
 10
-1.315857791575682
 20
1.681328139099998
 30
0.0
 10
-1.314144169475682
 20
1.689665093199999
 30
0.0
  0
SPLINE
  5
EBD
330
21D
100
AcDbEntity
  8
0
  6
Continuous
 62
     7
100
AcDbSpline
210
0.0
220
0.0
230
1.0
 70
     8
 71
     3
 72
     9
 73
     5
 74
     0
 42
0.0000000001
 43
0.0000000001
 40
0.0
 40
0.0
 40
0.0
 40
0.0
 40
0.2258547961
 40
1.0
 40
1.0
 40
1.0
 40
1.0
 10
-1.248585658175682
 20
1.6897055158
 30
0.0
 10
-1.249899549575682
 20
1.6871973924
 30
0.0
 10
-1.255359149975682
 20
1.675904984199998
 30
0.0
 10
-1.259560135975682
 20
1.6640360831
 30
0.0
 10
-1.262347055775682
 20
1.654739763799998
 30
0.0
  0
LINE
  5
EBE
330
21D
100
AcDbEntity
  8
0
  6
Continuous
 62
     7
100
AcDbLine
 10
-1.033253287975681
 20
1.6921268974
 30
0.0
 11
-1.033149716475683
 21
1.6921772674
 31
0.0
  0
LINE
  5
EBF
330
21D
100
AcDbEntity
  8
0
  6
Continuous
 62
     7
100
AcDbLine
 10
-1.033475608875682
 20
1.692059748
 30
0.0
 11
-1.033253287975681
 21
1.6921268974
 31
0.0
  0
LINE
  5
EC0
330
21D
100
AcDbEntity
  8
0
  6
Continuous
 62
     7
100
AcDbLine
 10
-1.039653506375681
 20
1.6915422199
 30
0.0
 11
-1.033476029375681
 21
1.6920594785
 31
0.0
  0
SPLINE
  5
EC1
330
21D
100
AcDbEntity
  8
0
  6
Continuous
 62
     7
100
AcDbSpline
210
0.0
220
0.0
230
1.0
 70
     8
 71
     3
 72
    11
 73
     7
 74
     0
 42
0.0000000001
 43
0.0000000001
 40
0.0
 40
0.0
 40
0.0
 40
0.0
 40
0.3200458272
 40
0.5934452449000001
 40
0.8222630065999998
 40
1.0
 40
1.0
 40
1.0
 40
1.0
 10
-1.086423104975682
 20
1.690724346399998
 30
0.0
 10
-1.081834853175682
 20
1.690785337799999
 30
0.0
 10
-1.073327219175681
 20
1.6908988722
 30
0.0
 10
-1.061537072775682
 20
1.690934151699998
 30
0.0
 10
-1.051793089475683
 20
1.691269588899998
 30
0.0
 10
-1.045964081375682
 20
1.6913304752
 30
0.0
 10
-1.04341664227568
 20
1.6913968712
 30
0.0
  0
SPLINE
  5
EC2
330
21D
100
AcDbEntity
  8
0
  6
Continuous
 62
     7
100
AcDbSpline
210
0.0
220
0.0
230
1.0
 70
     8
 71
     3
 72
    11
 73
     7
 74
     0
 42
0.0000000001
 43
0.0000000001
 40
0.0
 40
0.0
 40
0.0
 40
0.0
 40
0.2529220517000001
 40
0.5137252722
 40
0.7582045178
 40
1.0
 40
1.0
 40
1.0
 40
1.0
 10
-0.9752977860756828
 20
1.7467426682
 30
0.0
 10
-0.9859379222756832
 20
1.7464605086
 30
0.0
 10
-1.007383953075682
 20
1.741215485099998
 30
0.0
 10
-1.036008749975682
 20
1.7269709258
 30
0.0
 10
-1.062355757775683
 20
1.709697382899999
 30
0.0
 10
-1.078421734675683
 20
1.697009765699998
 30
0.0
 10
-1.086423685775681
 20
1.6907238902
 30
0.0
  0
SPLINE
  5
EC3
330
21D
100
AcDbEntity
  8
0
  6
Continuous
 62
     7
100
AcDbSpline
210
0.0
220
0.0
230
1.0
 70
     8
 71
     3
 72
    11
 73
     7
 74
     0
 42
0.0000000001
 43
0.0000000001
 40
0.0
 40
0.0
 40
0.0
 40
0.0
 40
0.2514654779
 40
0.5117934564
 40
0.7567138699
 40
1.0
 40
1.0
 40
1.0
 40
1.0
 10
-0.9870465132756836
 20
1.746876832799999
 30
0.0
 10
-0.9973909410756832
 20
1.7465621033
 30
0.0
 10
-1.018253784275682
 20
1.7412444658
 30
0.0
 10
-1.046008848375683
 20
1.726980542499999
 30
0.0
 10
-1.071573780975683
 20
1.7096714407
 30
0.0
 10
-1.087128446575682
 20
1.6969407611
 30
0.0
 10
-1.094898468175681
 20
1.690625803199998
 30
0.0
  0
LINE
  5
EC4
330
21D
100
AcDbEntity
  8
0
  6
Continuous
 62
     7
100
AcDbLine
 10
-1.095262168575682
 20
1.6906244402
 30
0.0
 11
-1.094898468175681
 21
1.690625803199998
 31
0.0
  0
SPLINE
  5
EC5
330
21D
100
AcDbEntity
  8
0
  6
Continuous
 62
     7
100
AcDbSpline
210
0.0
220
0.0
230
1.0
 70
     8
 71
     3
 72
    11
 73
     7
 74
     0
 42
0.0000000001
 43
0.0000000001
 40
0.0
 40
0.0
 40
0.0
 40
0.0
 40
0.2513995833
 40
0.5117072482000001
 40
0.7566506170000002
 40
1.0
 40
1.0
 40
1.0
 40
1.0
 10
-0.9875563472756834
 20
1.746883536299999
 30
0.0
 10
-0.9978873043756831
 20
1.7465674312
 30
0.0
 10
-1.018723622275683
 20
1.7412470734
 30
0.0
 10
-1.046439433475683
 20
1.726983239299998
 30
0.0
 10
-1.071968990775681
 20
1.7096737896
 30
0.0
 10
-1.087500560075683
 20
1.6969421224
 30
0.0
 10
-1.095259875575683
 20
1.6906263066
 30
0.0
  0
SPLINE
  5
EC6
330
21D
100
AcDbEntity
  8
0
  6
Continuous
 62
     7
100
AcDbSpline
210
0.0
220
0.0
230
1.0
 70
     8
 71
     3
 72
    11
 73
     7
 74
     0
 42
0.0000000001
 43
0.0000000001
 40
0.0
 40
0.0
 40
0.0
 40
0.0
 40
0.2096029933
 40
0.4492212459
 40
0.71330715
 40
1.0
 40
1.0
 40
1.0
 40
1.0
 10
-1.095259875575683
 20
1.6906263066
 30
0.0
 10
-1.103386841775682
 20
1.690602016399997
 30
0.0
 10
-1.120804845675682
 20
1.690605574699999
 30
0.0
 10
-1.148460598175682
 20
1.6902618765
 30
0.0
 10
-1.179107736975682
 20
1.690344696799997
 30
0.0
 10
-1.200461679475682
 20
1.6900428462
 30
0.0
 10
-1.211577123975682
 20
1.689928596599999
 30
0.0
  0
LINE
  5
EC7
330
21D
100
AcDbEntity
  8
0
  6
Continuous
 62
     7
100
AcDbLine
 10
-1.248585659675683
 20
1.689705502899998
 30
0.0
 11
-1.211575521675682
 21
1.689931523799999
 31
0.0
  0
SPLINE
  5
EC8
330
21D
100
AcDbEntity
  8
0
  6
Continuous
 62
     7
100
AcDbSpline
210
0.0
220
0.0
230
1.0
 70
     8
 71
     3
 72
    14
 73
    10
 74
     0
 42
0.0000000001
 43
0.0000000001
 40
0.0
 40
0.0
 40
0.0
 40
0.0
 40
0.0966596527
 40
0.2069759038
 40
0.328907486
 40
0.4569605508
 40
0.5862924628
 40
0.7171246720000001
 40
1.0
 40
1.0
 40
1.0
 40
1.0
 10
-1.159997549875682
 20
1.7497023246
 30
0.0
 10
-1.162584647775682
 20
1.7493488699
 30
0.0
 10
-1.167945789375682
 20
1.747340434699999
 30
0.0
 10
-1.175216844275682
 20
1.7421643536
 30
0.0
 10
-1.182218391475682
 20
1.735364686899998
 30
0.0
 10
-1.188825811775682
 20
1.727519266699999
 30
0.0
 10
-1.194975460475682
 20
1.719012395099998
 30
0.0
 10
-1.202689722975682
 20
1.706523971699998
 30
0.0
 10
-1.207906330475682
 20
1.6966344737
 30
0.0
 10
-1.211575521675682
 20
1.689931523799999
 30
0.0
  0
SPLINE
  5
EC9
330
21D
100
AcDbEntity
  8
0
  6
Continuous
 62
     7
100
AcDbSpline
210
0.0
220
0.0
230
1.0
 70
    24
 71
     3
 72
     8
 73
     4
 74
     0
 42
0.0000000001
 43
0.0000000001
 40
0.0
 40
0.0
 40
0.0
 40
0.0
 40
1.0
 40
1.0
 40
1.0
 40
1.0
 10
-1.248581863775682
 20
1.689705651299999
 30
0.0
 10
-1.248570029775682
 20
1.689736610699999
 30
0.0
 10
-1.248558195775682
 20
1.689767570099999
 30
0.0
 10
-1.248546361775682
 20
1.689798529399999
 30
0.0
  0
SPLINE
  5
ECA
330
21D
100
AcDbEntity
  8
0
  6
Continuous
 62
     7
100
AcDbSpline
210
0.0
220
0.0
230
1.0
 70
     8
 71
     3
 72
    14
 73
    10
 74
     0
 42
0.0000000001
 43
0.0000000001
 40
0.0
 40
0.0
 40
0.0
 40
0.0
 40
0.0815717492
 40
0.1830046585
 40
0.3011410502
 40
0.4289705122
 40
0.5610648901
 40
0.6979724240000002
 40
1.0
 40
1.0
 40
1.0
 40
1.0
 10
-1.211908267975682
 20
1.7503799418
 30
0.0
 10
-1.213835213375682
 20
1.749968800099999
 30
0.0
 10
-1.217823836175682
 20
1.7477059279
 30
0.0
 10
-1.222903028275682
 20
1.742477894
 30
0.0
 10
-1.227843640275682
 20
1.735664193199998
 30
0.0
 10
-1.232507461875682
 20
1.7278062612
 30
0.0
 10
-1.236847193575682
 20
1.7192513675
 30
0.0
 10
-1.242295893875684
 20
1.706573568199998
 30
0.0
 10
-1.245938154575682
 20
1.696613257599999
 30
0.0
 10
-1.248542563775682
 20
1.689798678
 30
0.0
  0
LINE
  5
ECB
330
21D
100
AcDbEntity
  8
0
  6
Continuous
 62
     7
100
AcDbLine
 10
-1.314144169375683
 20
1.6896650922
 30
0.0
 11
-1.248542563775682
 21
1.689798678
 31
0.0
  0
SPLINE
  5
ECC
330
21D
100
AcDbEntity
  8
0
  6
Continuous
 62
     7
100
AcDbSpline
210
0.0
220
0.0
230
1.0
 70
     8
 71
     3
 72
    15
 73
    11
 74
     0
 42
0.0000000001
 43
0.0000000001
 40
0.0
 40
0.0
 40
0.0
 40
0.0
 40
0.0224643329
 40
0.0538075132
 40
0.1413819523
 40
0.2544138687
 40
0.3826181594
 40
0.5196975329
 40
0.6667944666
 40
1.0
 40
1.0
 40
1.0
 40
1.0
 10
-1.299921638275682
 20
1.7508005872
 30
0.0
 10
-1.300327853375682
 20
1.7505570469
 30
0.0
 10
-1.301107465175682
 20
1.749686396199999
 30
0.0
 10
-1.302575259775682
 20
1.7470965171
 30
0.0
 10
-1.304244461675682
 20
1.7424664397
 30
0.0
 10
-1.306102696675682
 20
1.7357946947
 30
0.0
 10
-1.307885013475682
 20
1.728014803499999
 30
0.0
 10
-1.309562011075682
 20
1.719483400699999
 30
0.0
 10
-1.311702206775682
 20
1.7066423197
 30
0.0
 10
-1.313122659375682
 20
1.696615570999999
 30
0.0
 10
-1.314144169375683
 20
1.6896650922
 30
0.0
  0
LINE
  5
ECD
330
21D
100
AcDbEntity
  8
0
  6
Continuous
 62
     7
100
AcDbLine
 10
-1.352935804375682
 20
1.6896905461
 30
0.0
 11
-1.352429043875682
 21
1.6896883083
 31
0.0
  0
LINE
  5
ECE
330
21D
100
AcDbEntity
  8
0
  6
Continuous
 62
     7
100
AcDbLine
 10
-1.352935881875682
 20
1.7508752958
 30
0.0
 11
-1.352935806875682
 21
1.689689990099999
 31
0.0
  0
SPLINE
  5
ECF
330
21D
100
AcDbEntity
  8
0
  6
Continuous
 62
     7
100
AcDbSpline
210
0.0
220
0.0
230
1.0
 70
     8
 71
     3
 72
    13
 73
     9
 74
     0
 42
0.0000000001
 43
0.0000000001
 40
0.0
 40
0.0
 40
0.0
 40
0.0
 40
0.067456799
 40
0.1604179988
 40
0.273288069
 40
0.3976793942
 40
0.6725187456999999
 40
1.0
 40
1.0
 40
1.0
 40
1.0
 10
-1.450500041875683
 20
1.7506289595
 30
0.0
 10
-1.449072105075681
 20
1.7501641084
 30
0.0
 10
-1.446234967375683
 20
1.7477020952
 30
0.0
 10
-1.442841688475681
 20
1.7426883052
 30
0.0
 10
-1.439476690275681
 20
1.736119364199999
 30
0.0
 10
-1.435066987975683
 20
1.725605520699998
 30
0.0
 10
-1.430233463475683
 20
1.7101330733
 30
0.0
 10
-1.427001887975682
 20
1.697123153399999
 30
0.0
 10
-1.425181048975683
 20
1.690063950399999
 30
0.0
  0
LINE
  5
ED0
330
21D
100
AcDbEntity
  8
0
  6
Continuous
 62
     7
100
AcDbLine
 10
-1.425674692275681
 20
1.690068574
 30
0.0
 11
-1.425181048975683
 21
1.690063950399999
 31
0.0
  0
SPLINE
  5
ED1
330
21D
100
AcDbEntity
  8
0
  6
Continuous
 62
     7
100
AcDbSpline
210
0.0
220
0.0
230
1.0
 70
     8
 71
     3
 72
    13
 73
     9
 74
     0
 42
0.0000000001
 43
0.0000000001
 40
0.0
 40
0.0
 40
0.0
 40
0.0
 40
0.0676905264
 40
0.1607629921
 40
0.2736619508
 40
0.3980279541
 40
0.6727248692
 40
1.0
 40
1.0
 40
1.0
 40
1.0
 10
-1.451173097375683
 20
1.7506256786
 30
0.0
 10
-1.449737614675683
 20
1.750161918899999
 30
0.0
 10
-1.446881602875683
 20
1.747704890099998
 30
0.0
 10
-1.443462033475683
 20
1.742689626399998
 30
0.0
 10
-1.440072766575681
 20
1.7361215378
 30
0.0
 10
-1.435631977475683
 20
1.7256104386
 30
0.0
 10
-1.430763586075683
 20
1.710138946599998
 30
0.0
 10
-1.427508480175683
 20
1.697127866199999
 30
0.0
 10
-1.425674692275681
 20
1.690068574
 30
0.0
  0
SPLINE
  5
ED2
330
21D
100
AcDbEntity
  8
0
  6
Continuous
 62
     7
100
AcDbSpline
210
0.0
220
0.0
230
1.0
 70
     8
 71
     3
 72
    13
 73
     9
 74
     0
 42
0.0000000001
 43
0.0000000001
 40
0.0
 40
0.0
 40
0.0
 40
0.0
 40
0.0820127118
 40
0.1825376359
 40
0.4205187056000001
 40
0.5488319435
 40
0.6864021623000001
 40
1.0
 40
1.0
 40
1.0
 40
1.0
 10
-1.493966325775683
 20
1.7503797646
 30
0.0
 10
-1.492034798275684
 20
1.7499683977
 30
0.0
 10
-1.488044090075684
 20
1.747788542499999
 30
0.0
 10
-1.480811223775681
 20
1.740667138799999
 30
0.0
 10
-1.474584171875683
 20
1.7311747386
 30
0.0
 10
-1.468955634575683
 20
1.7204325163
 30
0.0
 10
-1.463379037175683
 20
1.707627721399997
 30
0.0
 10
-1.459624522275681
 20
1.6974314968
 30
0.0
 10
-1.456957988275683
 20
1.6903666058
 30
0.0
  0
LINE
  5
ED3
330
21D
100
AcDbEntity
  8
0
  6
Continuous
 62
     7
100
AcDbLine
 10
-1.474513557675683
 20
1.690572066299998
 30
0.0
 11
-1.456926568575683
 21
1.690296379
 31
0.0
  0
SPLINE
  5
ED4
330
21D
100
AcDbEntity
  8
0
  6
Continuous
 62
     7
100
AcDbSpline
210
0.0
220
0.0
230
1.0
 70
     8
 71
     3
 72
    14
 73
    10
 74
     0
 42
0.0000000001
 43
0.0000000001
 40
0.0
 40
0.0
 40
0.0
 40
0.0
 40
0.0893512121
 40
0.19408486
 40
0.31079076
 40
0.4334050065
 40
0.5598238454
 40
0.6944333321
 40
1.0
 40
1.0
 40
1.0
 40
1.0
 10
-1.51819587877568
 20
1.750083187299997
 30
0.0
 10
-1.515970018075683
 20
1.749699045999999
 30
0.0
 10
-1.511363850275683
 20
1.7476502135
 30
0.0
 10
-1.505248943375683
 20
1.742670234799998
 30
0.0
 10
-1.499376650275683
 20
1.736220965
 30
0.0
 10
-1.493860854375681
 20
1.728788134499998
 30
0.0
 10
-1.488729623175681
 20
1.7205454124
 30
0.0
 10
-1.482126045175683
 20
1.7078244621
 30
0.0
 10
-1.477664222875683
 20
1.697624932799999
 30
0.0
 10
-1.474513557675683
 20
1.690572066299998
 30
0.0
  0
LINE
  5
ED5
330
21D
100
AcDbEntity
  8
0
  6
Continuous
 62
     7
100
AcDbLine
 10
-1.675056240875681
 20
1.697495702599999
 30
0.0
 11
-1.674713085575683
 21
1.697444905
 31
0.0
  0
LINE
  5
ED6
330
21D
100
AcDbEntity
  8
0
  6
Continuous
 62
     7
100
AcDbLine
 10
-1.674713085575683
 20
1.697444905
 30
0.0
 11
-1.668575983275682
 21
1.696837937399997
 31
0.0
  0
SPLINE
  5
ED7
330
21D
100
AcDbEntity
  8
0
  6
Continuous
 62
     7
100
AcDbSpline
210
0.0
220
0.0
230
1.0
 70
     8
 71
     3
 72
    12
 73
     8
 74
     0
 42
0.0000000001
 43
0.0000000001
 40
0.0
 40
0.0
 40
0.0
 40
0.0
 40
0.2087049261
 40
0.4483300503
 40
0.5777967785
 40
0.713529355
 40
1.0
 40
1.0
 40
1.0
 40
1.0
 10
-1.611224709675681
 20
1.6940019007
 30
0.0
 10
-1.601716236475683
 20
1.693682234399999
 30
0.0
 10
-1.581288015075681
 20
1.693078048
 30
0.0
 10
-1.55496113627568
 20
1.692266174799998
 30
0.0
 10
-1.531952336875683
 20
1.691839264799997
 30
0.0
 10
-1.506813677175681
 20
1.6911507283
 30
0.0
 10
-1.487570632075683
 20
1.690784783899998
 30
0.0
 10
-1.474513557675683
 20
1.690572066299998
 30
0.0
  0
SPLINE
  5
ED8
330
21D
100
AcDbEntity
  8
0
  6
Continuous
 62
     7
100
AcDbSpline
210
0.0
220
0.0
230
1.0
 70
     8
 71
     3
 72
    13
 73
     9
 74
     0
 42
0.0000000001
 43
0.0000000001
 40
0.0
 40
0.0
 40
0.0
 40
0.0
 40
0.2520365066
 40
0.3799762353
 40
0.5041090922000003
 40
0.6238148782000002
 40
0.7437211695999999
 40
1.0
 40
1.0
 40
1.0
 40
1.0
 10
-1.718828369875684
 20
1.746876673
 30
0.0
 10
-1.708588156475683
 20
1.746565759199999
 30
0.0
 10
-1.693241671875683
 20
1.743118591999999
 30
0.0
 10
-1.67414872097568
 20
1.735719755699999
 30
0.0
 10
-1.660501672975683
 20
1.7291825641
 30
0.0
 10
-1.647631919075681
 20
1.721877277299999
 30
0.0
 10
-1.630962475475683
 20
1.7105091769
 30
0.0
 10
-1.619157088375683
 20
1.7007546118
 30
0.0
 10
-1.611224709675681
 20
1.6940019007
 30
0.0
  0
LINE
  5
ED9
330
21D
100
AcDbEntity
  8
0
  6
Continuous
 62
     7
100
AcDbLine
 10
-1.667023513575683
 20
1.696719796399998
 30
0.0
 11
-1.664638120575681
 21
1.6965775019
 31
0.0
  0
LINE
  5
EDA
330
21D
100
AcDbEntity
  8
0
  6
Continuous
 62
     7
100
AcDbLine
 10
-1.613687138075681
 20
1.6940839699
 30
0.0
 11
-1.611224709675681
 21
1.6940019007
 31
0.0
  0
SPLINE
  5
EDB
330
21D
100
AcDbEntity
  8
0
  6
Continuous
 62
     7
100
AcDbSpline
210
0.0
220
0.0
230
1.0
 70
     8
 71
     3
 72
     9
 73
     5
 74
     0
 42
0.0000000001
 43
0.0000000001
 40
0.0
 40
0.0
 40
0.0
 40
0.0
 40
0.4093391758
 40
1.0
 40
1.0
 40
1.0
 40
1.0
 10
-1.664638120575681
 20
1.6965775019
 30
0.0
 10
-1.65853606717568
 20
1.6962473655
 30
0.0
 10
-1.643641177575681
 20
1.695216963499998
 30
0.0
 10
-1.628718248775683
 20
1.6947237878
 30
0.0
 10
-1.619908678275683
 20
1.6943404336
 30
0.0
  0
SPLINE
  5
EDC
330
21D
100
AcDbEntity
  8
0
  6
Continuous
 62
     7
100
AcDbSpline
210
0.0
220
0.0
230
1.0
 70
     8
 71
     3
 72
    13
 73
     9
 74
     0
 42
0.0000000001
 43
0.0000000001
 40
0.0
 40
0.0
 40
0.0
 40
0.0
 40
0.2535108951
 40
0.3818174075
 40
0.5060862585
 40
0.6256829736000002
 40
0.7452137999
 40
1.0
 40
1.0
 40
1.0
 40
1.0
 10
-1.730576476275683
 20
1.7467424574
 30
0.0
 10
-1.720061922775681
 20
1.746463551499999
 30
0.0
 10
-1.704303486475683
 20
1.7430839109
 30
0.0
 10
-1.684641396575683
 20
1.735754138799999
 30
0.0
 10
-1.67060406597568
 20
1.729274255099999
 30
0.0
 10
-1.657366837975683
 20
1.7220294025
 30
0.0
 10
-1.640228156375683
 20
1.710759696999998
 30
0.0
 10
-1.628068114175681
 20
1.701061529499997
 30
0.0
 10
-1.619908678275683
 20
1.6943404336
 30
0.0
  0
SPLINE
  5
EDD
330
21D
100
AcDbEntity
  8
0
  6
Continuous
 62
     7
100
AcDbSpline
210
0.0
220
0.0
230
1.0
 70
     8
 71
     3
 72
    13
 73
     9
 74
     0
 42
0.0000000001
 43
0.0000000001
 40
0.0
 40
0.0
 40
0.0
 40
0.0
 40
0.252466622
 40
0.3805113597999999
 40
0.5046801667000002
 40
0.6243511788000001
 40
0.7441476359000001
 40
1.0
 40
1.0
 40
1.0
 40
1.0
 10
-1.722181294875683
 20
1.746834274499998
 30
0.0
 10
-1.711861267775683
 20
1.7465321683
 30
0.0
 10
-1.696395024875683
 20
1.7431035422
 30
0.0
 10
-1.677136885775682
 20
1.735723055
 30
0.0
 10
-1.663376648275683
 20
1.7292012727
 30
0.0
 10
-1.650400336575683
 20
1.721912033699999
 30
0.0
 10
-1.633594486275683
 20
1.7105696677
 30
0.0
 10
-1.62168602947568
 20
1.700829169699999
 30
0.0
 10
-1.613687415375683
 20
1.6940842037
 30
0.0
  0
ELLIPSE
  5
EE0
330
21D
100
AcDbEntity
  8
0
  6
Continuous
 62
     7
100
AcDbEllipse
 10
-1.352935786175682
 20
6.221949724099997
 30
0.0
 11
0.0246062992
 21
0.0000000579
 31
0.0
210
0.0
220
0.0
230
1.0
 40
0.9986219545999999
 41
0.0
 42
6.283185307179584
  0
ENDSEC
  0
SECTION
  2
OBJECTS
  0
DICTIONARY
  5
C
330
0
100
AcDbDictionary
281
     1
  3
ACAD_COLOR
350
F12
  3
ACAD_GROUP
350
D
  3
ACAD_LAYOUT
350
1A
  3
ACAD_MATERIAL
350
EE8
  3
ACAD_MLEADERSTYLE
350
F35
  3
ACAD_MLINESTYLE
350
17
  3
ACAD_PLOTSETTINGS
350
19
  3
ACAD_PLOTSTYLENAME
350
E
  3
ACAD_SCALELIST
350
F13
  3
ACAD_TABLESTYLE
350
EE1
  3
ACAD_VISUALSTYLE
350
F01
  3
ACDB_RECOMPOSE_DATA
350
FE4
  3
AcDbVariableDictionary
350
FDC
  3
AcmDictionary
350
F94
  3
AMG
350
F3B
  3
AMGSNAPSETTINGS
350
FD5
  0
DICTIONARY
  5
F12
102
{ACAD_REACTORS
330
C
102
}
330
C
100
AcDbDictionary
281
     1
  0
DICTIONARY
  5
D
102
{ACAD_REACTORS
330
C
102
}
330
C
100
AcDbDictionary
281
     1
  0
DICTIONARY
  5
1A
102
{ACAD_REACTORS
330
C
102
}
330
C
100
AcDbDictionary
281
     1
  3
Layout1
350
EE3
  3
Model
350
EE2
  0
DICTIONARY
  5
EE8
102
{ACAD_REACTORS
330
C
102
}
330
C
100
AcDbDictionary
281
     1
  3
ByBlock
350
EF1
  3
ByLayer
350
EE9
  3
Global
350
EF9
  0
DICTIONARY
  5
F35
102
{ACAD_REACTORS
330
C
102
}
330
C
100
AcDbDictionary
281
     1
  3
Standard
350
F36
  0
DICTIONARY
  5
17
102
{ACAD_REACTORS
330
C
102
}
330
C
100
AcDbDictionary
281
     1
  3
Standard
350
18
  0
DICTIONARY
  5
19
102
{ACAD_REACTORS
330
C
102
}
330
C
100
AcDbDictionary
281
     1
  0
ACDBDICTIONARYWDFLT
  5
E
102
{ACAD_REACTORS
330
C
102
}
330
C
100
AcDbDictionary
281
     1
  3
Normal
350
F
100
AcDbDictionaryWithDefault
340
F
  0
DICTIONARY
  5
F13
102
{ACAD_REACTORS
330
C
102
}
330
C
100
AcDbDictionary
281
     1
  3
A0
350
F14
  3
A1
350
F15
  3
A2
350
F16
  3
A3
350
F17
  3
A4
350
F18
  3
A5
350
F19
  3
A6
350
F1A
  3
A7
350
F1B
  3
A8
350
F1C
  3
A9
350
F1D
  3
B0
350
F1E
  3
B1
350
F1F
  3
B2
350
F20
  3
B3
350
F21
  3
B4
350
F22
  3
B5
350
F23
  3
B6
350
F24
  3
B7
350
F25
  3
B8
350
F26
  3
B9
350
F27
  3
C0
350
F28
  3
C1
350
F29
  3
C2
350
F2A
  3
C3
350
F2B
  3
C4
350
F2C
  3
C5
350
F2D
  3
C6
350
F2E
  3
C7
350
F2F
  3
C8
350
F30
  3
C9
350
F31
  3
D0
350
F32
  3
D1
350
F33
  3
D2
350
F34
  0
DICTIONARY
  5
EE1
330
C
100
AcDbDictionary
281
     1
  3
Standard
350
EE4
  3
Standard1
350
EE5
  0
DICTIONARY
  5
F01
102
{ACAD_REACTORS
330
C
102
}
330
C
100
AcDbDictionary
281
     1
  3
2dWireframe
350
F07
  3
3D Hidden
350
F09
  3
3dWireframe
350
F08
  3
Basic
350
F06
  3
Brighten
350
F0D
  3
ColorChange
350
F11
  3
Conceptual
350
F0A
  3
Dim
350
F0C
  3
Facepattern
350
F10
  3
Flat
350
F02
  3
FlatWithEdges
350
F03
  3
Gouraud
350
F04
  3
GouraudWithEdges
350
F05
  3
Linepattern
350
F0F
  3
Realistic
350
F0B
  3
Thicken
350
F0E
  0
XRECORD
  5
FE4
102
{ACAD_REACTORS
330
C
102
}
330
C
100
AcDbXrecord
280
     1
 90
        1
330
EE4
330
EE5
  0
DICTIONARY
  5
FDC
102
{ACAD_REACTORS
330
C
102
}
330
C
100
AcDbDictionary
281
     1
  3
CANNOSCALE
350
FDF
  3
CMLEADERSTYLE
350
FDE
  3
CTABLESTYLE
350
FDD
  0
DICTIONARY
  5
F94
102
{ACAD_REACTORS
330
C
102
}
330
C
100
AcDbDictionary
281
     1
  3
AcmStdDictionary
350
FA1
  0
DICTIONARY
  5
F3B
102
{ACAD_REACTORS
330
C
102
}
330
C
100
AcDbDictionary
281
     1
  0
DICTIONARY
  5
FD5
102
{ACAD_REACTORS
330
C
102
}
330
C
100
AcDbDictionary
281
     1
  0
LAYOUT
  5
EE3
102
{ACAD_REACTORS
330
1A
102
}
330
1A
100
AcDbPlotSettings
  1

  2
none_device
  4
ANSI_D_(34.00_x_22.00_Inches)
  6

 40
0.0
 41
0.0
 42
0.0
 43
0.0
 44
863.6000000000001
 45
558.8
 46
0.0
 47
0.0
 48
0.0
 49
0.0
140
0.0
141
0.0
142
1.0
143
1.0
 70
     0
 72
     0
 73
     0
 74
     0
  7

 75
     0
147
1.0
 76
     0
 77
     2
 78
   300
148
0.0
149
0.0
100
AcDbLayout
  1
Layout1
 70
     1
 71
     1
 10
0.0
 20
0.0
 11
12.0
 21
9.0
 12
0.0
 22
0.0
 32
0.0
 14
1.000000000000000E+20
 24
1.000000000000000E+20
 34
1.000000000000000E+20
 15
-1.000000000000000E+20
 25
-1.000000000000000E+20
 35
-1.000000000000000E+20
146
0.0
 13
0.0
 23
0.0
 33
0.0
 16
1.0
 26
0.0
 36
0.0
 17
0.0
 27
1.0
 37
0.0
 76
     0
330
21E
  0
LAYOUT
  5
EE2
102
{ACAD_REACTORS
330
1A
102
}
330
1A
100
AcDbPlotSettings
  1

  2
none_device
  4
ANSI_D_(34.00_x_22.00_Inches)
  6

 40
0.0
 41
0.0
 42
0.0
 43
0.0
 44
863.6000000000001
 45
558.8
 46
0.0
 47
0.0
 48
0.0
 49
0.0
140
0.0
141
0.0
142
1.0
143
1.0
 70
  1024
 72
     0
 73
     0
 74
     0
  7

 75
     0
147
1.0
 76
     0
 77
     2
 78
   300
148
0.0
149
0.0
100
AcDbLayout
  1
Model
 70
     0
 71
     0
 10
0.0
 20
0.0
 11
34.0
 21
22.0
 12
0.0
 22
0.0
 32
0.0
 14
0.0
 24
0.0
 34
0.0
 15
0.0
 25
0.0
 35
0.0
146
0.0
 13
0.0
 23
0.0
 33
0.0
 16
1.0
 26
0.0
 36
0.0
 17
0.0
 27
1.0
 37
0.0
 76
     0
330
21D
331
1F4
  0
MATERIAL
  5
EF1
102
{ACAD_XDICTIONARY
360
EF2
102
}
102
{ACAD_REACTORS
330
EE8
102
}
330
EE8
100
AcDbMaterial
  1
ByBlock
 72
     0
 43
0.0208333333333333
 43
0.0
 43
0.0
 43
0.0
 43
0.0
 43
0.0208333333333333
 43
0.0
 43
0.0
 43
0.0
 43
0.0
 43
1.0
 43
0.0
 43
0.0
 43
0.0
 43
0.0
 43
1.0
 77
     0
 47
0.0208333333333333
 47
0.0
 47
0.0
 47
0.0
 47
0.0
 47
0.0208333333333333
 47
0.0
 47
0.0
 47
0.0
 47
0.0
 47
1.0
 47
0.0
 47
0.0
 47
0.0
 47
0.0
 47
1.0
171
     0
 49
0.0208333333333333
 49
0.0
 49
0.0
 49
0.0
 49
0.0
 49
0.0208333333333333
 49
0.0
 49
0.0
 49
0.0
 49
0.0
 49
1.0
 49
0.0
 49
0.0
 49
0.0
 49
0.0
 49
1.0
175
     0
142
0.0208333333333333
142
0.0
142
0.0
142
0.0
142
0.0
142
0.0208333333333333
142
0.0
142
0.0
142
0.0
142
0.0
142
1.0
142
0.0
142
0.0
142
0.0
142
0.0
142
1.0
179
     0
144
0.0208333333333333
144
0.0
144
0.0
144
0.0
144
0.0
144
0.0208333333333333
144
0.0
144
0.0
144
0.0
144
0.0
144
1.0
144
0.0
144
0.0
144
0.0
144
0.0
144
1.0
147
0.0208333333333333
147
0.0
147
0.0
147
0.0
147
0.0
147
0.0208333333333333
147
0.0
147
0.0
147
0.0
147
0.0
147
1.0
147
0.0
147
0.0
147
0.0
147
0.0
147
1.0
  0
MATERIAL
  5
EE9
102
{ACAD_XDICTIONARY
360
EEA
102
}
102
{ACAD_REACTORS
330
EE8
102
}
330
EE8
100
AcDbMaterial
  1
ByLayer
 72
     0
 43
0.0208333333333333
 43
0.0
 43
0.0
 43
0.0
 43
0.0
 43
0.0208333333333333
 43
0.0
 43
0.0
 43
0.0
 43
0.0
 43
1.0
 43
0.0
 43
0.0
 43
0.0
 43
0.0
 43
1.0
 77
     0
 47
0.0208333333333333
 47
0.0
 47
0.0
 47
0.0
 47
0.0
 47
0.0208333333333333
 47
0.0
 47
0.0
 47
0.0
 47
0.0
 47
1.0
 47
0.0
 47
0.0
 47
0.0
 47
0.0
 47
1.0
171
     0
 49
0.0208333333333333
 49
0.0
 49
0.0
 49
0.0
 49
0.0
 49
0.0208333333333333
 49
0.0
 49
0.0
 49
0.0
 49
0.0
 49
1.0
 49
0.0
 49
0.0
 49
0.0
 49
0.0
 49
1.0
175
     0
142
0.0208333333333333
142
0.0
142
0.0
142
0.0
142
0.0
142
0.0208333333333333
142
0.0
142
0.0
142
0.0
142
0.0
142
1.0
142
0.0
142
0.0
142
0.0
142
0.0
142
1.0
179
     0
144
0.0208333333333333
144
0.0
144
0.0
144
0.0
144
0.0
144
0.0208333333333333
144
0.0
144
0.0
144
0.0
144
0.0
144
1.0
144
0.0
144
0.0
144
0.0
144
0.0
144
1.0
147
0.0208333333333333
147
0.0
147
0.0
147
0.0
147
0.0
147
0.0208333333333333
147
0.0
147
0.0
147
0.0
147
0.0
147
1.0
147
0.0
147
0.0
147
0.0
147
0.0
147
1.0
  0
MATERIAL
  5
EF9
102
{ACAD_XDICTIONARY
360
EFA
102
}
102
{ACAD_REACTORS
330
EE8
102
}
330
EE8
100
AcDbMaterial
  1
Global
 72
     0
 43
0.0208333333333333
 43
0.0
 43
0.0
 43
0.0
 43
0.0
 43
0.0208333333333333
 43
0.0
 43
0.0
 43
0.0
 43
0.0
 43
1.0
 43
0.0
 43
0.0
 43
0.0
 43
0.0
 43
1.0
 77
     0
 47
0.0208333333333333
 47
0.0
 47
0.0
 47
0.0
 47
0.0
 47
0.0208333333333333
 47
0.0
 47
0.0
 47
0.0
 47
0.0
 47
1.0
 47
0.0
 47
0.0
 47
0.0
 47
0.0
 47
1.0
171
     0
 49
0.0208333333333333
 49
0.0
 49
0.0
 49
0.0
 49
0.0
 49
0.0208333333333333
 49
0.0
 49
0.0
 49
0.0
 49
0.0
 49
1.0
 49
0.0
 49
0.0
 49
0.0
 49
0.0
 49
1.0
175
     0
142
0.0208333333333333
142
0.0
142
0.0
142
0.0
142
0.0
142
0.0208333333333333
142
0.0
142
0.0
142
0.0
142
0.0
142
1.0
142
0.0
142
0.0
142
0.0
142
0.0
142
1.0
179
     0
144
0.0208333333333333
144
0.0
144
0.0
144
0.0
144
0.0
144
0.0208333333333333
144
0.0
144
0.0
144
0.0
144
0.0
144
1.0
144
0.0
144
0.0
144
0.0
144
0.0
144
1.0
147
0.0208333333333333
147
0.0
147
0.0
147
0.0
147
0.0
147
0.0208333333333333
147
0.0
147
0.0
147
0.0
147
0.0
147
1.0
147
0.0
147
0.0
147
0.0
147
0.0
147
1.0
  0
MLEADERSTYLE
  5
F36
102
{ACAD_REACTORS
330
F35
102
}
330
F35
100
AcDbMLeaderStyle
170
     2
171
     1
172
     0
 90
        2
 40
0.0
 41
0.0
173
     1
 91
-1056964608
340
14
 92
       -2
290
     1
 42
0.09
291
     1
 43
0.36
  3
Standard
 44
0.18
300

342
11
174
     1
178
     6
175
     1
176
     0
 93
-1056964608
 45
0.18
292
     0
297
     0
 46
0.18
 94
-1056964608
 47
1.0
 49
1.0
140
1.0
293
     1
141
0.0
294
     1
177
     0
142
1.0
295
     0
296
     0
143
0.125
1001
ACAD_MLEADERVER
1070
     2
  0
MLINESTYLE
  5
18
102
{ACAD_REACTORS
330
17
102
}
330
17
100
AcDbMlineStyle
  2
STANDARD
 70
     0
  3

 62
   256
 51
90.0
 52
90.0
 71
     2
 49
0.5
 62
   256
  6
BYLAYER
 49
-0.5
 62
   256
  6
BYLAYER
  0
ACDBPLACEHOLDER
  5
F
102
{ACAD_REACTORS
330
E
102
}
330
E
  0
SCALE
  5
F14
102
{ACAD_REACTORS
330
F13
102
}
330
F13
100
AcDbScale
 70
     0
300
1:1
140
1.0
141
1.0
290
     1
  0
SCALE
  5
F15
102
{ACAD_REACTORS
330
F13
102
}
330
F13
100
AcDbScale
 70
     0
300
1:2
140
1.0
141
2.0
290
     0
  0
SCALE
  5
F16
102
{ACAD_REACTORS
330
F13
102
}
330
F13
100
AcDbScale
 70
     0
300
1:4
140
1.0
141
4.0
290
     0
  0
SCALE
  5
F17
102
{ACAD_REACTORS
330
F13
102
}
330
F13
100
AcDbScale
 70
     0
300
1:5
140
1.0
141
5.0
290
     0
  0
SCALE
  5
F18
102
{ACAD_REACTORS
330
F13
102
}
330
F13
100
AcDbScale
 70
     0
300
1:8
140
1.0
141
8.0
290
     0
  0
SCALE
  5
F19
102
{ACAD_REACTORS
330
F13
102
}
330
F13
100
AcDbScale
 70
     0
300
1:10
140
1.0
141
10.0
290
     0
  0
SCALE
  5
F1A
102
{ACAD_REACTORS
330
F13
102
}
330
F13
100
AcDbScale
 70
     0
300
1:16
140
1.0
141
16.0
290
     0
  0
SCALE
  5
F1B
102
{ACAD_REACTORS
330
F13
102
}
330
F13
100
AcDbScale
 70
     0
300
1:20
140
1.0
141
20.0
290
     0
  0
SCALE
  5
F1C
102
{ACAD_REACTORS
330
F13
102
}
330
F13
100
AcDbScale
 70
     0
300
1:30
140
1.0
141
30.0
290
     0
  0
SCALE
  5
F1D
102
{ACAD_REACTORS
330
F13
102
}
330
F13
100
AcDbScale
 70
     0
300
1:40
140
1.0
141
40.0
290
     0
  0
SCALE
  5
F1E
102
{ACAD_REACTORS
330
F13
102
}
330
F13
100
AcDbScale
 70
     0
300
1:50
140
1.0
141
50.0
290
     0
  0
SCALE
  5
F1F
102
{ACAD_REACTORS
330
F13
102
}
330
F13
100
AcDbScale
 70
     0
300
1:100
140
1.0
141
100.0
290
     0
  0
SCALE
  5
F20
102
{ACAD_REACTORS
330
F13
102
}
330
F13
100
AcDbScale
 70
     0
300
2:1
140
2.0
141
1.0
290
     0
  0
SCALE
  5
F21
102
{ACAD_REACTORS
330
F13
102
}
330
F13
100
AcDbScale
 70
     0
300
4:1
140
4.0
141
1.0
290
     0
  0
SCALE
  5
F22
102
{ACAD_REACTORS
330
F13
102
}
330
F13
100
AcDbScale
 70
     0
300
8:1
140
8.0
141
1.0
290
     0
  0
SCALE
  5
F23
102
{ACAD_REACTORS
330
F13
102
}
330
F13
100
AcDbScale
 70
     0
300
10:1
140
10.0
141
1.0
290
     0
  0
SCALE
  5
F24
102
{ACAD_REACTORS
330
F13
102
}
330
F13
100
AcDbScale
 70
     0
300
100:1
140
100.0
141
1.0
290
     0
  0
SCALE
  5
F25
102
{ACAD_REACTORS
330
F13
102
}
330
F13
100
AcDbScale
 70
     0
300
1/128" = 1'-0"
140
0.0078125
141
12.0
290
     0
  0
SCALE
  5
F26
102
{ACAD_REACTORS
330
F13
102
}
330
F13
100
AcDbScale
 70
     0
300
1/64" = 1'-0"
140
0.015625
141
12.0
290
     0
  0
SCALE
  5
F27
102
{ACAD_REACTORS
330
F13
102
}
330
F13
100
AcDbScale
 70
     0
300
1/32" = 1'-0"
140
0.03125
141
12.0
290
     0
  0
SCALE
  5
F28
102
{ACAD_REACTORS
330
F13
102
}
330
F13
100
AcDbScale
 70
     0
300
1/16" = 1'-0"
140
0.0625
141
12.0
290
     0
  0
SCALE
  5
F29
102
{ACAD_REACTORS
330
F13
102
}
330
F13
100
AcDbScale
 70
     0
300
3/32" = 1'-0"
140
0.09375
141
12.0
290
     0
  0
SCALE
  5
F2A
102
{ACAD_REACTORS
330
F13
102
}
330
F13
100
AcDbScale
 70
     0
300
1/8" = 1'-0"
140
0.125
141
12.0
290
     0
  0
SCALE
  5
F2B
102
{ACAD_REACTORS
330
F13
102
}
330
F13
100
AcDbScale
 70
     0
300
3/16" = 1'-0"
140
0.1875
141
12.0
290
     0
  0
SCALE
  5
F2C
102
{ACAD_REACTORS
330
F13
102
}
330
F13
100
AcDbScale
 70
     0
300
1/4" = 1'-0"
140
0.25
141
12.0
290
     0
  0
SCALE
  5
F2D
102
{ACAD_REACTORS
330
F13
102
}
330
F13
100
AcDbScale
 70
     0
300
3/8" = 1'-0"
140
0.375
141
12.0
290
     0
  0
SCALE
  5
F2E
102
{ACAD_REACTORS
330
F13
102
}
330
F13
100
AcDbScale
 70
     0
300
1/2" = 1'-0"
140
0.5
141
12.0
290
     0
  0
SCALE
  5
F2F
102
{ACAD_REACTORS
330
F13
102
}
330
F13
100
AcDbScale
 70
     0
300
3/4" = 1'-0"
140
0.75
141
12.0
290
     0
  0
SCALE
  5
F30
102
{ACAD_REACTORS
330
F13
102
}
330
F13
100
AcDbScale
 70
     0
300
1" = 1'-0"
140
1.0
141
12.0
290
     0
  0
SCALE
  5
F31
102
{ACAD_REACTORS
330
F13
102
}
330
F13
100
AcDbScale
 70
     0
300
1-1/2" = 1'-0"
140
1.5
141
12.0
290
     0
  0
SCALE
  5
F32
102
{ACAD_REACTORS
330
F13
102
}
330
F13
100
AcDbScale
 70
     0
300
3" = 1'-0"
140
3.0
141
12.0
290
     0
  0
SCALE
  5
F33
102
{ACAD_REACTORS
330
F13
102
}
330
F13
100
AcDbScale
 70
     0
300
6" = 1'-0"
140
6.0
141
12.0
290
     0
  0
SCALE
  5
F34
102
{ACAD_REACTORS
330
F13
102
}
330
F13
100
AcDbScale
 70
     0
300
1'-0" = 1'-0"
140
12.0
141
12.0
290
     0
  0
TABLESTYLE
  5
EE4
102
{ACAD_XDICTIONARY
360
FE0
102
}
102
{ACAD_REACTORS
330
EE1
102
}
330
EE1
100
AcDbTableStyle
  3
Standard
 70
     0
 71
     0
 40
0.06
 41
0.06
280
     1
281
     1
  7
STANDARD
140
0.18
170
     1
 62
     0
 63
     7
283
     0
 90
      512
 91
        0
  1

274
    -2
284
     1
 64
     0
275
    -2
285
     1
 65
     0
276
    -2
286
     1
 66
     0
277
    -2
287
     1
 67
     0
278
    -2
288
     1
 68
     0
279
    -2
289
     1
 69
     0
  7
STANDARD
140
0.18
170
     1
 62
     0
 63
     7
283
     0
 90
      512
 91
        0
  1

274
    -2
284
     1
 64
     0
275
    -2
285
     1
 65
     0
276
    -2
286
     1
 66
     0
277
    -2
287
     1
 67
     0
278
    -2
288
     1
 68
     0
279
    -2
289
     1
 69
     0
  7
STANDARD
140
0.18
170
     1
 62
     0
 63
     7
283
     0
 90
      512
 91
        0
  1

274
    -2
284
     1
 64
     0
275
    -2
285
     1
 65
     0
276
    -2
286
     1
 66
     0
277
    -2
287
     1
 67
     0
278
    -2
288
     1
 68
     0
279
    -2
289
     1
 69
     0
  0
TABLESTYLE
  5
EE5
102
{ACAD_XDICTIONARY
360
FE2
102
}
102
{ACAD_REACTORS
330
EE1
102
}
330
EE1
100
AcDbTableStyle
  3
Standard1
 70
     1
 71
     0
 40
0.06
 41
0.06
280
     1
281
     1
  7
STANDARD
140
0.18
170
     1
 62
     0
 63
     7
283
     0
 90
      512
 91
        0
  1

274
    -2
284
     1
 64
     0
275
    -2
285
     1
 65
     0
276
    -2
286
     1
 66
     0
277
    -2
287
     1
 67
     0
278
    -2
288
     1
 68
     0
279
    -2
289
     1
 69
     0
  7
STANDARD
140
0.18
170
     1
 62
     0
 63
     7
283
     0
 90
      512
 91
        0
  1

274
    -2
284
     1
 64
     0
275
    -2
285
     1
 65
     0
276
    -2
286
     1
 66
     0
277
    -2
287
     1
 67
     0
278
    -2
288
     1
 68
     0
279
    -2
289
     1
 69
     0
  7
STANDARD
140
0.18
170
     1
 62
     0
 63
     7
283
     0
 90
      512
 91
        0
  1

274
    -2
284
     1
 64
     0
275
    -2
285
     1
 65
     0
276
    -2
286
     1
 66
     0
277
    -2
287
     1
 67
     0
278
    -2
288
     1
 68
     0
279
    -2
289
     1
 69
     0
  0
VISUALSTYLE
  5
F07
102
{ACAD_REACTORS
330
F01
102
}
330
F01
100
AcDbVisualStyle
  2
2dWireframe
 70
     4
 71
     0
 72
     2
 73
     0
 90
        0
 40
-0.6
 41
-30.0
 62
     5
 63
     7
421
 16777215
 74
     1
 91
        4
 64
     7
 65
   257
 75
     1
175
     1
 42
1.0
 92
        0
 66
   257
 43
1.0
 76
     1
 77
     6
 78
     2
 67
     7
 79
     5
170
     0
171
     0
290
     0
174
     0
 93
        1
 44
0.0
173
     0
291
     0
 45
0.0
  0
VISUALSTYLE
  5
F09
102
{ACAD_REACTORS
330
F01
102
}
330
F01
100
AcDbVisualStyle
  2
3D Hidden
 70
     6
 71
     1
 72
     2
 73
     2
 90
        0
 40
-0.6
 41
-30.0
 62
     5
 63
     7
421
 16777215
 74
     2
 91
        2
 64
     7
 65
   257
 75
     2
175
     1
 42
40.0
 92
        0
 66
   257
 43
1.0
 76
     1
 77
     6
 78
     2
 67
     7
 79
     3
170
     0
171
     0
290
     0
174
     0
 93
        1
 44
0.0
173
     0
291
     0
 45
0.0
  0
VISUALSTYLE
  5
F08
102
{ACAD_REACTORS
330
F01
102
}
330
F01
100
AcDbVisualStyle
  2
3dWireframe
 70
     5
 71
     0
 72
     2
 73
     0
 90
        0
 40
-0.6
 41
-30.0
 62
     5
 63
     7
421
 16777215
 74
     1
 91
        4
 64
     7
 65
   257
 75
     1
175
     1
 42
1.0
 92
        0
 66
   257
 43
1.0
 76
     1
 77
     6
 78
     2
 67
     7
 79
     5
170
     0
171
     0
290
     0
174
     0
 93
        1
 44
0.0
173
     0
291
     0
 45
0.0
  0
VISUALSTYLE
  5
F06
102
{ACAD_REACTORS
330
F01
102
}
330
F01
100
AcDbVisualStyle
  2
Basic
 70
     7
 71
     1
 72
     0
 73
     1
 90
        0
 40
-0.6
 41
-30.0
 62
     5
 63
     7
421
 16777215
 74
     0
 91
        4
 64
     7
 65
   257
 75
     1
175
     1
 42
1.0
 92
        8
 66
     7
 43
1.0
 76
     1
 77
     6
 78
     2
 67
     7
 79
     5
170
     0
171
     0
290
     0
174
     0
 93
        1
 44
0.0
173
     0
291
     1
 45
0.0
  0
VISUALSTYLE
  5
F0D
102
{ACAD_REACTORS
330
F01
102
}
330
F01
100
AcDbVisualStyle
  2
Brighten
 70
    12
 71
     2
 72
     2
 73
     0
 90
        0
 40
-0.6
 41
-30.0
 62
     5
 63
     7
421
 16777215
 74
     1
 91
        4
 64
     7
 65
   257
 75
     1
175
     1
 42
1.0
 92
        8
 66
     7
 43
1.0
 76
     1
 77
     6
 78
     2
 67
     7
 79
     5
170
     0
171
     0
290
     0
174
     0
 93
        1
 44
50.0
173
     0
291
     1
 45
0.0
  0
VISUALSTYLE
  5
F11
102
{ACAD_REACTORS
330
F01
102
}
330
F01
100
AcDbVisualStyle
  2
ColorChange
 70
    16
 71
     2
 72
     2
 73
     3
 90
        0
 40
-0.6
 41
-30.0
 62
     5
 63
     8
421
  8421504
 74
     1
 91
        4
 64
     7
 65
   257
 75
     1
175
     1
 42
1.0
 92
        8
 66
     8
424
  8421504
 43
1.0
 76
     1
 77
     6
 78
     2
 67
     7
 79
     5
170
     0
171
     0
290
     0
174
     0
 93
        1
 44
0.0
173
     0
291
     1
 45
0.0
  0
VISUALSTYLE
  5
F0A
102
{ACAD_REACTORS
330
F01
102
}
330
F01
100
AcDbVisualStyle
  2
Conceptual
 70
     9
 71
     3
 72
     2
 73
     0
 90
        0
 40
-0.6
 41
-30.0
 62
     5
 63
     7
421
 16777215
 74
     2
 91
        2
 64
     7
 65
   257
 75
     1
175
     1
 42
40.0
 92
        8
 66
     7
 43
1.0
 76
     1
 77
     6
 78
     2
 67
     7
 79
     3
170
     0
171
     0
290
     0
174
     0
 93
        1
 44
0.0
173
     0
291
     0
 45
0.0
  0
VISUALSTYLE
  5
F0C
102
{ACAD_REACTORS
330
F01
102
}
330
F01
100
AcDbVisualStyle
  2
Dim
 70
    11
 71
     2
 72
     2
 73
     0
 90
        0
 40
-0.6
 41
-30.0
 62
     5
 63
     7
421
 16777215
 74
     1
 91
        4
 64
     7
 65
   257
 75
     1
175
     1
 42
1.0
 92
        8
 66
     7
 43
1.0
 76
     1
 77
     6
 78
     2
 67
     7
 79
     5
170
     0
171
     0
290
     0
174
     0
 93
        1
 44
-50.0
173
     0
291
     1
 45
0.0
  0
VISUALSTYLE
  5
F10
102
{ACAD_REACTORS
330
F01
102
}
330
F01
100
AcDbVisualStyle
  2
Facepattern
 70
    15
 71
     2
 72
     2
 73
     0
 90
        0
 40
-0.6
 41
-30.0
 62
     5
 63
     7
421
 16777215
 74
     1
 91
        4
 64
     7
 65
   257
 75
     1
175
     1
 42
1.0
 92
        8
 66
     7
 43
1.0
 76
     1
 77
     6
 78
     2
 67
     7
 79
     5
170
     0
171
     0
290
     0
174
     0
 93
        1
 44
0.0
173
     0
291
     1
 45
0.0
  0
VISUALSTYLE
  5
F02
102
{ACAD_REACTORS
330
F01
102
}
330
F01
100
AcDbVisualStyle
  2
Flat
 70
     0
 71
     2
 72
     1
 73
     1
 90
        2
 40
-0.6
 41
30.0
 62
     5
 63
     7
421
 16777215
 74
     0
 91
        4
 64
     7
 65
   257
 75
     1
175
     1
 42
1.0
 92
        8
 66
     7
 43
1.0
 76
     1
 77
     6
 78
     2
 67
     7
 79
     5
170
     0
171
     0
290
     0
174
     0
 93
       13
 44
0.0
173
     0
291
     1
 45
0.0
  0
VISUALSTYLE
  5
F03
102
{ACAD_REACTORS
330
F01
102
}
330
F01
100
AcDbVisualStyle
  2
FlatWithEdges
 70
     1
 71
     2
 72
     1
 73
     1
 90
        2
 40
-0.6
 41
30.0
 62
     5
 63
     7
421
 16777215
 74
     1
 91
        4
 64
     7
 65
   257
 75
     1
175
     1
 42
1.0
 92
        0
 66
   257
 43
1.0
 76
     1
 77
     6
 78
     2
 67
     7
 79
     5
170
     0
171
     0
290
     0
174
     0
 93
       13
 44
0.0
173
     0
291
     1
 45
0.0
  0
VISUALSTYLE
  5
F04
102
{ACAD_REACTORS
330
F01
102
}
330
F01
100
AcDbVisualStyle
  2
Gouraud
 70
     2
 71
     2
 72
     2
 73
     1
 90
        2
 40
-0.6
 41
30.0
 62
     5
 63
     7
421
 16777215
 74
     0
 91
        4
 64
     7
 65
   257
 75
     1
175
     1
 42
1.0
 92
        0
 66
     7
 43
1.0
 76
     1
 77
     6
 78
     2
 67
     7
 79
     5
170
     0
171
     0
290
     0
174
     0
 93
       13
 44
0.0
173
     0
291
     1
 45
0.0
  0
VISUALSTYLE
  5
F05
102
{ACAD_REACTORS
330
F01
102
}
330
F01
100
AcDbVisualStyle
  2
GouraudWithEdges
 70
     3
 71
     2
 72
     2
 73
     1
 90
        2
 40
-0.6
 41
30.0
 62
     5
 63
     7
421
 16777215
 74
     1
 91
        4
 64
     7
 65
   257
 75
     1
175
     1
 42
1.0
 92
        0
 66
   257
 43
1.0
 76
     1
 77
     6
 78
     2
 67
     7
 79
     5
170
     0
171
     0
290
     0
174
     0
 93
       13
 44
0.0
173
     0
291
     1
 45
0.0
  0
VISUALSTYLE
  5
F0F
102
{ACAD_REACTORS
330
F01
102
}
330
F01
100
AcDbVisualStyle
  2
Linepattern
 70
    14
 71
     2
 72
     2
 73
     0
 90
        0
 40
-0.6
 41
-30.0
 62
     5
 63
     7
421
 16777215
 74
     1
 91
        4
 64
     7
 65
   257
 75
     7
175
     7
 42
1.0
 92
        8
 66
     7
 43
1.0
 76
     1
 77
     6
 78
     2
 67
     7
 79
     5
170
     0
171
     0
290
     0
174
     0
 93
        1
 44
0.0
173
     0
291
     1
 45
0.0
  0
VISUALSTYLE
  5
F0B
102
{ACAD_REACTORS
330
F01
102
}
330
F01
100
AcDbVisualStyle
  2
Realistic
 70
     8
 71
     2
 72
     2
 73
     0
 90
        0
 40
-0.6
 41
-30.0
 62
     5
 63
     7
421
 16777215
 74
     1
 91
        0
 64
     7
 65
   257
 75
     1
175
     1
 42
1.0
 92
        8
 66
     8
424
  7895160
 43
1.0
 76
     1
 77
     6
 78
     2
 67
     7
 79
     5
170
     0
171
     0
290
     0
174
     0
 93
       13
 44
0.0
173
     0
291
     0
 45
0.0
  0
VISUALSTYLE
  5
F0E
102
{ACAD_REACTORS
330
F01
102
}
330
F01
100
AcDbVisualStyle
  2
Thicken
 70
    13
 71
     2
 72
     2
 73
     0
 90
        0
 40
-0.6
 41
-30.0
 62
     5
 63
     7
421
 16777215
 74
     1
 91
        4
 64
     7
 65
   257
 75
     1
175
     1
 42
1.0
 92
       12
 66
     7
 43
1.0
 76
     1
 77
     6
 78
     2
 67
     7
 79
     5
170
     0
171
     0
290
     0
174
     0
 93
        1
 44
0.0
173
     0
291
     1
 45
0.0
  0
DICTIONARYVAR
  5
FDF
102
{ACAD_REACTORS
330
FDC
102
}
330
FDC
100
DictionaryVariables
280
     0
  1
1:1
  0
DICTIONARYVAR
  5
FDE
102
{ACAD_REACTORS
330
FDC
102
}
330
FDC
100
DictionaryVariables
280
     0
  1
STANDARD
  0
DICTIONARYVAR
  5
FDD
102
{ACAD_REACTORS
330
FDC
102
}
330
FDC
100
DictionaryVariables
280
     0
  1
STANDARD
  0
DICTIONARY
  5
FA1
102
{ACAD_REACTORS
330
F94
102
}
330
F94
100
AcDbDictionary
281
     1
  0
DICTIONARY
  5
EF2
330
EF1
100
AcDbDictionary
280
     1
281
     1
  3
BUMPTILE
360
EF4
  3
DIFFUSETILE
360
EF3
  3
OPACITYTILE
360
EF7
  3
REFLECTIONTILE
360
EF6
  3
REFRACTIONTILE
360
EF8
  3
SPECULARTILE
360
EF5
  0
DICTIONARY
  5
EEA
330
EE9
100
AcDbDictionary
280
     1
281
     1
  3
BUMPTILE
360
EEC
  3
DIFFUSETILE
360
EEB
  3
OPACITYTILE
360
EEF
  3
REFLECTIONTILE
360
EEE
  3
REFRACTIONTILE
360
EF0
  3
SPECULARTILE
360
EED
  0
DICTIONARY
  5
EFA
330
EF9
100
AcDbDictionary
280
     1
281
     1
  3
BUMPTILE
360
EFC
  3
DIFFUSETILE
360
EFB
  3
OPACITYTILE
360
EFF
  3
REFLECTIONTILE
360
EFE
  3
REFRACTIONTILE
360
F00
  3
SPECULARTILE
360
EFD
  0
DICTIONARY
  5
FE0
330
EE4
100
AcDbDictionary
280
     1
281
     1
  3
ACAD_ROUNDTRIP_2008_TABLESTYLE_CELLSTYLEMAP
360
10E7
  0
DICTIONARY
  5
FE2
330
EE5
100
AcDbDictionary
280
     1
281
     1
  3
ACAD_ROUNDTRIP_2008_TABLESTYLE_CELLSTYLEMAP
360
10E8
  0
XRECORD
  5
EF4
102
{ACAD_REACTORS
330
EF2
102
}
330
EF2
100
AcDbXrecord
280
     1
270
     1
271
     1
  0
XRECORD
  5
EF3
102
{ACAD_REACTORS
330
EF2
102
}
330
EF2
100
AcDbXrecord
280
     1
270
     1
271
     1
  0
XRECORD
  5
EF7
102
{ACAD_REACTORS
330
EF2
102
}
330
EF2
100
AcDbXrecord
280
     1
270
     1
271
     1
  0
XRECORD
  5
EF6
102
{ACAD_REACTORS
330
EF2
102
}
330
EF2
100
AcDbXrecord
280
     1
270
     1
271
     1
  0
XRECORD
  5
EF8
102
{ACAD_REACTORS
330
EF2
102
}
330
EF2
100
AcDbXrecord
280
     1
270
     1
271
     1
  0
XRECORD
  5
EF5
102
{ACAD_REACTORS
330
EF2
102
}
330
EF2
100
AcDbXrecord
280
     1
270
     1
271
     1
  0
XRECORD
  5
EEC
102
{ACAD_REACTORS
330
EEA
102
}
330
EEA
100
AcDbXrecord
280
     1
270
     1
271
     1
  0
XRECORD
  5
EEB
102
{ACAD_REACTORS
330
EEA
102
}
330
EEA
100
AcDbXrecord
280
     1
270
     1
271
     1
  0
XRECORD
  5
EEF
102
{ACAD_REACTORS
330
EEA
102
}
330
EEA
100
AcDbXrecord
280
     1
270
     1
271
     1
  0
XRECORD
  5
EEE
102
{ACAD_REACTORS
330
EEA
102
}
330
EEA
100
AcDbXrecord
280
     1
270
     1
271
     1
  0
XRECORD
  5
EF0
102
{ACAD_REACTORS
330
EEA
102
}
330
EEA
100
AcDbXrecord
280
     1
270
     1
271
     1
  0
XRECORD
  5
EED
102
{ACAD_REACTORS
330
EEA
102
}
330
EEA
100
AcDbXrecord
280
     1
270
     1
271
     1
  0
XRECORD
  5
EFC
102
{ACAD_REACTORS
330
EFA
102
}
330
EFA
100
AcDbXrecord
280
     1
270
     1
271
     1
  0
XRECORD
  5
EFB
102
{ACAD_REACTORS
330
EFA
102
}
330
EFA
100
AcDbXrecord
280
     1
270
     1
271
     1
  0
XRECORD
  5
EFF
102
{ACAD_REACTORS
330
EFA
102
}
330
EFA
100
AcDbXrecord
280
     1
270
     1
271
     1
  0
XRECORD
  5
EFE
102
{ACAD_REACTORS
330
EFA
102
}
330
EFA
100
AcDbXrecord
280
     1
270
     1
271
     1
  0
XRECORD
  5
F00
102
{ACAD_REACTORS
330
EFA
102
}
330
EFA
100
AcDbXrecord
280
     1
270
     1
271
     1
  0
XRECORD
  5
EFD
102
{ACAD_REACTORS
330
EFA
102
}
330
EFA
100
AcDbXrecord
280
     1
270
     1
271
     1
  0
CELLSTYLEMAP
  5
10E7
102
{ACAD_REACTORS
330
FE0
102
}
330
FE0
100
AcDbCellStyleMap
 90
        3
300
CELLSTYLE
  1
TABLEFORMAT_BEGIN
 90
        5
170
     1
 91
        0
 92
    32768
 62
   257
 93
        1
300
CONTENTFORMAT
  1
CONTENTFORMAT_BEGIN
 90
        0
 91
        0
 92
      512
 93
        0
300

 40
0.0
140
1.0
 94
        1
 62
     0
340
11
144
0.18
309
CONTENTFORMAT_END
171
     1
301
MARGIN
  1
CELLMARGIN_BEGIN
 40
0.06
 40
0.06
 40
0.06
 40
0.06
 40
0.18
 40
0.18
309
CELLMARGIN_END
 94
        6
 95
        1
302
GRIDFORMAT
  1
GRIDFORMAT_BEGIN
 90
        0
 91
        1
 62
     0
 92
       -2
340
0
 93
        0
 40
0.045
309
GRIDFORMAT_END
 95
        2
302
GRIDFORMAT
  1
GRIDFORMAT_BEGIN
 90
        0
 91
        1
 62
     0
 92
       -2
340
0
 93
        0
 40
0.045
309
GRIDFORMAT_END
 95
        4
302
GRIDFORMAT
  1
GRIDFORMAT_BEGIN
 90
        0
 91
        1
 62
     0
 92
       -2
340
0
 93
        0
 40
0.045
309
GRIDFORMAT_END
 95
        8
302
GRIDFORMAT
  1
GRIDFORMAT_BEGIN
 90
        0
 91
        1
 62
     0
 92
       -2
340
0
 93
        0
 40
0.045
309
GRIDFORMAT_END
 95
       16
302
GRIDFORMAT
  1
GRIDFORMAT_BEGIN
 90
        0
 91
        1
 62
     0
 92
       -2
340
0
 93
        0
 40
0.045
309
GRIDFORMAT_END
 95
       32
302
GRIDFORMAT
  1
GRIDFORMAT_BEGIN
 90
        0
 91
        1
 62
     0
 92
       -2
340
0
 93
        0
 40
0.045
309
GRIDFORMAT_END
309
TABLEFORMAT_END
  1
CELLSTYLE_BEGIN
 90
        1
 91
        1
300
_TITLE
309
CELLSTYLE_END
300
CELLSTYLE
  1
TABLEFORMAT_BEGIN
 90
        5
170
     1
 91
        0
 92
        0
 62
   257
 93
        1
300
CONTENTFORMAT
  1
CONTENTFORMAT_BEGIN
 90
        0
 91
        0
 92
      512
 93
        0
300

 40
0.0
140
1.0
 94
        1
 62
     0
340
11
144
0.18
309
CONTENTFORMAT_END
171
     1
301
MARGIN
  1
CELLMARGIN_BEGIN
 40
0.06
 40
0.06
 40
0.06
 40
0.06
 40
0.18
 40
0.18
309
CELLMARGIN_END
 94
        6
 95
        1
302
GRIDFORMAT
  1
GRIDFORMAT_BEGIN
 90
        0
 91
        1
 62
     0
 92
       -2
340
0
 93
        0
 40
0.045
309
GRIDFORMAT_END
 95
        2
302
GRIDFORMAT
  1
GRIDFORMAT_BEGIN
 90
        0
 91
        1
 62
     0
 92
       -2
340
0
 93
        0
 40
0.045
309
GRIDFORMAT_END
 95
        4
302
GRIDFORMAT
  1
GRIDFORMAT_BEGIN
 90
        0
 91
        1
 62
     0
 92
       -2
340
0
 93
        0
 40
0.045
309
GRIDFORMAT_END
 95
        8
302
GRIDFORMAT
  1
GRIDFORMAT_BEGIN
 90
        0
 91
        1
 62
     0
 92
       -2
340
0
 93
        0
 40
0.045
309
GRIDFORMAT_END
 95
       16
302
GRIDFORMAT
  1
GRIDFORMAT_BEGIN
 90
        0
 91
        1
 62
     0
 92
       -2
340
0
 93
        0
 40
0.045
309
GRIDFORMAT_END
 95
       32
302
GRIDFORMAT
  1
GRIDFORMAT_BEGIN
 90
        0
 91
        1
 62
     0
 92
       -2
340
0
 93
        0
 40
0.045
309
GRIDFORMAT_END
309
TABLEFORMAT_END
  1
CELLSTYLE_BEGIN
 90
        2
 91
        1
300
_HEADER
309
CELLSTYLE_END
300
CELLSTYLE
  1
TABLEFORMAT_BEGIN
 90
        5
170
     1
 91
        0
 92
        0
 62
   257
 93
        1
300
CONTENTFORMAT
  1
CONTENTFORMAT_BEGIN
 90
        0
 91
        0
 92
      512
 93
        0
300

 40
0.0
140
1.0
 94
        1
 62
     0
340
11
144
0.18
309
CONTENTFORMAT_END
171
     1
301
MARGIN
  1
CELLMARGIN_BEGIN
 40
0.06
 40
0.06
 40
0.06
 40
0.06
 40
0.18
 40
0.18
309
CELLMARGIN_END
 94
        6
 95
        1
302
GRIDFORMAT
  1
GRIDFORMAT_BEGIN
 90
        0
 91
        1
 62
     0
 92
       -2
340
0
 93
        0
 40
0.045
309
GRIDFORMAT_END
 95
        2
302
GRIDFORMAT
  1
GRIDFORMAT_BEGIN
 90
        0
 91
        1
 62
     0
 92
       -2
340
0
 93
        0
 40
0.045
309
GRIDFORMAT_END
 95
        4
302
GRIDFORMAT
  1
GRIDFORMAT_BEGIN
 90
        0
 91
        1
 62
     0
 92
       -2
340
0
 93
        0
 40
0.045
309
GRIDFORMAT_END
 95
        8
302
GRIDFORMAT
  1
GRIDFORMAT_BEGIN
 90
        0
 91
        1
 62
     0
 92
       -2
340
0
 93
        0
 40
0.045
309
GRIDFORMAT_END
 95
       16
302
GRIDFORMAT
  1
GRIDFORMAT_BEGIN
 90
        0
 91
        1
 62
     0
 92
       -2
340
0
 93
        0
 40
0.045
309
GRIDFORMAT_END
 95
       32
302
GRIDFORMAT
  1
GRIDFORMAT_BEGIN
 90
        0
 91
        1
 62
     0
 92
       -2
340
0
 93
        0
 40
0.045
309
GRIDFORMAT_END
309
TABLEFORMAT_END
  1
CELLSTYLE_BEGIN
 90
        3
 91
        2
300
_DATA
309
CELLSTYLE_END
  0
CELLSTYLEMAP
  5
10E8
102
{ACAD_REACTORS
330
FE2
102
}
330
FE2
100
AcDbCellStyleMap
 90
        3
300
CELLSTYLE
  1
TABLEFORMAT_BEGIN
 90
        5
170
     1
 91
        0
 92
    32768
 62
   257
 93
        1
300
CONTENTFORMAT
  1
CONTENTFORMAT_BEGIN
 90
        0
 91
        0
 92
      512
 93
        0
300

 40
0.0
140
1.0
 94
        1
 62
     0
340
11
144
0.18
309
CONTENTFORMAT_END
171
     1
301
MARGIN
  1
CELLMARGIN_BEGIN
 40
0.06
 40
0.06
 40
0.06
 40
0.06
 40
0.18
 40
0.18
309
CELLMARGIN_END
 94
        6
 95
        1
302
GRIDFORMAT
  1
GRIDFORMAT_BEGIN
 90
        0
 91
        1
 62
     0
 92
       -2
340
0
 93
        0
 40
0.045
309
GRIDFORMAT_END
 95
        2
302
GRIDFORMAT
  1
GRIDFORMAT_BEGIN
 90
        0
 91
        1
 62
     0
 92
       -2
340
0
 93
        0
 40
0.045
309
GRIDFORMAT_END
 95
        4
302
GRIDFORMAT
  1
GRIDFORMAT_BEGIN
 90
        0
 91
        1
 62
     0
 92
       -2
340
0
 93
        0
 40
0.045
309
GRIDFORMAT_END
 95
        8
302
GRIDFORMAT
  1
GRIDFORMAT_BEGIN
 90
        0
 91
        1
 62
     0
 92
       -2
340
0
 93
        0
 40
0.045
309
GRIDFORMAT_END
 95
       16
302
GRIDFORMAT
  1
GRIDFORMAT_BEGIN
 90
        0
 91
        1
 62
     0
 92
       -2
340
0
 93
        0
 40
0.045
309
GRIDFORMAT_END
 95
       32
302
GRIDFORMAT
  1
GRIDFORMAT_BEGIN
 90
        0
 91
        1
 62
     0
 92
       -2
340
0
 93
        0
 40
0.045
309
GRIDFORMAT_END
309
TABLEFORMAT_END
  1
CELLSTYLE_BEGIN
 90
        1
 91
        1
300
_TITLE
309
CELLSTYLE_END
300
CELLSTYLE
  1
TABLEFORMAT_BEGIN
 90
        5
170
     1
 91
        0
 92
        0
 62
   257
 93
        1
300
CONTENTFORMAT
  1
CONTENTFORMAT_BEGIN
 90
        0
 91
        0
 92
      512
 93
        0
300

 40
0.0
140
1.0
 94
        1
 62
     0
340
11
144
0.18
309
CONTENTFORMAT_END
171
     1
301
MARGIN
  1
CELLMARGIN_BEGIN
 40
0.06
 40
0.06
 40
0.06
 40
0.06
 40
0.18
 40
0.18
309
CELLMARGIN_END
 94
        6
 95
        1
302
GRIDFORMAT
  1
GRIDFORMAT_BEGIN
 90
        0
 91
        1
 62
     0
 92
       -2
340
0
 93
        0
 40
0.045
309
GRIDFORMAT_END
 95
        2
302
GRIDFORMAT
  1
GRIDFORMAT_BEGIN
 90
        0
 91
        1
 62
     0
 92
       -2
340
0
 93
        0
 40
0.045
309
GRIDFORMAT_END
 95
        4
302
GRIDFORMAT
  1
GRIDFORMAT_BEGIN
 90
        0
 91
        1
 62
     0
 92
       -2
340
0
 93
        0
 40
0.045
309
GRIDFORMAT_END
 95
        8
302
GRIDFORMAT
  1
GRIDFORMAT_BEGIN
 90
        0
 91
        1
 62
     0
 92
       -2
340
0
 93
        0
 40
0.045
309
GRIDFORMAT_END
 95
       16
302
GRIDFORMAT
  1
GRIDFORMAT_BEGIN
 90
        0
 91
        1
 62
     0
 92
       -2
340
0
 93
        0
 40
0.045
309
GRIDFORMAT_END
 95
       32
302
GRIDFORMAT
  1
GRIDFORMAT_BEGIN
 90
        0
 91
        1
 62
     0
 92
       -2
340
0
 93
        0
 40
0.045
309
GRIDFORMAT_END
309
TABLEFORMAT_END
  1
CELLSTYLE_BEGIN
 90
        2
 91
        1
300
_HEADER
309
CELLSTYLE_END
300
CELLSTYLE
  1
TABLEFORMAT_BEGIN
 90
        5
170
     1
 91
        0
 92
        0
 62
   257
 93
        1
300
CONTENTFORMAT
  1
CONTENTFORMAT_BEGIN
 90
        0
 91
        0
 92
      512
 93
        0
300

 40
0.0
140
1.0
 94
        1
 62
     0
340
11
144
0.18
309
CONTENTFORMAT_END
171
     1
301
MARGIN
  1
CELLMARGIN_BEGIN
 40
0.06
 40
0.06
 40
0.06
 40
0.06
 40
0.18
 40
0.18
309
CELLMARGIN_END
 94
        6
 95
        1
302
GRIDFORMAT
  1
GRIDFORMAT_BEGIN
 90
        0
 91
        1
 62
     0
 92
       -2
340
0
 93
        0
 40
0.045
309
GRIDFORMAT_END
 95
        2
302
GRIDFORMAT
  1
GRIDFORMAT_BEGIN
 90
        0
 91
        1
 62
     0
 92
       -2
340
0
 93
        0
 40
0.045
309
GRIDFORMAT_END
 95
        4
302
GRIDFORMAT
  1
GRIDFORMAT_BEGIN
 90
        0
 91
        1
 62
     0
 92
       -2
340
0
 93
        0
 40
0.045
309
GRIDFORMAT_END
 95
        8
302
GRIDFORMAT
  1
GRIDFORMAT_BEGIN
 90
        0
 91
        1
 62
     0
 92
       -2
340
0
 93
        0
 40
0.045
309
GRIDFORMAT_END
 95
       16
302
GRIDFORMAT
  1
GRIDFORMAT_BEGIN
 90
        0
 91
        1
 62
     0
 92
       -2
340
0
 93
        0
 40
0.045
309
GRIDFORMAT_END
 95
       32
302
GRIDFORMAT
  1
GRIDFORMAT_BEGIN
 90
        0
 91
        1
 62
     0
 92
       -2
340
0
 93
        0
 40
0.045
309
GRIDFORMAT_END
309
TABLEFORMAT_END
  1
CELLSTYLE_BEGIN
 90
        3
 91
        2
300
_DATA
309
CELLSTYLE_END
  0
ENDSEC
  0
EOF
