  0
SECTION
  2
HEADER
  9
$ACADVER
  1
AC1021
  9
$ACADMAINTVER
 70
    50
  9
$DWGCODEPAGE
  3
ANSI_936
  9
$LASTSAVEDBY
  1
kocb568
  9
$INSBASE
 10
0.0
 20
0.0
 30
0.0
  9
$EXTMIN
 10
-5.043880668075683
 20
1.6547397427
 30
0.0
  9
$EXTMAX
 10
17.2188360791
 20
18.3433941168
 30
0.0
  9
$LIMMIN
 10
0.0
 20
0.0
  9
$LIMMAX
 10
34.0
 20
22.0
  9
$ORTHOMODE
 70
     1
  9
$REGENMODE
 70
     1
  9
$FILLMODE
 70
     1
  9
$QTEXTMODE
 70
     0
  9
$MIRRTEXT
 70
     0
  9
$LTSCALE
 40
1.87
  9
$ATTMODE
 70
     1
  9
$TEXTSIZE
 40
0.2
  9
$TRACEWID
 40
0.05
  9
$TEXTSTYLE
  7
STANDARD
  9
$CLAYER
  8
0
  9
$CELTYPE
  6
BYLAYER
  9
$CECOLOR
 62
   256
  9
$CELTSCALE
 40
1.0
  9
$DISPSILH
 70
     0
  9
$DIMSCALE
 40
1.0
  9
$DIMASZ
 40
0.12
  9
$DIMEXO
 40
0.05
  9
$DIMDLI
 40
0.5
  9
$DIMRND
 40
0.0
  9
$DIMDLE
 40
0.0
  9
$DIMEXE
 40
0.1
  9
$DIMTP
 40
0.1
  9
$DIMTM
 40
0.1
  9
$DIMTXT
 40
0.12
  9
$DIMCEN
 40
0.0
  9
$DIMTSZ
 40
0.0
  9
$DIMTOL
 70
     0
  9
$DIMLIM
 70
     0
  9
$DIMTIH
 70
     1
  9
$DIMTOH
 70
     1
  9
$DIMSE1
 70
     0
  9
$DIMSE2
 70
     0
  9
$DIMTAD
 70
     0
  9
$DIMZIN
 70
     7
  9
$DIMBLK
  1

  9
$DIMASO
 70
     1
  9
$DIMSHO
 70
     1
  9
$DIMPOST
  1

  9
$DIMAPOST
  1
mm
  9
$DIMALT
 70
     0
  9
$DIMALTD
 70
     2
  9
$DIMALTF
 40
25.4
  9
$DIMLFAC
 40
1.0
  9
$DIMTOFL
 70
     0
  9
$DIMTVP
 40
0.0
  9
$DIMTIX
 70
     0
  9
$DIMSOXD
 70
     0
  9
$DIMSAH
 70
     0
  9
$DIMBLK1
  1

  9
$DIMBLK2
  1

  9
$DIMSTYLE
  2
AM_ANSI
  9
$DIMCLRD
 70
   256
  9
$DIMCLRE
 70
   256
  9
$DIMCLRT
 70
   140
  9
$DIMTFAC
 40
0.71
  9
$DIMGAP
 40
0.06
  9
$DIMJUST
 70
     0
  9
$DIMSD1
 70
     0
  9
$DIMSD2
 70
     0
  9
$DIMTOLJ
 70
     1
  9
$DIMTZIN
 70
     7
  9
$DIMALTZ
 70
     0
  9
$DIMALTTZ
 70
     0
  9
$DIMUPT
 70
     0
  9
$DIMDEC
 70
     4
  9
$DIMTDEC
 70
     4
  9
$DIMALTU
 70
     2
  9
$DIMALTTD
 70
     4
  9
$DIMTXSTY
  7
STANDARD
  9
$DIMAUNIT
 70
     0
  9
$DIMADEC
 70
     0
  9
$DIMALTRND
 40
0.0
  9
$DIMAZIN
 70
     2
  9
$DIMDSEP
 70
    46
  9
$DIMATFIT
 70
     3
  9
$DIMFRAC
 70
     0
  9
$DIMLDRBLK
  1

  9
$DIMLUNIT
 70
     2
  9
$DIMLWD
 70
    -1
  9
$DIMLWE
 70
    -1
  9
$DIMTMOVE
 70
     0
  9
$DIMFXL
 40
1.0
  9
$DIMFXLON
 70
     0
  9
$DIMJOGANG
 40
0.7853981633974483
  9
$DIMTFILL
 70
     0
  9
$DIMTFILLCLR
 70
     0
  9
$DIMARCSYM
 70
     1
  9
$DIMLTYPE
  6
BYBLOCK
  9
$DIMLTEX1
  6
BYBLOCK
  9
$DIMLTEX2
  6
BYBLOCK
  9
$LUNITS
 70
     2
  9
$LUPREC
 70
     4
  9
$SKETCHINC
 40
0.1
  9
$FILLETRAD
 40
0.0
  9
$AUNITS
 70
     0
  9
$AUPREC
 70
     0
  9
$MENU
  1
.
  9
$ELEVATION
 40
0.0
  9
$PELEVATION
 40
0.0
  9
$THICKNESS
 40
0.0
  9
$LIMCHECK
 70
     0
  9
$CHAMFERA
 40
0.0
  9
$CHAMFERB
 40
0.0
  9
$CHAMFERC
 40
0.0
  9
$CHAMFERD
 40
0.0
  9
$SKPOLY
 70
     0
  9
$TDCREATE
 40
2455875.411755752
  9
$TDUCREATE
 40
2455875.078422419
  9
$TDUPDATE
 40
2455875.644209051
  9
$TDUUPDATE
 40
2455875.310875718
  9
$TDINDWG
 40
0.0011745718
  9
$TDUSRTIMER
 40
0.0011745718
  9
$USRTIMER
 70
     1
  9
$ANGBASE
 50
0.0
  9
$ANGDIR
 70
     0
  9
$PDMODE
 70
     3
  9
$PDSIZE
 40
0.3125
  9
$PLINEWID
 40
0.0
  9
$SPLFRAME
 70
     0
  9
$SPLINETYPE
 70
     6
  9
$SPLINESEGS
 70
     8
  9
$HANDSEED
  5
10E7
  9
$SURFTAB1
 70
     6
  9
$SURFTAB2
 70
     6
  9
$SURFTYPE
 70
     6
  9
$SURFU
 70
     6
  9
$SURFV
 70
     6
  9
$UCSBASE
  2

  9
$UCSNAME
  2

  9
$UCSORG
 10
0.0
 20
0.0
 30
0.0
  9
$UCSXDIR
 10
1.0
 20
0.0
 30
0.0
  9
$UCSYDIR
 10
0.0
 20
1.0
 30
0.0
  9
$UCSORTHOREF
  2

  9
$UCSORTHOVIEW
 70
     0
  9
$UCSORGTOP
 10
0.0
 20
0.0
 30
0.0
  9
$UCSORGBOTTOM
 10
0.0
 20
0.0
 30
0.0
  9
$UCSORGLEFT
 10
0.0
 20
0.0
 30
0.0
  9
$UCSORGRIGHT
 10
0.0
 20
0.0
 30
0.0
  9
$UCSORGFRONT
 10
0.0
 20
0.0
 30
0.0
  9
$UCSORGBACK
 10
0.0
 20
0.0
 30
0.0
  9
$PUCSBASE
  2

  9
$PUCSNAME
  2

  9
$PUCSORG
 10
0.0
 20
0.0
 30
0.0
  9
$PUCSXDIR
 10
1.0
 20
0.0
 30
0.0
  9
$PUCSYDIR
 10
0.0
 20
1.0
 30
0.0
  9
$PUCSORTHOREF
  2

  9
$PUCSORTHOVIEW
 70
     0
  9
$PUCSORGTOP
 10
0.0
 20
0.0
 30
0.0
  9
$PUCSORGBOTTOM
 10
0.0
 20
0.0
 30
0.0
  9
$PUCSORGLEFT
 10
0.0
 20
0.0
 30
0.0
  9
$PUCSORGRIGHT
 10
0.0
 20
0.0
 30
0.0
  9
$PUCSORGFRONT
 10
0.0
 20
0.0
 30
0.0
  9
$PUCSORGBACK
 10
0.0
 20
0.0
 30
0.0
  9
$USERI1
 70
     0
  9
$USERI2
 70
     0
  9
$USERI3
 70
     0
  9
$USERI4
 70
     0
  9
$USERI5
 70
     0
  9
$USERR1
 40
0.0
  9
$USERR2
 40
0.0
  9
$USERR3
 40
0.0
  9
$USERR4
 40
0.0
  9
$USERR5
 40
0.0
  9
$WORLDVIEW
 70
     1
  9
$SHADEDGE
 70
     3
  9
$SHADEDIF
 70
    70
  9
$TILEMODE
 70
     1
  9
$MAXACTVP
 70
    64
  9
$PINSBASE
 10
0.0
 20
0.0
 30
0.0
  9
$PLIMCHECK
 70
     0
  9
$PEXTMIN
 10
1.000000000000000E+20
 20
1.000000000000000E+20
 30
1.000000000000000E+20
  9
$PEXTMAX
 10
-1.000000000000000E+20
 20
-1.000000000000000E+20
 30
-1.000000000000000E+20
  9
$PLIMMIN
 10
0.0
 20
0.0
  9
$PLIMMAX
 10
12.0
 20
9.0
  9
$UNITMODE
 70
     0
  9
$VISRETAIN
 70
     1
  9
$PLINEGEN
 70
     0
  9
$PSLTSCALE
 70
     1
  9
$TREEDEPTH
 70
  3020
  9
$CMLSTYLE
  2
Standard
  9
$CMLJUST
 70
     0
  9
$CMLSCALE
 40
1.0
  9
$PROXYGRAPHICS
 70
     1
  9
$MEASUREMENT
 70
     0
  9
$CELWEIGHT
370
    -1
  9
$ENDCAPS
280
     0
  9
$JOINSTYLE
280
     0
  9
$LWDISPLAY
290
     0
  9
$INSUNITS
 70
     1
  9
$HYPERLINKBASE
  1

  9
$STYLESHEET
  1

  9
$XEDIT
290
     1
  9
$CEPSNTYPE
380
     0
  9
$PSTYLEMODE
290
     1
  9
$FINGERPRINTGUID
  2
{A1845D3E-C283-40D1-B346-F281CCE2456C}
  9
$VERSIONGUID
  2
{525BB65D-6CE3-4BB2-86AD-FD491ECE47B2}
  9
$EXTNAMES
290
     1
  9
$PSVPSCALE
 40
0.0
  9
$OLESTARTUP
290
     0
  9
$SORTENTS
280
   127
  9
$INDEXCTL
280
     0
  9
$HIDETEXT
280
     1
  9
$XCLIPFRAME
290
     0
  9
$HALOGAP
280
     0
  9
$OBSCOLOR
 70
   257
  9
$OBSLTYPE
280
     0
  9
$INTERSECTIONDISPLAY
280
     0
  9
$INTERSECTIONCOLOR
 70
   257
  9
$DIMASSOC
280
     2
  9
$PROJECTNAME
  1

  9
$CAMERADISPLAY
290
     0
  9
$LENSLENGTH
 40
50.0
  9
$CAMERAHEIGHT
 40
0.0
  9
$STEPSPERSEC
 40
2.0
  9
$STEPSIZE
 40
6.0
  9
$3DDWFPREC
 40
2.0
  9
$PSOLWIDTH
 40
0.25
  9
$PSOLHEIGHT
 40
4.0
  9
$LOFTANG1
 40
1.570796326794896
  9
$LOFTANG2
 40
1.570796326794896
  9
$LOFTMAG1
 40
0.0
  9
$LOFTMAG2
 40
0.0
  9
$LOFTPARAM
 70
     7
  9
$LOFTNORMALS
280
     1
  9
$LATITUDE
 40
37.795
  9
$LONGITUDE
 40
-122.394
  9
$NORTHDIRECTION
 40
0.0
  9
$TIMEZONE
 70
 -8000
  9
$LIGHTGLYPHDISPLAY
280
     1
  9
$TILEMODELIGHTSYNCH
280
     1
  9
$CMATERIAL
347
EE9
  9
$SOLIDHIST
280
     1
  9
$SHOWHIST
280
     1
  9
$DWFFRAME
280
     2
  9
$DGNFRAME
280
     0
  9
$REALWORLDSCALE
290
     1
  9
$INTERFERECOLOR
 62
     1
  9
$INTERFEREOBJVS
345
F0B
  9
$INTERFEREVPVS
346
F08
  9
$CSHADOW
280
     0
  9
$SHADOWPLANELOCATION
 40
0.0
  0
ENDSEC
  0
SECTION
  2
CLASSES
  0
CLASS
  1
ACDBDICTIONARYWDFLT
  2
AcDbDictionaryWithDefault
  3
ObjectDBX Classes
 90
        0
 91
        1
280
     0
281
     0
  0
CLASS
  1
TABLESTYLE
  2
AcDbTableStyle
  3
ObjectDBX Classes
 90
     4095
 91
        2
280
     0
281
     0
  0
CLASS
  1
ACAD_TABLE
  2
AcDbTable
  3
ObjectDBX Classes
 90
     1025
 91
        0
280
     0
281
     1
  0
CLASS
  1
MATERIAL
  2
AcDbMaterial
  3
ObjectDBX Classes
 90
     1153
 91
        3
280
     0
281
     0
  0
CLASS
  1
VISUALSTYLE
  2
AcDbVisualStyle
  3
ObjectDBX Classes
 90
     4095
 91
       16
280
     0
281
     0
  0
CLASS
  1
SCALE
  2
AcDbScale
  3
ObjectDBX Classes
 90
     1153
 91
       33
280
     0
281
     0
  0
CLASS
  1
MLEADERSTYLE
  2
AcDbMLeaderStyle
  3
ACDB_MLEADERSTYLE_CLASS
 90
     4095
 91
        1
280
     0
281
     0
  0
CLASS
  1
AMGSETTINGSOBJ
  2
AmgSettingsObj
  3
"AcadM|Product Description: AutoCAD Mechanical|Company: Autodesk, Inc."
 90
     1024
 91
        2
280
     0
281
     0
  0
CLASS
  1
ACME_DOCUMENT
  2
AcMeDbDoc
  3
AcMeServices
 90
     1024
 91
        1
280
     0
281
     0
  0
CLASS
  1
ACMESCOPE
  2
AcMeScope
  3
AcMeServices
 90
     1024
 91
        1
280
     0
281
     0
  0
CLASS
  1
ACMECOMMANDHISTORY
  2
AcMeCommandHistory
  3
AcMeServices
 90
     1024
 91
        1
280
     0
281
     0
  0
CLASS
  1
ACIMSYSVARMAN
  2
AcImSysVarManager
  3
AcMeServices
 90
     1024
 91
        5
280
     0
281
     0
  0
CLASS
  1
ACIMINTSYSVAR
  2
AcImIntSysVar
  3
AcMeServices
 90
     1024
 91
       27
280
     0
281
     0
  0
CLASS
  1
ACMEDRAWINGMAN
  2
AcMeDrawingMan
  3
AcMeServices
 90
     1024
 91
        1
280
     0
281
     0
  0
CLASS
  1
ACMEVIEW
  2
AcMeView
  3
AcMeServices
 90
     1024
 91
        1
280
     0
281
     0
  0
CLASS
  1
ACDBENTITYCACHE
  2
AcMeEntityCache
  3
AcMeServices
 90
     1024
 91
        1
280
     0
281
     0
  0
CLASS
  1
GSMANAGER
  2
AcMeGSManager
  3
AcMeServices
 90
     1024
 91
        1
280
     0
281
     0
  0
CLASS
  1
AMDTINTERNALREACTOR
  2
AmdtInternalReactor
  3
AcMeServices
 90
     1024
 91
        2
280
     0
281
     0
  0
CLASS
  1
ACMESTATEMGR
  2
AcMeStateMgr
  3
AcMeServices
 90
     1024
 91
        1
280
     0
281
     0
  0
CLASS
  1
ACGREFMASTER
  2
AcGrefMaster
  3
AcAttribServices
 90
     1024
 91
        1
280
     0
281
     0
  0
CLASS
  1
AM_DRAWING_MGR
  2
AcDmDwgMgr
  3
AcMechDwgViewMgmt
 90
     1024
 91
        1
280
     0
281
     0
  0
CLASS
  1
AM_DWG_DOCUMENT
  2
AcDmDwgDocument
  3
AcMechDwgViewMgmt
 90
     1024
 91
        1
280
     0
281
     0
  0
CLASS
  1
AM_DWG_SHEET
  2
AcDmSheet
  3
AcMechDwgViewMgmt
 90
     1024
 91
        1
280
     0
281
     0
  0
CLASS
  1
AM_VIEWDIMPARMAP
  2
AcDmViewDimParMap
  3
AcMechDwgViewMgmt
 90
     1024
 91
        1
280
     0
281
     0
  0
CLASS
  1
ACIMREALSYSVAR
  2
AcImRealSysVar
  3
AcMeServices
 90
     1024
 91
        1
280
     0
281
     0
  0
CLASS
  1
AM_DWGMGR_NAME
  2
AcDmDwgMgrName
  3
AcMechDwgViewMgmt
 90
     1024
 91
        1
280
     0
281
     0
  0
CLASS
  1
ACME_DATABASE
  2
AcMeDbDatabase
  3
AcMeServices
 90
     1024
 91
        1
280
     0
281
     0
  0
CLASS
  1
ACRFINSADJUSTERMGR
  2
AcRfInsAdjusterMgr
  3
AcMeServices
 90
     1024
 91
        1
280
     0
281
     0
  0
CLASS
  1
ACGREFACADMASTER
  2
AcGrefacadMaster
  3
AcGrefServices
 90
     1024
 91
        1
280
     0
281
     0
  0
CLASS
  1
AMDTMENUSTATEMGR
  2
AmdtMenuStateMgr
  3
McadcomServices
 90
     1024
 91
        1
280
     0
281
     0
  0
CLASS
  1
AMDTMCOMMENUSTATE
  2
AmdtMcomMenuState
  3
McadcomServices
 90
     1024
 91
        1
280
     0
281
     0
  0
CLASS
  1
AMIMASTER
  2
AmiMaster
  3
AmiServices
 90
     1024
 91
        1
280
     0
281
     0
  0
CLASS
  1
MAPIAMMOUDLE
  2
MApiAmModule
  3
MApiAmServices
 90
     1024
 91
        1
280
     0
281
     0
  0
CLASS
  1
ACIMSTRSYSVAR
  2
AcImStrSysVar
  3
AcMeServices
 90
     1024
 91
        5
280
     0
281
     0
  0
CLASS
  1
AMDTADMENUSTATE
  2
AmdtAdMenuState
  3
DesignerServices
 90
     1024
 91
        1
280
     0
281
     0
  0
CLASS
  1
ADAPPL
  2
AcAdAppl
  3
DesignerServices
 90
     1024
 91
        1
280
     0
281
     0
  0
CLASS
  1
DEPMGR
  2
AcAdDepMgr
  3
DesignerServices
 90
     1024
 91
        1
280
     0
281
     0
  0
CLASS
  1
PARAMMGR
  2
AcAdParamMgr
  3
DesignerServices
 90
     1024
 91
        1
280
     0
281
     0
  0
CLASS
  1
PARAMSCOPE
  2
AcAdParamScope
  3
DesignerServices
 90
     1024
 91
        1
280
     0
281
     0
  0
CLASS
  1
NAMEDAPPL
  2
AcAdNamedAppl
  3
DesignerServices
 90
     1024
 91
        1
280
     0
281
     0
  0
CLASS
  1
AMDTDMMENUSTATE
  2
AmdtDmMenuState
  3
AcMechDwgViewMgmt
 90
     1024
 91
        1
280
     0
281
     0
  0
CLASS
  1
AMDTAMMENUSTATE
  2
AmdtAmMenuState
  3
DesignerAssemblies
 90
     1024
 91
        1
280
     0
281
     0
  0
CLASS
  1
ACAMPROJECT
  2
AcAmProject
  3
DesignerAssemblies
 90
     1024
 91
        1
280
     0
281
     0
  0
CLASS
  1
ACAMGRCOMPDEF
  2
AcAmGrCompDef
  3
DesignerAssemblies
 90
     1024
 91
        1
280
     0
281
     0
  0
CLASS
  1
ACCMCONTEXT
  2
AcCmContext
  3
DesignerAssemblies
 90
     1024
 91
        1
280
     0
281
     0
  0
CLASS
  1
ACAMCOMPDEF
  2
AcAmCompDef
  3
DesignerAssemblies
 90
     1024
 91
        1
280
     0
281
     0
  0
CLASS
  1
ACAMCOMPDEFMGR
  2
AcAmCompDefMgr
  3
DesignerAssemblies
 90
     1024
 91
        1
280
     0
281
     0
  0
CLASS
  1
AMCONTEXTMGR
  2
AcAmContextMgr
  3
DesignerAssemblies
 90
     1024
 91
        1
280
     0
281
     0
  0
CLASS
  1
ACAMCONTEXTMODELER
  2
AcAmContextModeler
  3
DesignerAssemblies
 90
     1024
 91
        1
280
     0
281
     0
  0
CLASS
  1
ACMDATADICTIONARY
  2
AcmDataDictionary
  3
"AcmSymBB|Product Description: AutoCAD Mechanical|Company: Autodesk, Inc."
 90
     1024
 91
        1
280
     0
281
     0
  0
CLASS
  1
CATALOGSTATE
  2
AcAmCatalogState
  3
DesignerAssemblies
 90
     1024
 91
        1
280
     0
281
     0
  0
CLASS
  1
ACAMGRCOMPDEFSET
  2
AcAmGrCompDefSet
  3
DesignerAssemblies
 90
     1024
 91
        1
280
     0
281
     0
  0
CLASS
  1
AMDTBROWSERDBTAB
  2
AmdtBrowserDbTab
  3
McadcomServices
 90
     1024
 91
        1
280
     0
281
     0
  0
CLASS
  1
CBROWSERAPPOBJECT
  2
CBrowserAppObject
  3
McadcomServices
 90
     1024
 91
        3
280
     0
281
     0
  0
CLASS
  1
DM_PLACEHOLDER
  2
AcDmSelsetPlaceholder
  3
AcMechDwgViewMgmt
 90
     1024
 91
        1
280
     0
281
     0
  0
CLASS
  1
EXACXREFPANELOBJECT
  2
ExAcXREFPanelObject
  3
EXAC_ESW
 90
     1025
 91
        1
280
     0
281
     0
  0
CLASS
  1
NPOCOLLECTION
  2
AcDbImpNonPersistentObjectsCollection
  3
ObjectDBX Classes
 90
     1153
 91
        1
280
     0
281
     0
  0
CLASS
  1
ACMSTANDARDANSI
  2
AcmStandardANSI
  3
"Amdt_StdImp|Product Description: AutoCAD Mechanical|Company: Autodesk, Inc."
 90
     1024
 91
        1
280
     0
281
     0
  0
CLASS
  1
ACMSURFSTANDARDANSI
  2
AcmSurfTextStdANSI
  3
"Amdt_StdImp|Product Description: AutoCAD Mechanical|Company: Autodesk, Inc."
 90
     1024
 91
        1
280
     0
281
     0
  0
CLASS
  1
ACMFCFSTANDARDANSI
  2
AcmFCFStdANSI
  3
"Amdt_StdImp|Product Description: AutoCAD Mechanical|Company: Autodesk, Inc."
 90
     1024
 91
        1
280
     0
281
     0
  0
CLASS
  1
ACMWELDSTANDARDANSI
  2
AcmWeldingStdANSI
  3
"Amdt_StdImp|Product Description: AutoCAD Mechanical|Company: Autodesk, Inc."
 90
     1024
 91
        1
280
     0
281
     0
  0
CLASS
  1
ACMIDSTANDARDANSI
  2
AcmIdStdANSI
  3
"Amdt_StdImp|Product Description: AutoCAD Mechanical|Company: Autodesk, Inc."
 90
     1024
 91
        1
280
     0
281
     0
  0
CLASS
  1
ACMDATUMSTANDARDANSI
  2
AcmDatumStdANSI
  3
"Amdt_StdImp|Product Description: AutoCAD Mechanical|Company: Autodesk, Inc."
 90
     1024
 91
        1
280
     0
281
     0
  0
CLASS
  1
ACMBOMSTANDARDANSI
  2
AcmBOMStdANSI
  3
"Amdt_StdImp|Product Description: AutoCAD Mechanical|Company: Autodesk, Inc."
 90
     1024
 91
        1
280
     0
281
     0
  0
CLASS
  1
ACMDETAILSTANDARDANSI
  2
AmdtDetailSymStdANSI
  3
"Amdt_StdImp|Product Description: AutoCAD Mechanical|Company: Autodesk, Inc."
 90
     1024
 91
        1
280
     0
281
     0
  0
CLASS
  1
ACMSECTIONSTANDARDANSI
  2
AmdtSectionSymStdANSI
  3
"Amdt_StdImp|Product Description: AutoCAD Mechanical|Company: Autodesk, Inc."
 90
     1024
 91
        1
280
     0
281
     0
  0
CLASS
  1
ACMCENTERLINESTANDARDANSI
  2
AmdtCenterLineStdANSI
  3
"Amdt_StdImp|Product Description: AutoCAD Mechanical|Company: Autodesk, Inc."
 90
     1024
 91
        1
280
     0
281
     0
  0
CLASS
  1
ACMTHREADLINESTANDARDANSI
  2
AmdtThreadLineStdANSI
  3
"Amdt_StdImp|Product Description: AutoCAD Mechanical|Company: Autodesk, Inc."
 90
     1024
 91
        1
280
     0
281
     0
  0
CLASS
  1
ACMNOTESTANDARDANSI
  2
AmdtNoteStdANSI
  3
"Amdt_StdImp|Product Description: AutoCAD Mechanical|Company: Autodesk, Inc."
 90
     1024
 91
        1
280
     0
281
     0
  0
CLASS
  1
ACMTAPERSTANDARDANSI
  2
AcmTaperStdANSI
  3
"Amdt_StdImp|Product Description: AutoCAD Mechanical|Company: Autodesk, Inc."
 90
     1024
 91
        1
280
     0
281
     0
  0
CLASS
  1
ACMANOOTATIONVIEWSTANDARDANSI
  2
AmdtAnViewStdANSI
  3
"Amdt_StdImp|Product Description: AutoCAD Mechanical|Company: Autodesk, Inc."
 90
     1024
 91
        1
280
     0
281
     0
  0
CLASS
  1
ACAMGLAYSTD
  2
AcAmgLayStd
  3
"AmgLay|Product Description: AutoCAD Mechanical|Company: Autodesk, Inc."
 90
     1024
 91
        1
280
     0
281
     0
  0
CLASS
  1
ACAMGDIMSTD
  2
AcAmgDimStd
  3
"AmgDim|Product Description: AutoCAD Mechanical|Company: Autodesk, Inc."
 90
     1024
 91
        1
280
     0
281
     0
  0
CLASS
  1
AMGOBJPROPCFG
  2
AmgObjPropCfg
  3
"AmgLay|Product Description: AutoCAD Mechanical|Company: Autodesk, Inc."
 90
     1025
 91
        1
280
     0
281
     0
  0
CLASS
  1
ACAMGHOLECHARTSTDANSI
  2
AcAmgHoleChartStdANSI
  3
AmgDim|Product Description: AutoCAD Mechanical|Company: Autodesk, Inc.
 90
     1024
 91
        1
280
     0
281
     0
  0
CLASS
  1
ACAMGTITLESTD
  2
AcAmgTitleStd
  3
"AmgTitle|Product Description: AutoCAD Mechanical|Company: Autodesk, Inc."
 90
     4095
 91
        1
280
     0
281
     0
  0
CLASS
  1
AMDTNOTETEMPLATEDB
  2
AmdtNoteTemplateDB
  3
AcmSymBB|Product Description: AutoCAD Mechanical|Company: Autodesk, Inc.
 90
     1024
 91
        6
280
     0
281
     0
  0
CLASS
  1
ACAMGFILTERDAT
  2
AcAmgFilterDat
  3
"AcadM|Product Description: AutoCAD Mechanical|Company: Autodesk, Inc."
 90
     1024
 91
        0
280
     0
281
     0
  0
CLASS
  1
DICTIONARYVAR
  2
AcDbDictionaryVar
  3
ObjectDBX Classes
 90
        0
 91
        3
280
     0
281
     0
  0
CLASS
  1
CELLSTYLEMAP
  2
AcDbCellStyleMap
  3
ObjectDBX Classes
 90
     1152
 91
        4
280
     0
281
     0
  0
ENDSEC
  0
SECTION
  2
TABLES
  0
TABLE
  2
VPORT
  5
8
330
0
100
AcDbSymbolTable
 70
     1
  0
VPORT
  5
1F4
330
8
100
AcDbSymbolTableRecord
100
AcDbViewportTableRecord
  2
*ACTIVE
 70
     0
 10
0.0
 20
0.0
 11
1.0
 21
1.0
 12
16.42958633361795
 22
16.42447511084527
 13
0.0
 23
0.0
 14
1.0
 24
1.0
 15
0.0
 25
0.0
 16
0.0
 26
0.0
 36
1.0
 17
0.0
 27
0.0
 37
0.0
 40
17.49495010722096
 41
1.605849582172701
 42
50.0
 43
0.0
 44
0.0
 50
0.0
 51
0.0
 71
     0
 72
   100
 73
     1
 74
     1
 75
     0
 76
     0
 77
     0
 78
     0
281
     0
 65
     0
110
0.0
120
0.0
130
0.0
111
1.0
121
0.0
131
0.0
112
0.0
122
1.0
132
0.0
 79
     0
146
0.0
348
F07
 60
     3
 61
     5
292
     1
282
     1
141
0.0
142
0.0
 63
   250
421
  3355443
  0
ENDTAB
  0
TABLE
  2
LTYPE
  5
5
330
0
100
AcDbSymbolTable
 70
    19
  0
LTYPE
  5
14
330
5
100
AcDbSymbolTableRecord
100
AcDbLinetypeTableRecord
  2
BYBLOCK
 70
     0
  3

 72
    65
 73
     0
 40
0.0
  0
LTYPE
  5
15
330
5
100
AcDbSymbolTableRecord
100
AcDbLinetypeTableRecord
  2
BYLAYER
 70
     0
  3

 72
    65
 73
     0
 40
0.0
  0
LTYPE
  5
16
330
5
100
AcDbSymbolTableRecord
100
AcDbLinetypeTableRecord
  2
CONTINUOUS
 70
     0
  3
Solid line
 72
    65
 73
     0
 40
0.0
  0
LTYPE
  5
1F5
330
5
100
AcDbSymbolTableRecord
100
AcDbLinetypeTableRecord
  2
CENTER
 70
     0
  3
____ _ ____ _ ____ _ ____ _ ____ _ ____ _ ____
 72
    65
 73
     4
 40
0.6
 49
0.375
 74
     0
 49
-0.075
 74
     0
 49
0.075
 74
     0
 49
-0.075
 74
     0
  0
LTYPE
  5
1F6
330
5
100
AcDbSymbolTableRecord
100
AcDbLinetypeTableRecord
  2
HIDDEN
 70
     0
  3
- - - - - - - - - - - - - - - - - - - -
 72
    65
 73
     2
 40
0.2
 49
0.1
 74
     0
 49
-0.1
 74
     0
  0
LTYPE
  5
1F7
330
5
100
AcDbSymbolTableRecord
100
AcDbLinetypeTableRecord
  2
PHANTOM
 70
     0
  3
_____ _ _ _____ _ _ _____ _ _ _____
 72
    65
 73
     6
 40
0.8
 49
0.45
 74
     0
 49
-0.05
 74
     0
 49
0.1
 74
     0
 49
-0.05
 74
     0
 49
0.1
 74
     0
 49
-0.05
 74
     0
  0
LTYPE
  5
1F8
330
5
100
AcDbSymbolTableRecord
100
AcDbLinetypeTableRecord
  2
DOT
 70
     0
  3
. . . . . . . . . . . . . . . . . . . .
 72
    65
 73
     2
 40
0.2
 49
0.1
 74
     0
 49
-0.1
 74
     0
  0
LTYPE
  5
1F9
330
5
100
AcDbSymbolTableRecord
100
AcDbLinetypeTableRecord
  2
DASHED
 70
     0
  3
- - - - - - - - - - - - - - - - - - - -
 72
    65
 73
     2
 40
0.2
 49
0.1
 74
     0
 49
-0.1
 74
     0
  0
LTYPE
  5
F6D
330
5
100
AcDbSymbolTableRecord
100
AcDbLinetypeTableRecord
  2
PHANTOM2
 70
     0
  3
Phantom (.5x) ___ _ _ ___ _ _ ___ _ _ ___ _ _
 72
    65
 73
     6
 40
1.25
 49
0.625
 74
     0
 49
-0.125
 74
     0
 49
0.125
 74
     0
 49
-0.125
 74
     0
 49
0.125
 74
     0
 49
-0.125
 74
     0
  0
LTYPE
  5
FB4
330
5
100
AcDbSymbolTableRecord
100
AcDbLinetypeTableRecord
  2
AM_ISO02W050
 70
     0
  3
__ __ __ __ __ __ __ __ __ __ __ __ __ __ __
 72
    65
 73
     2
 40
7.5
 49
6.0
 74
     0
 49
-1.5
 74
     0
  0
LTYPE
  5
FB5
330
5
100
AcDbSymbolTableRecord
100
AcDbLinetypeTableRecord
  2
AM_ISO08W050
 70
     0
  3
____ . ____ . ____ . ____ . ____ . ____ . ____
 72
    65
 73
     4
 40
18.0
 49
12.0
 74
     0
 49
-1.5
 74
     0
 49
3.0
 74
     0
 49
-1.5
 74
     0
  0
LTYPE
  5
FB6
330
5
100
AcDbSymbolTableRecord
100
AcDbLinetypeTableRecord
  2
AM_ISO09W050
 70
     0
  3
_____ . . _____ . . _____ . . ____ .. ____
 72
    65
 73
     6
 40
22.5
 49
12.0
 74
     0
 49
-1.5
 74
     0
 49
3.0
 74
     0
 49
-1.5
 74
     0
 49
3.0
 74
     0
 49
-1.5
 74
     0
  0
LTYPE
  5
FB7
330
5
100
AcDbSymbolTableRecord
100
AcDbLinetypeTableRecord
  2
Amconstr
 70
     0
  3
_______________________
 72
    65
 73
     2
 40
9999.0
 49
9999.0
 74
     0
 49
0.0
 74
     0
  0
LTYPE
  5
FB8
330
5
100
AcDbSymbolTableRecord
100
AcDbLinetypeTableRecord
  2
AM_ISO08W050x2
 70
     0
  3
__ . __ . __ . __ . __ . __
 72
    65
 73
     4
 40
9.0
 49
6.0
 74
     0
 49
-0.75
 74
     0
 49
1.5
 74
     0
 49
-0.75
 74
     0
  0
LTYPE
  5
FB9
330
5
100
AcDbSymbolTableRecord
100
AcDbLinetypeTableRecord
  2
AM_ISO02W050x2
 70
     0
  3
 _ _ _ _ _ _ _ _ _ _ _ _
 72
    65
 73
     2
 40
3.75
 49
3.0
 74
     0
 49
-0.75
 74
     0
  0
LTYPE
  5
FBC
330
5
100
AcDbSymbolTableRecord
100
AcDbLinetypeTableRecord
  2
Amzigzag
 70
     0
  3
/\/-/\/-/\/-/\/-/\/-/\/
 72
    65
 73
     2
 40
11.0001
 49
0.0001
 74
     4
 75
   136
340
FBB
 46
0.04
 50
0.0
 44
0.0
 45
0.0
 49
-11.0
 74
     0
  0
LTYPE
  5
FBD
330
5
100
AcDbSymbolTableRecord
100
AcDbLinetypeTableRecord
  2
CENTER2
 70
     0
  3
Center (.5x) ___ _ ___ _ ___ _ ___ _ ___ _ ___
 72
    65
 73
     4
 40
1.125
 49
0.75
 74
     0
 49
-0.125
 74
     0
 49
0.125
 74
     0
 49
-0.125
 74
     0
  0
LTYPE
  5
FBE
330
5
100
AcDbSymbolTableRecord
100
AcDbLinetypeTableRecord
  2
HIDDEN2
 70
     0
  3
Hidden (.5x) _ _ _ _ _ _ _ _ _ _ _ _ _ _ _ _ _
 72
    65
 73
     2
 40
0.1875
 49
0.125
 74
     0
 49
-0.0625
 74
     0
  0
LTYPE
  5
FBF
330
5
100
AcDbSymbolTableRecord
100
AcDbLinetypeTableRecord
  2
Amzigzag2
 70
     0
  3
/\/-/\/-/\/-/\/-/\/-/\/
 72
    65
 73
     2
 40
0.4401
 49
0.0001
 74
     4
 75
   136
340
FBB
 46
0.0016
 50
0.0
 44
0.0
 45
0.0
 49
-0.4400000000000003
 74
     0
  0
LTYPE
  5
FCD
330
5
100
AcDbSymbolTableRecord
100
AcDbLinetypeTableRecord
  2
ACANSTGB
 70
     0
  3
__ . . __ . .
 72
    65
 73
     6
 40
0.35433070866
 49
0.15748031496
 74
     0
 49
-0.03937007874
 74
     0
 49
0.03937007874
 74
     0
 49
-0.03937007874
 74
     0
 49
0.03937007874
 74
     0
 49
-0.03937007874
 74
     0
  0
LTYPE
  5
FCE
330
5
100
AcDbSymbolTableRecord
100
AcDbLinetypeTableRecord
  2
ACANSTGL
 70
     0
  3
_ _ _ _ _
 72
    65
 73
     2
 40
0.11811023622
 49
0.07874015748
 74
     0
 49
-0.03937007874
 74
     0
  0
ENDTAB
  0
TABLE
  2
LAYER
  5
2
330
0
100
AcDbSymbolTable
 70
    20
  0
LAYER
  5
10
330
2
100
AcDbSymbolTableRecord
100
AcDbLayerTableRecord
  2
0
 70
     0
 62
     7
  6
CONTINUOUS
370
    -3
390
F
347
EF9
  0
LAYER
  5
1FA
330
2
100
AcDbSymbolTableRecord
100
AcDbLayerTableRecord
  2
DEFAULT_1
 70
     0
 62
     7
  6
CENTER
370
    -3
390
F
347
EF9
  0
LAYER
  5
1FB
330
2
100
AcDbSymbolTableRecord
100
AcDbLayerTableRecord
  2
DEFAULT_2
 70
     0
 62
     8
  6
HIDDEN
370
    -3
390
F
347
EF9
  0
LAYER
  5
1FC
330
2
100
AcDbSymbolTableRecord
100
AcDbLayerTableRecord
  2
DEFAULT_3
 70
     0
 62
     7
  6
PHANTOM
370
    -3
390
F
347
EF9
  0
LAYER
  5
1FD
330
2
100
AcDbSymbolTableRecord
100
AcDbLayerTableRecord
  2
CURVE1
 70
     0
 62
     7
  6
CONTINUOUS
370
    -3
390
F
347
EF9
  0
LAYER
  5
1FE
330
2
100
AcDbSymbolTableRecord
100
AcDbLayerTableRecord
  2
DATUMS
 70
     0
 62
     7
  6
CONTINUOUS
370
    -3
390
F
347
EF9
  0
LAYER
  5
1FF
330
2
100
AcDbSymbolTableRecord
100
AcDbLayerTableRecord
  2
DATUM_AXIS
 70
     0
 62
     7
  6
CONTINUOUS
370
    -3
390
F
347
EF9
  0
LAYER
  5
200
330
2
100
AcDbSymbolTableRecord
100
AcDbLayerTableRecord
  2
DATUM_CSYS
 70
     0
 62
     7
  6
CONTINUOUS
370
    -3
390
F
347
EF9
  0
LAYER
  5
201
330
2
100
AcDbSymbolTableRecord
100
AcDbLayerTableRecord
  2
DATUM_PLANE
 70
     0
 62
     7
  6
CONTINUOUS
370
    -3
390
F
347
EF9
  0
LAYER
  5
202
330
2
100
AcDbSymbolTableRecord
100
AcDbLayerTableRecord
  2
DATUM_POINT
 70
     0
 62
     7
  6
CONTINUOUS
370
    -3
390
F
347
EF9
  0
LAYER
  5
203
330
2
100
AcDbSymbolTableRecord
100
AcDbLayerTableRecord
  2
LAY0001
 70
     0
 62
     7
  6
CONTINUOUS
370
    -3
390
F
347
EF9
  0
LAYER
  5
204
330
2
100
AcDbSymbolTableRecord
100
AcDbLayerTableRecord
  2
SURFACE
 70
     0
 62
     7
  6
CONTINUOUS
370
    -3
390
F
347
EF9
  0
LAYER
  5
205
330
2
100
AcDbSymbolTableRecord
100
AcDbLayerTableRecord
  2
SURFACE2
 70
     0
 62
     7
  6
CONTINUOUS
370
    -3
390
F
347
EF9
  0
LAYER
  5
206
330
2
100
AcDbSymbolTableRecord
100
AcDbLayerTableRecord
  2
_CURVE
 70
     0
 62
     7
  6
CONTINUOUS
370
    -3
390
F
347
EF9
  0
LAYER
  5
207
330
2
100
AcDbSymbolTableRecord
100
AcDbLayerTableRecord
  2
_SURFACE
 70
     0
 62
     7
  6
CONTINUOUS
370
    -3
390
F
347
EF9
  0
LAYER
  5
208
330
2
100
AcDbSymbolTableRecord
100
AcDbLayerTableRecord
  2
__REF_CURVE
 70
     0
 62
     7
  6
CONTINUOUS
370
    -3
390
F
347
EF9
  0
LAYER
  5
209
330
2
100
AcDbSymbolTableRecord
100
AcDbLayerTableRecord
  2
__REF_SURFACE
 70
     0
 62
     7
  6
CONTINUOUS
370
    -3
390
F
347
EF9
  0
LAYER
  5
20A
330
2
100
AcDbSymbolTableRecord
100
AcDbLayerTableRecord
  2
___COSMETIC_SKETCH
 70
     0
 62
     7
  6
CONTINUOUS
370
    -3
390
F
347
EF9
  0
LAYER
  5
20B
330
2
100
AcDbSymbolTableRecord
100
AcDbLayerTableRecord
  2
___NOTE
 70
     0
 62
     7
  6
CONTINUOUS
370
    -3
390
F
347
EF9
  0
LAYER
  5
20C
330
2
100
AcDbSymbolTableRecord
100
AcDbLayerTableRecord
  2
___SYMBOL
 70
     0
 62
     7
  6
CONTINUOUS
370
    -3
390
F
347
EF9
  0
ENDTAB
  0
TABLE
  2
STYLE
  5
3
330
0
100
AcDbSymbolTable
 70
    19
  0
STYLE
  5
11
330
3
100
AcDbSymbolTableRecord
100
AcDbTextStyleTableRecord
  2
STANDARD
 70
     0
 40
0.0
 41
0.8
 50
0.0
 71
     0
 42
0.2
  3
txt
  4

  0
STYLE
  5
20D
330
3
100
AcDbSymbolTableRecord
100
AcDbTextStyleTableRecord
  2
TEXTSTYLE_1
 70
     0
 40
0.0
 41
0.8
 50
0.0
 71
     0
 42
0.2
  3
gdt
  4

  0
STYLE
  5
20E
330
3
100
AcDbSymbolTableRecord
100
AcDbTextStyleTableRecord
  2
TEXTSTYLE_2
 70
     0
 40
0.0
 41
1.04
 50
0.0
 71
     0
 42
0.2
  3
txt
  4

  0
STYLE
  5
20F
330
3
100
AcDbSymbolTableRecord
100
AcDbTextStyleTableRecord
  2
TEXTSTYLE_3
 70
     0
 40
0.0
 41
0.9399999999999998
 50
0.0
 71
     0
 42
0.2
  3
txt
  4

  0
STYLE
  5
210
330
3
100
AcDbSymbolTableRecord
100
AcDbTextStyleTableRecord
  2
TEXTSTYLE_4
 70
     0
 40
0.0
 41
1.0
 50
0.0
 71
     0
 42
0.2
  3
txt
  4

  0
STYLE
  5
211
330
3
100
AcDbSymbolTableRecord
100
AcDbTextStyleTableRecord
  2
TEXTSTYLE_5
 70
     0
 40
0.0
 41
1.199999999999999
 50
0.0
 71
     0
 42
0.2
  3
txt
  4

  0
STYLE
  5
212
330
3
100
AcDbSymbolTableRecord
100
AcDbTextStyleTableRecord
  2
TEXTSTYLE_6
 70
     0
 40
0.0
 41
1.02
 50
0.0
 71
     0
 42
0.2
  3
txt
  4

  0
STYLE
  5
213
330
3
100
AcDbSymbolTableRecord
100
AcDbTextStyleTableRecord
  2
TEXTSTYLE_7
 70
     0
 40
0.0
 41
0.925
 50
0.0
 71
     0
 42
0.2
  3
txt
  4

  0
STYLE
  5
214
330
3
100
AcDbSymbolTableRecord
100
AcDbTextStyleTableRecord
  2
TEXTSTYLE_8
 70
     0
 40
0.0
 41
1.0500002909
 50
0.0
 71
     0
 42
0.2
  3
txt
  4

  0
STYLE
  5
215
330
3
100
AcDbSymbolTableRecord
100
AcDbTextStyleTableRecord
  2
TEXTSTYLE_9
 70
     0
 40
0.0
 41
1.09
 50
0.0
 71
     0
 42
0.2
  3
txt
  4

  0
STYLE
  5
216
330
3
100
AcDbSymbolTableRecord
100
AcDbTextStyleTableRecord
  2
TEXTSTYLE_10
 70
     0
 40
0.0
 41
0.9899995429
 50
0.0
 71
     0
 42
0.2
  3
txt
  4

  0
STYLE
  5
217
330
3
100
AcDbSymbolTableRecord
100
AcDbTextStyleTableRecord
  2
TEXTSTYLE_11
 70
     0
 40
0.0
 41
1.07
 50
0.0
 71
     0
 42
0.2
  3
txt
  4

  0
STYLE
  5
218
330
3
100
AcDbSymbolTableRecord
100
AcDbTextStyleTableRecord
  2
TEXTSTYLE_12
 70
     0
 40
0.0
 41
1.229999999999997
 50
0.0
 71
     0
 42
0.2
  3
txt
  4

  0
STYLE
  5
219
330
3
100
AcDbSymbolTableRecord
100
AcDbTextStyleTableRecord
  2
TEXTSTYLE_13
 70
     0
 40
0.0
 41
0.9700032
 50
0.0
 71
     0
 42
0.2
  3
txt
  4

  0
STYLE
  5
21A
330
3
100
AcDbSymbolTableRecord
100
AcDbTextStyleTableRecord
  2
TEXTSTYLE_14
 70
     0
 40
0.0
 41
1.379999999999999
 50
0.0
 71
     0
 42
0.2
  3
txt
  4

  0
STYLE
  5
21B
330
3
100
AcDbSymbolTableRecord
100
AcDbTextStyleTableRecord
  2
TEXTSTYLE_15
 70
     0
 40
0.0
 41
0.95
 50
0.0
 71
     0
 42
0.2
  3
txt
  4

  0
STYLE
  5
FBB
330
3
100
AcDbSymbolTableRecord
100
AcDbTextStyleTableRecord
  2

 70
     1
 40
0.0
 41
1.0
 50
0.0
 71
     0
 42
0.2
  3
genltshp.shx
  4

  0
STYLE
  5
FCB
330
3
100
AcDbSymbolTableRecord
100
AcDbTextStyleTableRecord
  2
ACANSTS
 70
     0
 40
1.0
 41
1.0
 50
0.0
 71
     0
 42
0.2
  3
romans.shx
  4
gbcbig.shx
  0
STYLE
  5
FCC
330
3
100
AcDbSymbolTableRecord
100
AcDbTextStyleTableRecord
  2
ACANSGDT
 70
     0
 40
0.0
 41
1.0
 50
0.0
 71
     0
 42
0.2
  3
amgdt.shx
  4

  0
ENDTAB
  0
TABLE
  2
VIEW
  5
6
330
0
100
AcDbSymbolTable
 70
     0
  0
ENDTAB
  0
TABLE
  2
UCS
  5
7
330
0
100
AcDbSymbolTable
 70
     0
  0
ENDTAB
  0
TABLE
  2
APPID
  5
9
330
0
100
AcDbSymbolTable
 70
     9
  0
APPID
  5
21C
330
9
100
AcDbSymbolTableRecord
100
AcDbRegAppTableRecord
  2
ACAD
 70
     0
  0
APPID
  5
F37
330
9
100
AcDbSymbolTableRecord
100
AcDbRegAppTableRecord
  2
ACAD_MLEADERVER
 70
     0
  0
APPID
  5
F40
330
9
100
AcDbSymbolTableRecord
100
AcDbRegAppTableRecord
  2
MCAD_NO_VIS
 70
     0
  0
APPID
  5
F41
330
9
100
AcDbSymbolTableRecord
100
AcDbRegAppTableRecord
  2
ACAD_TEMP_GRAPHIC
 70
     0
  0
APPID
  5
F6F
330
9
100
AcDbSymbolTableRecord
100
AcDbRegAppTableRecord
  2
AD_DRAW
 70
     0
  0
APPID
  5
F72
330
9
100
AcDbSymbolTableRecord
100
AcDbRegAppTableRecord
  2
ACATTRIBSERVICES
 70
     0
  0
APPID
  5
F93
330
9
100
AcDbSymbolTableRecord
100
AcDbRegAppTableRecord
  2
DESIGNERASSEMBLIES
 70
     0
  0
APPID
  5
F99
330
9
100
AcDbSymbolTableRecord
100
AcDbRegAppTableRecord
  2
ACADM_DIM_EDIT
 70
     0
  0
APPID
  5
F9A
330
9
100
AcDbSymbolTableRecord
100
AcDbRegAppTableRecord
  2
AMDT_DM_ADJ
 70
     0
  0
ENDTAB
  0
TABLE
  2
DIMSTYLE
  5
A
330
0
100
AcDbSymbolTable
 70
    16
100
AcDbDimStyleTable
 71
     1
340
FB2
  0
DIMSTYLE
105
23C
330
A
100
AcDbSymbolTableRecord
100
AcDbDimStyleTableRecord
  2
STANDARD
 70
     0
 41
0.1875
 47
0.01
 48
0.01
 71
     1
 78
     4
140
0.15625
271
     3
272
     3
284
     4
340
11
341
21F
342
21F
343
21F
344
21F
  0
DIMSTYLE
105
23D
330
A
100
AcDbSymbolTableRecord
100
AcDbDimStyleTableRecord
  2
DIMSTYLE_1
 70
     0
 41
0.1875
 47
3.0
 48
3.0
 71
     1
 78
     4
140
0.15625
144
4.0
271
     1
272
     1
284
     4
340
11
341
21F
342
21F
343
21F
344
21F
  0
DIMSTYLE
105
23E
330
A
100
AcDbSymbolTableRecord
100
AcDbDimStyleTableRecord
  2
DIMSTYLE_2
 70
     0
 41
0.1875
 47
0.01
 48
0.01
 78
     4
140
0.15625
144
4.0
271
     3
272
     3
284
     4
340
11
341
21F
342
21F
343
21F
344
21F
  0
DIMSTYLE
105
23F
330
A
100
AcDbSymbolTableRecord
100
AcDbDimStyleTableRecord
  2
DIMSTYLE_3
 70
     0
 41
0.1875
 47
0.1
 48
0.1
 78
     4
140
0.15625
144
4.0
271
     3
272
     3
284
     4
340
11
341
21F
342
21F
343
21F
344
21F
  0
DIMSTYLE
105
240
330
A
100
AcDbSymbolTableRecord
100
AcDbDimStyleTableRecord
  2
DIMSTYLE_4
 70
     0
 41
0.1875
 47
0.1
 48
0.1
 78
     4
140
0.15625
144
4.0
271
     1
272
     1
284
     4
340
11
341
21F
342
21F
343
21F
344
21F
  0
DIMSTYLE
105
241
330
A
100
AcDbSymbolTableRecord
100
AcDbDimStyleTableRecord
  2
DIMSTYLE_5
 70
     0
 41
0.1875
 47
0.001
 48
0.001
 78
     4
140
0.15625
144
4.0
271
     3
272
     3
284
     4
340
11
341
21F
342
21F
343
21F
344
21F
  0
DIMSTYLE
105
242
330
A
100
AcDbSymbolTableRecord
100
AcDbDimStyleTableRecord
  2
DIMSTYLE_6
 70
     0
 41
0.1875
 47
0.01
 48
0.01
 78
     4
140
0.15625
144
4.0
271
     3
272
     3
284
     4
340
11
341
21F
342
21F
343
21F
344
21F
  0
DIMSTYLE
105
243
330
A
100
AcDbSymbolTableRecord
100
AcDbDimStyleTableRecord
  2
DIMSTYLE_7
 70
     0
 41
0.1875
 47
3.0
 48
3.0
 71
     1
 78
     4
140
0.15625
144
4.0
271
     0
272
     0
284
     4
340
11
341
21F
342
21F
343
21F
344
21F
  0
DIMSTYLE
105
244
330
A
100
AcDbSymbolTableRecord
100
AcDbDimStyleTableRecord
  2
DIMSTYLE_8
 70
     0
 41
0.1875
 47
0.1
 48
0.1
 78
     4
140
0.15625
144
4.0
271
     1
272
     1
284
     4
340
11
341
21F
342
21F
343
21F
344
21F
  0
DIMSTYLE
105
245
330
A
100
AcDbSymbolTableRecord
100
AcDbDimStyleTableRecord
  2
DIMSTYLE_9
 70
     0
 41
0.1875
 78
     4
140
0.15625
144
4.0
271
     0
272
     0
284
     4
340
11
341
21F
342
21F
343
21F
344
21F
  0
DIMSTYLE
105
FB2
102
{ACAD_REACTORS
330
10CC
102
}
330
A
100
AcDbSymbolTableRecord
100
AcDbDimStyleTableRecord
  2
AM_ANSI
 70
     0
  4
mm
 41
0.12
 42
0.05
 43
0.5
 44
0.1
 47
0.1
 48
0.1
 78
     7
 79
     2
 90
     1
140
0.12
141
0.0
146
0.71
147
0.06
176
   256
177
   256
178
   140
274
     4
284
     7
340
11
345
14
346
14
347
14
371
    -1
372
    -1
  0
DIMSTYLE
105
FC0
330
A
100
AcDbSymbolTableRecord
100
AcDbDimStyleTableRecord
  2
AM_ANSI$3
 70
     0
  4
mm
 41
0.12
 42
0.05
 43
0.5
 44
0.1
 47
0.1
 48
0.1
 78
     7
 79
     2
 90
     1
140
0.12
141
0.0
146
0.71
147
0.06
176
   256
177
   256
178
   140
274
     4
284
     7
288
     1
289
     0
340
11
345
14
346
14
347
14
371
    -1
372
    -1
  0
DIMSTYLE
105
FC1
330
A
100
AcDbSymbolTableRecord
100
AcDbDimStyleTableRecord
  2
AM_ANSI$4
 70
     0
  4
mm
 41
0.12
 42
0.05
 43
0.5
 44
0.1
 47
0.1
 48
0.1
 78
     7
 79
     2
 90
     1
140
0.12
141
0.0
146
0.71
147
0.06
176
   256
177
   256
178
   140
274
     4
284
     7
340
11
345
14
346
14
347
14
371
    -1
372
    -1
  0
DIMSTYLE
105
FC2
330
A
100
AcDbSymbolTableRecord
100
AcDbDimStyleTableRecord
  2
AM_ANSI$7
 70
     0
  4
mm
 41
0.12
 42
0.05
 43
0.5
 44
0.1
 47
0.1
 48
0.1
 78
     7
 79
     2
 90
     1
140
0.12
141
0.0
146
0.71
147
0.06
176
   256
177
   256
178
   140
274
     4
284
     7
340
11
345
14
346
14
347
14
371
    -1
372
    -1
  0
DIMSTYLE
105
FC3
330
A
100
AcDbSymbolTableRecord
100
AcDbDimStyleTableRecord
  2
AM_ANSI$SF
 70
     0
  4
mm
 41
0.12
 42
0.05
 43
0.5
 44
0.1
 47
0.1
 48
0.1
 75
     1
 76
     1
 78
     7
 79
     2
 90
     1
140
0.12
141
0.0
146
0.71
147
0.06
176
   256
177
   256
178
   140
274
     4
284
     7
340
11
345
14
346
14
347
14
371
    -1
372
    -1
  0
DIMSTYLE
105
FC8
330
A
100
AcDbSymbolTableRecord
100
AcDbDimStyleTableRecord
  2
AM_ANSI$SH
 70
     0
  4
mm
 41
0.12
 42
0.05
 43
0.5
 44
0.1
 47
0.1
 48
0.1
 75
     1
 76
     1
 78
     7
 79
     2
 90
     1
140
0.12
141
0.0
146
0.71
147
0.06
173
     1
176
   256
177
   256
178
   140
274
     4
284
     7
340
11
343
FC4
345
14
346
14
347
14
371
    -1
372
    -1
  0
ENDTAB
  0
TABLE
  2
BLOCK_RECORD
  5
1
330
0
100
AcDbSymbolTable
 70
    29
  0
BLOCK_RECORD
  5
21D
330
1
100
AcDbSymbolTableRecord
100
AcDbBlockTableRecord
  2
*Model_Space
340
EE2
 70
     0
280
     1
281
     0
  0
BLOCK_RECORD
  5
21E
330
1
100
AcDbSymbolTableRecord
100
AcDbBlockTableRecord
  2
*Paper_Space
340
EE3
 70
     0
280
     1
281
     0
  0
BLOCK_RECORD
  5
21F
330
1
100
AcDbSymbolTableRecord
100
AcDbBlockTableRecord
  2
_FILLED
340
0
102
{BLKREFS
331
2D4
331
2D5
331
2DA
331
2DF
331
2E4
331
2E9
331
2EE
331
2F3
331
2F8
331
305
331
30A
331
311
331
312
331
319
331
31A
331
322
331
323
331
32A
331
32B
331
332
331
333
331
33A
331
33B
331
342
331
343
331
34A
331
34B
102
}
 70
     0
280
     1
281
     0
  0
BLOCK_RECORD
  5
220
330
1
100
AcDbSymbolTableRecord
100
AcDbBlockTableRecord
  2
*D1
340
0
 70
     0
280
     1
281
     0
  0
BLOCK_RECORD
  5
221
330
1
100
AcDbSymbolTableRecord
100
AcDbBlockTableRecord
  2
*D2
340
0
 70
     0
280
     1
281
     0
  0
BLOCK_RECORD
  5
222
330
1
100
AcDbSymbolTableRecord
100
AcDbBlockTableRecord
  2
*D3
340
0
 70
     0
280
     1
281
     0
  0
BLOCK_RECORD
  5
223
330
1
100
AcDbSymbolTableRecord
100
AcDbBlockTableRecord
  2
*D4
340
0
 70
     0
280
     1
281
     0
  0
BLOCK_RECORD
  5
224
330
1
100
AcDbSymbolTableRecord
100
AcDbBlockTableRecord
  2
*D5
340
0
 70
     0
280
     1
281
     0
  0
BLOCK_RECORD
  5
225
330
1
100
AcDbSymbolTableRecord
100
AcDbBlockTableRecord
  2
*D6
340
0
 70
     0
280
     1
281
     0
  0
BLOCK_RECORD
  5
226
330
1
100
AcDbSymbolTableRecord
100
AcDbBlockTableRecord
  2
*D7
340
0
 70
     0
280
     1
281
     0
  0
BLOCK_RECORD
  5
227
330
1
100
AcDbSymbolTableRecord
100
AcDbBlockTableRecord
  2
*D8
340
0
 70
     0
280
     1
281
     0
  0
BLOCK_RECORD
  5
228
330
1
100
AcDbSymbolTableRecord
100
AcDbBlockTableRecord
  2
*D9
340
0
 70
     0
280
     1
281
     0
  0
BLOCK_RECORD
  5
229
330
1
100
AcDbSymbolTableRecord
100
AcDbBlockTableRecord
  2
*D10
340
0
 70
     0
280
     1
281
     0
  0
BLOCK_RECORD
  5
22A
330
1
100
AcDbSymbolTableRecord
100
AcDbBlockTableRecord
  2
*D11
340
0
 70
     0
280
     1
281
     0
  0
BLOCK_RECORD
  5
22B
330
1
100
AcDbSymbolTableRecord
100
AcDbBlockTableRecord
  2
*D12
340
0
 70
     0
280
     1
281
     0
  0
BLOCK_RECORD
  5
22C
330
1
100
AcDbSymbolTableRecord
100
AcDbBlockTableRecord
  2
*D13
340
0
 70
     0
280
     1
281
     0
  0
BLOCK_RECORD
  5
22D
330
1
100
AcDbSymbolTableRecord
100
AcDbBlockTableRecord
  2
*D14
340
0
 70
     0
280
     1
281
     0
  0
BLOCK_RECORD
  5
22E
330
1
100
AcDbSymbolTableRecord
100
AcDbBlockTableRecord
  2
*D15
340
0
 70
     0
280
     1
281
     0
  0
BLOCK_RECORD
  5
22F
330
1
100
AcDbSymbolTableRecord
100
AcDbBlockTableRecord
  2
*D16
340
0
 70
     0
280
     1
281
     0
  0
BLOCK_RECORD
  5
230
330
1
100
AcDbSymbolTableRecord
100
AcDbBlockTableRecord
  2
*D17
340
0
 70
     0
280
     1
281
     0
  0
BLOCK_RECORD
  5
231
330
1
100
AcDbSymbolTableRecord
100
AcDbBlockTableRecord
  2
*D18
340
0
 70
     0
280
     1
281
     0
  0
BLOCK_RECORD
  5
232
330
1
100
AcDbSymbolTableRecord
100
AcDbBlockTableRecord
  2
*D19
340
0
 70
     0
280
     1
281
     0
  0
BLOCK_RECORD
  5
233
330
1
100
AcDbSymbolTableRecord
100
AcDbBlockTableRecord
  2
SYMBOL_4_BL6
340
0
 70
     0
280
     1
281
     0
  0
BLOCK_RECORD
  5
234
330
1
100
AcDbSymbolTableRecord
100
AcDbBlockTableRecord
  2
SYMBOL_2_BL5
340
0
 70
     0
280
     1
281
     0
  0
BLOCK_RECORD
  5
235
330
1
100
AcDbSymbolTableRecord
100
AcDbBlockTableRecord
  2
SYMBOL_11_BL4
340
0
 70
     0
280
     1
281
     0
  0
BLOCK_RECORD
  5
236
330
1
100
AcDbSymbolTableRecord
100
AcDbBlockTableRecord
  2
SYMBOL_10_BL3
340
0
 70
     0
280
     1
281
     0
  0
BLOCK_RECORD
  5
237
330
1
100
AcDbSymbolTableRecord
100
AcDbBlockTableRecord
  2
SYMBOL_8_BL2
340
0
 70
     0
280
     1
281
     0
  0
BLOCK_RECORD
  5
238
330
1
100
AcDbSymbolTableRecord
100
AcDbBlockTableRecord
  2
SYMBOL_6_BL1
340
0
 70
     0
280
     1
281
     0
  0
BLOCK_RECORD
  5
239
330
1
100
AcDbSymbolTableRecord
100
AcDbBlockTableRecord
  2
SYMBOL_0_BL0
340
0
 70
     0
280
     1
281
     0
  0
BLOCK_RECORD
  5
FC4
330
1
100
AcDbSymbolTableRecord
100
AcDbBlockTableRecord
  2
GENAXEH
340
0
 70
     0
280
     1
281
     0
  0
ENDTAB
  0
ENDSEC
  0
SECTION
  2
BLOCKS
  0
BLOCK
  5
20
330
21D
100
AcDbEntity
  8
0
100
AcDbBlockBegin
  2
*Model_Space
 70
     0
 10
0.0
 20
0.0
 30
0.0
  3
*Model_Space
  1

  0
ENDBLK
  5
21
330
21D
100
AcDbEntity
  8
0
100
AcDbBlockEnd
  0
BLOCK
  5
1C
330
21E
100
AcDbEntity
 67
     1
  8
0
100
AcDbBlockBegin
  2
*Paper_Space
 70
     0
 10
0.0
 20
0.0
 30
0.0
  3
*Paper_Space
  1

  0
ENDBLK
  5
1D
330
21E
100
AcDbEntity
 67
     1
  8
0
100
AcDbBlockEnd
  0
BLOCK
  5
2CC
330
21F
100
AcDbEntity
  8
0
100
AcDbBlockBegin
  2
_FILLED
 70
     0
 10
0.0
 20
0.0
 30
0.0
  3
_FILLED
  1

  0
SOLID
  5
2CD
330
21F
100
AcDbEntity
  8
0
  6
ByBlock
 62
     0
100
AcDbTrace
 10
0.0
 20
0.0
 30
0.0
 11
-1.0
 21
0.1666666667
 31
0.0
 12
-1.0
 22
-0.1666666667
 32
0.0
 13
-1.0
 23
-0.1666666667
 33
0.0
  0
ENDBLK
  5
2CE
330
21F
100
AcDbEntity
  8
0
  6
ByBlock
 62
     0
100
AcDbBlockEnd
  0
BLOCK
  5
2CF
330
220
100
AcDbEntity
  8
0
  6
Continuous
 62
     2
100
AcDbBlockBegin
  2
*D1
 70
     1
 10
0.0
 20
0.0
 30
0.0
  3
*D1
  1

  0
LINE
  5
2D0
330
220
100
AcDbEntity
  8
0
  6
Continuous
 62
     2
100
AcDbLine
 10
17.2188360791
 20
10.7703933253
 30
0.0
 11
17.2188360791
 21
9.057186064899999
 31
0.0
  0
LINE
  5
2D1
330
220
100
AcDbEntity
  8
0
  6
Continuous
 62
     2
100
AcDbLine
 10
5.506237653899997
 20
10.7552510572
 30
0.0
 11
5.506237653899997
 21
9.057186064899999
 31
0.0
  0
LINE
  5
2D2
330
220
100
AcDbEntity
  8
0
  6
Continuous
 62
     2
100
AcDbLine
 10
17.2188360791
 20
9.182186064899999
 30
0.0
 11
11.2627981025
 21
9.182186064899999
 31
0.0
  0
LINE
  5
2D3
330
220
100
AcDbEntity
  8
0
  6
Continuous
 62
     2
100
AcDbLine
 10
5.506237653899997
 20
9.182186064899999
 30
0.0
 11
10.2992564359
 21
9.182186064899999
 31
0.0
  0
INSERT
  5
2D4
330
220
100
AcDbEntity
  8
0
  6
Continuous
 62
     2
100
AcDbBlockReference
  2
_FILLED
 10
17.2188360791
 20
9.182186064899999
 30
0.0
 41
0.1875
 42
0.1875
 43
0.1875
  0
INSERT
  5
2D5
330
220
100
AcDbEntity
  8
0
  6
Continuous
 62
     2
100
AcDbBlockReference
  2
_FILLED
 10
5.506237653899997
 20
9.182186064899999
 30
0.0
 41
0.1875
 42
0.1875
 43
0.1875
 50
180.0
  0
ENDBLK
  5
2D6
330
220
100
AcDbEntity
  8
0
  6
ByBlock
 62
     0
100
AcDbBlockEnd
  0
BLOCK
  5
2D7
330
221
100
AcDbEntity
  8
0
  6
Continuous
 62
     2
100
AcDbBlockBegin
  2
*D2
 70
     1
 10
0.0
 20
0.0
 30
0.0
  3
*D2
  1

  0
LINE
  5
2D8
330
221
100
AcDbEntity
  8
0
  6
Continuous
 62
     2
100
AcDbLine
 10
12.7625948246
 20
17.8648771801
 30
0.0
 11
12.7950024492
 21
15.8876465121
 31
0.0
  0
LINE
  5
2D9
330
221
100
AcDbEntity
  8
0
  6
Continuous
 62
     2
100
AcDbLine
 10
12.7950024492
 20
15.8876465121
 30
0.0
 11
12.5059531513
 21
15.8876465121
 31
0.0
  0
INSERT
  5
2DA
330
221
100
AcDbEntity
  8
0
  6
Continuous
 62
     2
100
AcDbBlockReference
  2
_FILLED
 10
12.7625948246
 20
17.8648771801
 30
0.0
 41
0.1875
 42
0.1875
 43
0.1875
 50
90.93901733039999
  0
ENDBLK
  5
2DB
330
221
100
AcDbEntity
  8
0
  6
ByBlock
 62
     0
100
AcDbBlockEnd
  0
BLOCK
  5
2DC
330
222
100
AcDbEntity
  8
0
  6
Continuous
 62
     2
100
AcDbBlockBegin
  2
*D3
 70
     1
 10
0.0
 20
0.0
 30
0.0
  3
*D3
  1

  0
LINE
  5
2DD
330
222
100
AcDbEntity
  8
0
  6
Continuous
 62
     2
100
AcDbLine
 10
9.8562307364
 20
12.0433058398
 30
0.0
 11
9.7631241871
 21
10.3529160334
 31
0.0
  0
LINE
  5
2DE
330
222
100
AcDbEntity
  8
0
  6
Continuous
 62
     2
100
AcDbLine
 10
9.7631241871
 20
10.3529160334
 30
0.0
 11
9.5912491871
 21
10.3529160334
 31
0.0
  0
INSERT
  5
2DF
330
222
100
AcDbEntity
  8
0
  6
Continuous
 62
     2
100
AcDbBlockReference
  2
_FILLED
 10
9.8562307364
 20
12.0433058398
 30
0.0
 41
0.1875
 42
0.1875
 43
0.1875
 50
86.8473381769
  0
ENDBLK
  5
2E0
330
222
100
AcDbEntity
  8
0
  6
ByBlock
 62
     0
100
AcDbBlockEnd
  0
BLOCK
  5
2E1
330
223
100
AcDbEntity
  8
0
  6
Continuous
 62
     2
100
AcDbBlockBegin
  2
*D4
 70
     1
 10
0.0
 20
0.0
 30
0.0
  3
*D4
  1

  0
LINE
  5
2E2
330
223
100
AcDbEntity
  8
0
  6
Continuous
 62
     2
100
AcDbLine
 10
10.0484269019
 20
17.2719932626
 30
0.0
 11
10.1141693767
 21
16.0350586984
 31
0.0
  0
LINE
  5
2E3
330
223
100
AcDbEntity
  8
0
  6
Continuous
 62
     2
100
AcDbLine
 10
10.1141693767
 20
16.0350586984
 30
0.0
 11
10.2860443767
 21
16.0350586984
 31
0.0
  0
INSERT
  5
2E4
330
223
100
AcDbEntity
  8
0
  6
Continuous
 62
     2
100
AcDbBlockReference
  2
_FILLED
 10
10.0484269019
 20
17.2719932626
 30
0.0
 41
0.1875
 42
0.1875
 43
0.1875
 50
93.04238039469998
  0
ENDBLK
  5
2E5
330
223
100
AcDbEntity
  8
0
  6
ByBlock
 62
     0
100
AcDbBlockEnd
  0
BLOCK
  5
2E6
330
224
100
AcDbEntity
  8
0
  6
Continuous
 62
     2
100
AcDbBlockBegin
  2
*D5
 70
     1
 10
0.0
 20
0.0
 30
0.0
  3
*D5
  1

  0
LINE
  5
2E7
330
224
100
AcDbEntity
  8
0
  6
Continuous
 62
     2
100
AcDbLine
 10
6.550493147999999
 20
16.7636404757
 30
0.0
 11
5.006604923
 21
17.8786612509
 31
0.0
  0
LINE
  5
2E8
330
224
100
AcDbEntity
  8
0
  6
Continuous
 62
     2
100
AcDbLine
 10
5.006604923
 20
17.8786612509
 30
0.0
 11
4.834729923
 21
17.8786612509
 31
0.0
  0
INSERT
  5
2E9
330
224
100
AcDbEntity
  8
0
  6
Continuous
 62
     2
100
AcDbBlockReference
  2
_FILLED
 10
6.550493147999999
 20
16.7636404757
 30
0.0
 41
0.1875
 42
0.1875
 43
0.1875
 50
324.1625814204
  0
ENDBLK
  5
2EA
330
224
100
AcDbEntity
  8
0
  6
ByBlock
 62
     0
100
AcDbBlockEnd
  0
BLOCK
  5
2EB
330
225
100
AcDbEntity
  8
0
  6
Continuous
 62
     2
100
AcDbBlockBegin
  2
*D6
 70
     1
 10
0.0
 20
0.0
 30
0.0
  3
*D6
  1

  0
LINE
  5
2EC
330
225
100
AcDbEntity
  8
0
  6
Continuous
 62
     2
100
AcDbLine
 10
6.4899829583
 20
12.6404563781
 30
0.0
 11
4.867481730599998
 21
11.8163076985
 31
0.0
  0
LINE
  5
2ED
330
225
100
AcDbEntity
  8
0
  6
Continuous
 62
     2
100
AcDbLine
 10
4.867481730599998
 20
11.8163076985
 30
0.0
 11
4.695606730599998
 21
11.8163076985
 31
0.0
  0
INSERT
  5
2EE
330
225
100
AcDbEntity
  8
0
  6
Continuous
 62
     2
100
AcDbBlockReference
  2
_FILLED
 10
6.4899829583
 20
12.6404563781
 30
0.0
 41
0.1875
 42
0.1875
 43
0.1875
 50
26.9282693561
  0
ENDBLK
  5
2EF
330
225
100
AcDbEntity
  8
0
  6
ByBlock
 62
     0
100
AcDbBlockEnd
  0
BLOCK
  5
2F0
330
226
100
AcDbEntity
  8
0
  6
Continuous
 62
     2
100
AcDbBlockBegin
  2
*D7
 70
     1
 10
0.0
 20
0.0
 30
0.0
  3
*D7
  1

  0
LINE
  5
2F1
330
226
100
AcDbEntity
  8
0
  6
Continuous
 62
     2
100
AcDbLine
 10
6.1411536033
 20
12.0291082756
 30
0.0
 11
4.847218807099999
 21
11.0838581195
 31
0.0
  0
LINE
  5
2F2
330
226
100
AcDbEntity
  8
0
  6
Continuous
 62
     2
100
AcDbLine
 10
4.847218807099999
 20
11.0838581195
 30
0.0
 11
4.675343807099999
 21
11.0838581195
 31
0.0
  0
INSERT
  5
2F3
330
226
100
AcDbEntity
  8
0
  6
Continuous
 62
     2
100
AcDbBlockReference
  2
_FILLED
 10
6.1411536033
 20
12.0291082756
 30
0.0
 41
0.1875
 42
0.1875
 43
0.1875
 50
36.1490172941
  0
ENDBLK
  5
2F4
330
226
100
AcDbEntity
  8
0
  6
ByBlock
 62
     0
100
AcDbBlockEnd
  0
BLOCK
  5
2F5
330
227
100
AcDbEntity
  8
0
  6
Continuous
 62
     2
100
AcDbBlockBegin
  2
*D8
 70
     1
 10
0.0
 20
0.0
 30
0.0
  3
*D8
  1

  0
LINE
  5
2F6
330
227
100
AcDbEntity
  8
0
  6
Continuous
 62
     2
100
AcDbLine
 10
6.228171607999999
 20
17.3751422637
 30
0.0
 11
5.053222445899999
 21
18.6037243652
 31
0.0
  0
LINE
  5
2F7
330
227
100
AcDbEntity
  8
0
  6
Continuous
 62
     2
100
AcDbLine
 10
5.053222445899999
 20
18.6037243652
 30
0.0
 11
4.881347445899999
 21
18.6037243652
 31
0.0
  0
INSERT
  5
2F8
330
227
100
AcDbEntity
  8
0
  6
Continuous
 62
     2
100
AcDbBlockReference
  2
_FILLED
 10
6.228171607999999
 20
17.3751422637
 30
0.0
 41
0.1875
 42
0.1875
 43
0.1875
 50
313.7217011776
  0
ENDBLK
  5
2F9
330
227
100
AcDbEntity
  8
0
  6
ByBlock
 62
     0
100
AcDbBlockEnd
  0
BLOCK
  5
2FA
330
228
100
AcDbEntity
  8
0
  6
Continuous
 62
     2
100
AcDbBlockBegin
  2
*D9
 70
     1
 10
0.0
 20
0.0
 30
0.0
  3
*D9
  1

  0
LINE
  5
2FB
330
228
100
AcDbEntity
  8
0
  6
Continuous
 62
     2
100
AcDbLine
 10
28.1940751086
 20
16.9425177905
 30
0.0
 11
28.1940751086
 21
13.372871507
 31
0.0
  0
LINE
  5
2FC
330
228
100
AcDbEntity
  8
0
  6
Continuous
 62
     2
100
AcDbLine
 10
28.1908041113
 20
16.9426034446
 30
0.0
 11
28.0039832596
 21
13.3778492373
 31
0.0
  0
ARC
  5
2FD
330
228
100
AcDbEntity
  8
0
  6
Continuous
 62
     2
100
AcDbCircle
 10
28.1940751086
 20
17.0050177905
 30
0.0
 40
3.5071462835
100
AcDbArc
 50
270.0
 51
293.0248550326
  0
ARC
  5
2FE
330
228
100
AcDbEntity
  8
0
  6
Continuous
 62
     2
100
AcDbCircle
 10
28.1940751086
 20
17.0050177905
 30
0.0
 40
3.5071462835
100
AcDbArc
 50
258.8315669093
 51
267.0
  0
SOLID
  5
2FF
330
228
100
AcDbEntity
  8
0
  6
Continuous
 62
     2
100
AcDbTrace
 10
28.3806728747
 20
13.5341218337
 30
0.0
 11
28.1940751086
 21
13.497871507
 31
0.0
 12
28.3823433717
 22
13.4716441621
 32
0.0
 13
28.3823433717
 23
13.4716441621
 33
0.0
  0
SOLID
  5
300
330
228
100
AcDbEntity
  8
0
  6
Continuous
 62
     2
100
AcDbTrace
 10
27.821142373
 20
13.4863397275
 30
0.0
 11
28.0105252542
 21
13.5026779291
 31
0.0
 12
27.8260804093
 22
13.5486443485
 32
0.0
 13
27.8260804093
 23
13.5486443485
 33
0.0
  0
ENDBLK
  5
301
330
228
100
AcDbEntity
  8
0
  6
ByBlock
 62
     0
100
AcDbBlockEnd
  0
BLOCK
  5
302
330
229
100
AcDbEntity
  8
0
  6
Continuous
 62
     2
100
AcDbBlockBegin
  2
*D10
 70
     1
 10
0.0
 20
0.0
 30
0.0
  3
*D10
  1

  0
LINE
  5
303
330
229
100
AcDbEntity
  8
0
  6
Continuous
 62
     2
100
AcDbLine
 10
5.561010992099999
 20
11.0162776912
 30
0.0
 11
4.839762075299999
 21
10.2950287744
 31
0.0
  0
LINE
  5
304
330
229
100
AcDbEntity
  8
0
  6
Continuous
 62
     2
100
AcDbLine
 10
4.839762075299999
 20
10.2950287744
 30
0.0
 11
4.667887075299999
 21
10.2950287744
 31
0.0
  0
INSERT
  5
305
330
229
100
AcDbEntity
  8
0
  6
Continuous
 62
     2
100
AcDbBlockReference
  2
_FILLED
 10
5.561010992099999
 20
11.0162776912
 30
0.0
 41
0.1875
 42
0.1875
 43
0.1875
 50
45.0
  0
ENDBLK
  5
306
330
229
100
AcDbEntity
  8
0
  6
ByBlock
 62
     0
100
AcDbBlockEnd
  0
BLOCK
  5
307
330
22A
100
AcDbEntity
  8
0
  6
Continuous
 62
     2
100
AcDbBlockBegin
  2
*D11
 70
     1
 10
0.0
 20
0.0
 30
0.0
  3
*D11
  1

  0
LINE
  5
308
330
22A
100
AcDbEntity
  8
0
  6
Continuous
 62
     2
100
AcDbLine
 10
7.621979340299997
 20
14.4267546052
 30
0.0
 11
7.8702920325
 21
13.8550356069
 31
0.0
  0
LINE
  5
309
330
22A
100
AcDbEntity
  8
0
  6
Continuous
 62
     2
100
AcDbLine
 10
7.8702920325
 20
13.8550356069
 30
0.0
 11
8.015527993600001
 21
13.8550356069
 31
0.0
  0
INSERT
  5
30A
330
22A
100
AcDbEntity
  8
0
  6
Continuous
 62
     2
100
AcDbBlockReference
  2
_FILLED
 10
7.621979340299997
 20
14.4267546052
 30
0.0
 41
0.1875
 42
0.1875
 43
0.1875
 50
113.4765819887
  0
ENDBLK
  5
30B
330
22A
100
AcDbEntity
  8
0
  6
ByBlock
 62
     0
100
AcDbBlockEnd
  0
BLOCK
  5
30C
330
22B
100
AcDbEntity
  8
0
  6
Continuous
 62
     2
100
AcDbBlockBegin
  2
*D12
 70
     1
 10
0.0
 20
0.0
 30
0.0
  3
*D12
  1

  0
LINE
  5
30D
330
22B
100
AcDbEntity
  8
0
  6
Continuous
 62
     2
100
AcDbLine
 10
17.0943282051
 20
18.3433941168
 30
0.0
 11
18.4247133336
 21
18.3433941168
 31
0.0
  0
LINE
  5
30E
330
22B
100
AcDbEntity
  8
0
  6
Continuous
 62
     2
100
AcDbLine
 10
17.0943282051
 20
10.961504353
 30
0.0
 11
18.4247133336
 21
10.961504353
 31
0.0
  0
LINE
  5
30F
330
22B
100
AcDbEntity
  8
0
  6
Continuous
 62
     2
100
AcDbLine
 10
18.2997133336
 20
18.3433941168
 30
0.0
 11
18.2997133336
 21
14.7450082008
 31
0.0
  0
LINE
  5
310
330
22B
100
AcDbEntity
  8
0
  6
Continuous
 62
     2
100
AcDbLine
 10
18.2997133336
 20
10.961504353
 30
0.0
 11
18.2997133336
 21
14.4325082008
 31
0.0
  0
INSERT
  5
311
330
22B
100
AcDbEntity
  8
0
  6
Continuous
 62
     2
100
AcDbBlockReference
  2
_FILLED
 10
18.2997133336
 20
18.3433941168
 30
0.0
 41
0.1875
 42
0.1875
 43
0.1875
 50
90.0
  0
INSERT
  5
312
330
22B
100
AcDbEntity
  8
0
  6
Continuous
 62
     2
100
AcDbBlockReference
  2
_FILLED
 10
18.2997133336
 20
10.961504353
 30
0.0
 41
0.1875
 42
0.1875
 43
0.1875
 50
270.0
  0
ENDBLK
  5
313
330
22B
100
AcDbEntity
  8
0
  6
ByBlock
 62
     0
100
AcDbBlockEnd
  0
BLOCK
  5
314
330
22C
100
AcDbEntity
  8
0
  6
Continuous
 62
     2
100
AcDbBlockBegin
  2
*D13
 70
     1
 10
0.0
 20
0.0
 30
0.0
  3
*D13
  1

  0
LINE
  5
315
330
22C
100
AcDbEntity
  8
0
  6
Continuous
 62
     2
100
AcDbLine
 10
11.3625368665
 20
10.804657129
 30
0.0
 11
11.3625368665
 21
9.514123268099998
 31
0.0
  0
LINE
  5
316
330
22C
100
AcDbEntity
  8
0
  6
Continuous
 62
     2
100
AcDbLine
 10
5.506237653899997
 20
10.7893921915
 30
0.0
 11
5.506237653899997
 21
9.514123268099998
 31
0.0
  0
LINE
  5
317
330
22C
100
AcDbEntity
  8
0
  6
Continuous
 62
     2
100
AcDbLine
 10
11.3625368665
 20
9.639123268099998
 30
0.0
 11
8.437950601499997
 21
9.639123268099998
 31
0.0
  0
LINE
  5
318
330
22C
100
AcDbEntity
  8
0
  6
Continuous
 62
     2
100
AcDbLine
 10
5.506237653899997
 20
9.639123268099998
 30
0.0
 11
7.906700601499997
 21
9.639123268099998
 31
0.0
  0
INSERT
  5
319
330
22C
100
AcDbEntity
  8
0
  6
Continuous
 62
     2
100
AcDbBlockReference
  2
_FILLED
 10
11.3625368665
 20
9.639123268099998
 30
0.0
 41
0.1875
 42
0.1875
 43
0.1875
  0
INSERT
  5
31A
330
22C
100
AcDbEntity
  8
0
  6
Continuous
 62
     2
100
AcDbBlockReference
  2
_FILLED
 10
5.506237653899997
 20
9.639123268099998
 30
0.0
 41
0.1875
 42
0.1875
 43
0.1875
 50
180.0
  0
ENDBLK
  5
31B
330
22C
100
AcDbEntity
  8
0
  6
ByBlock
 62
     0
100
AcDbBlockEnd
  0
BLOCK
  5
31C
330
22D
100
AcDbEntity
  8
0
  6
Continuous
 62
     2
100
AcDbBlockBegin
  2
*D14
 70
     1
 10
0.0
 20
0.0
 30
0.0
  3
*D14
  1

  0
LINE
  5
31D
330
22D
100
AcDbEntity
  8
0
  6
Continuous
 62
     2
100
AcDbLine
 10
23.6111046406
 20
17.4430099165
 30
0.0
 11
23.9231916667
 21
17.4430099165
 31
0.0
  0
LINE
  5
31E
330
22D
100
AcDbEntity
  8
0
  6
Continuous
 62
     2
100
AcDbLine
 10
23.1572039949
 20
17.0049337769
 30
0.0
 11
23.9231916667
 21
17.0049337769
 31
0.0
  0
LINE
  5
31F
330
22D
100
AcDbEntity
  8
0
  6
Continuous
 62
     2
100
AcDbLine
 10
23.7981916667
 20
17.4430099165
 30
0.0
 11
23.7981916667
 21
17.8213627836
 31
0.0
  0
LINE
  5
320
330
22D
100
AcDbEntity
  8
0
  6
Continuous
 62
     2
100
AcDbLine
 10
23.7981916667
 20
17.8213627836
 30
0.0
 11
23.9700666667
 21
17.8213627836
 31
0.0
  0
LINE
  5
321
330
22D
100
AcDbEntity
  8
0
  6
Continuous
 62
     2
100
AcDbLine
 10
23.7981916667
 20
17.0049337769
 30
0.0
 11
23.7981916667
 21
16.5049337769
 31
0.0
  0
INSERT
  5
322
330
22D
100
AcDbEntity
  8
0
  6
Continuous
 62
     2
100
AcDbBlockReference
  2
_FILLED
 10
23.7981916667
 20
17.4430099165
 30
0.0
 41
0.1875
 42
0.1875
 43
0.1875
 50
270.0
  0
INSERT
  5
323
330
22D
100
AcDbEntity
  8
0
  6
Continuous
 62
     2
100
AcDbBlockReference
  2
_FILLED
 10
23.7981916667
 20
17.0049337769
 30
0.0
 41
0.1875
 42
0.1875
 43
0.1875
 50
90.0
  0
ENDBLK
  5
324
330
22D
100
AcDbEntity
  8
0
  6
ByBlock
 62
     0
100
AcDbBlockEnd
  0
BLOCK
  5
325
330
22E
100
AcDbEntity
  8
0
  6
Continuous
 62
     2
100
AcDbBlockBegin
  2
*D15
 70
     1
 10
0.0
 20
0.0
 30
0.0
  3
*D15
  1

  0
LINE
  5
326
330
22E
100
AcDbEntity
  8
0
  6
Continuous
 62
     2
100
AcDbLine
 10
23.0947039949
 20
17.0674337769
 30
0.0
 11
23.0947039949
 21
18.9191297811
 31
0.0
  0
LINE
  5
327
330
22E
100
AcDbEntity
  8
0
  6
Continuous
 62
     2
100
AcDbLine
 10
28.4560398723
 20
17.0674337797
 30
0.0
 11
28.4560398723
 21
18.9191297811
 31
0.0
  0
LINE
  5
328
330
22E
100
AcDbEntity
  8
0
  6
Continuous
 62
     2
100
AcDbLine
 10
23.0947039949
 20
18.7941297811
 30
0.0
 11
25.034263546
 21
18.7941297811
 31
0.0
  0
LINE
  5
329
330
22E
100
AcDbEntity
  8
0
  6
Continuous
 62
     2
100
AcDbLine
 10
28.4560398723
 20
18.7941297811
 30
0.0
 11
25.815513546
 21
18.7941297811
 31
0.0
  0
INSERT
  5
32A
330
22E
100
AcDbEntity
  8
0
  6
Continuous
 62
     2
100
AcDbBlockReference
  2
_FILLED
 10
23.0947039949
 20
18.7941297811
 30
0.0
 41
0.1875
 42
0.1875
 43
0.1875
 50
180.0
  0
INSERT
  5
32B
330
22E
100
AcDbEntity
  8
0
  6
Continuous
 62
     2
100
AcDbBlockReference
  2
_FILLED
 10
28.4560398723
 20
18.7941297811
 30
0.0
 41
0.1875
 42
0.1875
 43
0.1875
  0
ENDBLK
  5
32C
330
22E
100
AcDbEntity
  8
0
  6
ByBlock
 62
     0
100
AcDbBlockEnd
  0
BLOCK
  5
32D
330
22F
100
AcDbEntity
  8
0
  6
Continuous
 62
     2
100
AcDbBlockBegin
  2
*D16
 70
     1
 10
0.0
 20
0.0
 30
0.0
  3
*D16
  1

  0
LINE
  5
32E
330
22F
100
AcDbEntity
  8
0
  6
Continuous
 62
     2
100
AcDbLine
 10
22.5956641558
 20
17.5055099165
 30
0.0
 11
22.5956641558
 21
19.2926252621
 31
0.0
  0
LINE
  5
32F
330
22F
100
AcDbEntity
  8
0
  6
Continuous
 62
     2
100
AcDbLine
 10
28.95507970820001
 20
17.5055099165
 30
0.0
 11
28.95507970820001
 21
19.2926252621
 31
0.0
  0
LINE
  5
330
330
22F
100
AcDbEntity
  8
0
  6
Continuous
 62
     2
100
AcDbLine
 10
22.5956641558
 20
19.1676252621
 30
0.0
 11
25.338653876
 21
19.1676252621
 31
0.0
  0
LINE
  5
331
330
22F
100
AcDbEntity
  8
0
  6
Continuous
 62
     2
100
AcDbLine
 10
28.95507970820001
 20
19.1676252621
 30
0.0
 11
26.119903876
 21
19.1676252621
 31
0.0
  0
INSERT
  5
332
330
22F
100
AcDbEntity
  8
0
  6
Continuous
 62
     2
100
AcDbBlockReference
  2
_FILLED
 10
22.5956641558
 20
19.1676252621
 30
0.0
 41
0.1875
 42
0.1875
 43
0.1875
 50
180.0
  0
INSERT
  5
333
330
22F
100
AcDbEntity
  8
0
  6
Continuous
 62
     2
100
AcDbBlockReference
  2
_FILLED
 10
28.95507970820001
 20
19.1676252621
 30
0.0
 41
0.1875
 42
0.1875
 43
0.1875
  0
ENDBLK
  5
334
330
22F
100
AcDbEntity
  8
0
  6
ByBlock
 62
     0
100
AcDbBlockEnd
  0
BLOCK
  5
335
330
230
100
AcDbEntity
  8
0
  6
Continuous
 62
     2
100
AcDbBlockBegin
  2
*D17
 70
     1
 10
0.0
 20
0.0
 30
0.0
  3
*D17
  1

  0
LINE
  5
336
330
230
100
AcDbEntity
  8
0
  6
Continuous
 62
     2
100
AcDbLine
 10
23.2471171899
 20
15.6252725002
 30
0.0
 11
23.2471171899
 21
18.5804215289
 31
0.0
  0
LINE
  5
337
330
230
100
AcDbEntity
  8
0
  6
Continuous
 62
     2
100
AcDbLine
 10
28.3036265123
 20
15.6252745202
 30
0.0
 11
28.3036265123
 21
18.5804215289
 31
0.0
  0
LINE
  5
338
330
230
100
AcDbEntity
  8
0
  6
Continuous
 62
     2
100
AcDbLine
 10
23.2471171899
 20
18.4554215289
 30
0.0
 11
24.763397946
 21
18.4554215289
 31
0.0
  0
LINE
  5
339
330
230
100
AcDbEntity
  8
0
  6
Continuous
 62
     2
100
AcDbLine
 10
28.3036265123
 20
18.4554215289
 30
0.0
 11
25.544647946
 21
18.4554215289
 31
0.0
  0
INSERT
  5
33A
330
230
100
AcDbEntity
  8
0
  6
Continuous
 62
     2
100
AcDbBlockReference
  2
_FILLED
 10
23.2471171899
 20
18.4554215289
 30
0.0
 41
0.1875
 42
0.1875
 43
0.1875
 50
180.0
  0
INSERT
  5
33B
330
230
100
AcDbEntity
  8
0
  6
Continuous
 62
     2
100
AcDbBlockReference
  2
_FILLED
 10
28.3036265123
 20
18.4554215289
 30
0.0
 41
0.1875
 42
0.1875
 43
0.1875
  0
ENDBLK
  5
33C
330
230
100
AcDbEntity
  8
0
  6
ByBlock
 62
     0
100
AcDbBlockEnd
  0
BLOCK
  5
33D
330
231
100
AcDbEntity
  8
0
  6
Continuous
 62
     2
100
AcDbBlockBegin
  2
*D18
 70
     1
 10
0.0
 20
0.0
 30
0.0
  3
*D18
  1

  0
LINE
  5
33E
330
231
100
AcDbEntity
  8
0
  6
Continuous
 62
     2
100
AcDbLine
 10
23.4322536283
 20
15.6252725003
 30
0.0
 11
23.4322536283
 21
18.2106623295
 31
0.0
  0
LINE
  5
33F
330
231
100
AcDbEntity
  8
0
  6
Continuous
 62
     2
100
AcDbLine
 10
28.1184903416
 20
15.6252745202
 30
0.0
 11
28.1184903416
 21
18.2106623295
 31
0.0
  0
LINE
  5
340
330
231
100
AcDbEntity
  8
0
  6
Continuous
 62
     2
100
AcDbLine
 10
23.4322536283
 20
18.0856623295
 30
0.0
 11
24.4621180354
 21
18.0856623295
 31
0.0
  0
LINE
  5
341
330
231
100
AcDbEntity
  8
0
  6
Continuous
 62
     2
100
AcDbLine
 10
28.1184903416
 20
18.0856623295
 30
0.0
 11
25.2433680354
 21
18.0856623295
 31
0.0
  0
INSERT
  5
342
330
231
100
AcDbEntity
  8
0
  6
Continuous
 62
     2
100
AcDbBlockReference
  2
_FILLED
 10
23.4322536283
 20
18.0856623295
 30
0.0
 41
0.1875
 42
0.1875
 43
0.1875
 50
180.0
  0
INSERT
  5
343
330
231
100
AcDbEntity
  8
0
  6
Continuous
 62
     2
100
AcDbBlockReference
  2
_FILLED
 10
28.1184903416
 20
18.0856623295
 30
0.0
 41
0.1875
 42
0.1875
 43
0.1875
  0
ENDBLK
  5
344
330
231
100
AcDbEntity
  8
0
  6
ByBlock
 62
     0
100
AcDbBlockEnd
  0
BLOCK
  5
345
330
232
100
AcDbEntity
  8
0
  6
Continuous
 62
     2
100
AcDbBlockBegin
  2
*D19
 70
     1
 10
0.0
 20
0.0
 30
0.0
  3
*D19
  1

  0
LINE
  5
346
330
232
100
AcDbEntity
  8
0
  6
Continuous
 62
     2
100
AcDbLine
 10
27.9722909082
 20
12.7106231478
 30
0.0
 11
27.9722909082
 21
11.4535339648
 31
0.0
  0
LINE
  5
347
330
232
100
AcDbEntity
  8
0
  6
Continuous
 62
     2
100
AcDbLine
 10
23.5784529558
 20
12.7106231478
 30
0.0
 11
23.5784529558
 21
11.4535339648
 31
0.0
  0
LINE
  5
348
330
232
100
AcDbEntity
  8
0
  6
Continuous
 62
     2
100
AcDbLine
 10
27.9722909082
 20
11.5785339648
 30
0.0
 11
26.0605129776
 21
11.5785339648
 31
0.0
  0
LINE
  5
349
330
232
100
AcDbEntity
  8
0
  6
Continuous
 62
     2
100
AcDbLine
 10
23.5784529558
 20
11.5785339648
 30
0.0
 11
25.5292629776
 21
11.5785339648
 31
0.0
  0
INSERT
  5
34A
330
232
100
AcDbEntity
  8
0
  6
Continuous
 62
     2
100
AcDbBlockReference
  2
_FILLED
 10
27.9722909082
 20
11.5785339648
 30
0.0
 41
0.1875
 42
0.1875
 43
0.1875
  0
INSERT
  5
34B
330
232
100
AcDbEntity
  8
0
  6
Continuous
 62
     2
100
AcDbBlockReference
  2
_FILLED
 10
23.5784529558
 20
11.5785339648
 30
0.0
 41
0.1875
 42
0.1875
 43
0.1875
 50
180.0
  0
ENDBLK
  5
34C
330
232
100
AcDbEntity
  8
0
  6
ByBlock
 62
     0
100
AcDbBlockEnd
  0
BLOCK
  5
246
330
233
100
AcDbEntity
  8
___SYMBOL
  6
Continuous
 62
     2
100
AcDbBlockBegin
  2
SYMBOL_4_BL6
 70
     0
 10
18.8844190732
 20
14.5659489336
 30
0.0
  3
SYMBOL_4_BL6
  1

  0
LWPOLYLINE
  5
247
330
233
100
AcDbEntity
  8
___SYMBOL
  6
Continuous
 62
     2
100
AcDbPolyline
 90
       13
 70
     0
 43
0.015
 10
18.850364502
 20
14.7573112793
 10
18.8581755371
 20
14.7703310547
 10
18.8738017578
 20
14.7833529053
 10
18.8894259033
 20
14.7833529053
 10
18.905052124
 20
14.7703310547
 10
18.9128631592
 20
14.7573112793
 10
18.9128631592
 20
14.7312696533
 10
18.905052124
 20
14.7182478027
 10
18.8894259033
 20
14.7052280273
 10
18.8738017578
 20
14.6922061768
 10
18.8581755371
 20
14.6661645508
 10
18.850364502
 20
14.6271031494
 10
18.9128631592
 20
14.6271031494
  0
LINE
  5
248
330
233
100
AcDbEntity
  8
___SYMBOL
  6
Continuous
 62
     7
100
AcDbLine
 10
18.7494189875
 20
14.8359491049
 30
0.0
 11
18.7494189875
 21
14.2959487624
 31
0.0
  0
LINE
  5
249
330
233
100
AcDbEntity
  8
___SYMBOL
  6
Continuous
 62
     7
100
AcDbLine
 10
18.7494189875
 20
14.2959487624
 30
0.0
 11
19.0194191588
 21
14.2959487624
 31
0.0
  0
LINE
  5
24A
330
233
100
AcDbEntity
  8
___SYMBOL
  6
Continuous
 62
     7
100
AcDbLine
 10
18.7494189875
 20
14.5659489336
 30
0.0
 11
19.0194191588
 21
14.5659489336
 31
0.0
  0
LINE
  5
24B
330
233
100
AcDbEntity
  8
___SYMBOL
  6
Continuous
 62
     7
100
AcDbLine
 10
18.7494189875
 20
14.8359491049
 30
0.0
 11
19.0194191588
 21
14.8359491049
 31
0.0
  0
LINE
  5
24C
330
233
100
AcDbEntity
  8
___SYMBOL
  6
Continuous
 62
     7
100
AcDbLine
 10
19.0194191588
 20
14.2959487624
 30
0.0
 11
19.0194191588
 21
14.8359491049
 31
0.0
  0
ENDBLK
  5
24D
330
233
100
AcDbEntity
  8
0
  6
ByBlock
 62
     0
100
AcDbBlockEnd
  0
BLOCK
  5
24E
330
234
100
AcDbEntity
  8
___SYMBOL
  6
Continuous
 62
     2
100
AcDbBlockBegin
  2
SYMBOL_2_BL5
 70
     0
 10
11.3870367101
 20
9.1752039947
 30
0.0
  3
SYMBOL_2_BL5
  1

  0
LWPOLYLINE
  5
24F
330
234
100
AcDbEntity
  8
___SYMBOL
  6
Continuous
 62
     2
100
AcDbPolyline
 90
        2
 70
     0
 43
0.015
 10
11.384230957
 20
9.392607665999999
 10
11.384230957
 20
9.2363579102
  0
LINE
  5
250
330
234
100
AcDbEntity
  8
___SYMBOL
  6
Continuous
 62
     7
100
AcDbLine
 10
11.2520366245
 20
9.445204165899999
 30
0.0
 11
11.2520366245
 21
8.9052038234
 31
0.0
  0
LINE
  5
251
330
234
100
AcDbEntity
  8
___SYMBOL
  6
Continuous
 62
     7
100
AcDbLine
 10
11.2520366245
 20
8.9052038234
 30
0.0
 11
11.5220367957
 21
8.9052038234
 31
0.0
  0
LINE
  5
252
330
234
100
AcDbEntity
  8
___SYMBOL
  6
Continuous
 62
     7
100
AcDbLine
 10
11.2520366245
 20
9.1752039947
 30
0.0
 11
11.5220367957
 21
9.1752039947
 31
0.0
  0
LINE
  5
253
330
234
100
AcDbEntity
  8
___SYMBOL
  6
Continuous
 62
     7
100
AcDbLine
 10
11.2520366245
 20
9.445204165899999
 30
0.0
 11
11.5220367957
 21
9.445204165899999
 31
0.0
  0
LINE
  5
254
330
234
100
AcDbEntity
  8
___SYMBOL
  6
Continuous
 62
     7
100
AcDbLine
 10
11.5220367957
 20
8.9052038234
 30
0.0
 11
11.5220367957
 21
9.445204165899999
 31
0.0
  0
ENDBLK
  5
255
330
234
100
AcDbEntity
  8
0
  6
ByBlock
 62
     0
100
AcDbBlockEnd
  0
BLOCK
  5
256
330
235
100
AcDbEntity
  8
0
  6
Continuous
 62
     2
100
AcDbBlockBegin
  2
SYMBOL_11_BL4
 70
     0
 10
33.6875
 20
11.0
 30
0.0
  3
SYMBOL_11_BL4
  1

  0
LINE
  5
257
330
235
100
AcDbEntity
  8
0
  6
Continuous
 62
    30
420
 16744192
100
AcDbLine
 10
33.5
 20
11.0
 30
0.0
 11
33.6875
 21
10.90625
 31
0.0
  0
LINE
  5
258
330
235
100
AcDbEntity
  8
0
  6
Continuous
 62
    30
420
 16744192
100
AcDbLine
 10
33.5
 20
11.0
 30
0.0
 11
33.6875
 21
11.09375
 31
0.0
  0
LINE
  5
259
330
235
100
AcDbEntity
  8
0
  6
Continuous
 62
    30
420
 16744192
100
AcDbLine
 10
33.6875
 20
11.0234375
 30
0.0
 11
33.6875
 21
11.09375
 31
0.0
  0
LINE
  5
25A
330
235
100
AcDbEntity
  8
0
  6
Continuous
 62
    30
420
 16744192
100
AcDbLine
 10
33.875
 20
11.0234375
 30
0.0
 11
33.6875
 21
11.0234375
 31
0.0
  0
LINE
  5
25B
330
235
100
AcDbEntity
  8
0
  6
Continuous
 62
    30
420
 16744192
100
AcDbLine
 10
33.875
 20
11.0234375
 30
0.0
 11
33.875
 21
10.9765625
 31
0.0
  0
LINE
  5
25C
330
235
100
AcDbEntity
  8
0
  6
Continuous
 62
    30
420
 16744192
100
AcDbLine
 10
33.6875
 20
10.9765625
 30
0.0
 11
33.875
 21
10.9765625
 31
0.0
  0
LINE
  5
25D
330
235
100
AcDbEntity
  8
0
  6
Continuous
 62
    30
420
 16744192
100
AcDbLine
 10
33.6875
 20
10.90625
 30
0.0
 11
33.6875
 21
10.9765625
 31
0.0
  0
LWPOLYLINE
  5
25E
330
235
100
AcDbEntity
  8
0
  6
Continuous
 62
     7
100
AcDbPolyline
 90
        8
 70
     0
 43
0.0
 10
33.5
 20
11.0
 10
33.6875
 20
11.09375
 10
33.6875
 20
11.0234375
 10
33.875
 20
11.0234375
 10
33.875
 20
10.9765625
 10
33.6875
 20
10.9765625
 10
33.6875
 20
10.90625
 10
33.5
 20
11.0
  0
HATCH
  5
25F
330
235
100
AcDbEntity
  8
0
  6
Continuous
 62
     7
100
AcDbHatch
 10
0.0
 20
0.0
 30
0.0
210
0.0
220
0.0
230
1.0
  2
SOLID
 70
     1
 71
     1
 91
        1
 92
        1
 93
        7
 72
     1
 10
33.5
 20
11.0
 11
33.6875
 21
11.09375
 72
     1
 10
33.6875
 20
11.09375
 11
33.6875
 21
11.0234375
 72
     1
 10
33.6875
 20
11.0234375
 11
33.875
 21
11.0234375
 72
     1
 10
33.875
 20
11.0234375
 11
33.875
 21
10.9765625
 72
     1
 10
33.875
 20
10.9765625
 11
33.6875
 21
10.9765625
 72
     1
 10
33.6875
 20
10.9765625
 11
33.6875
 21
10.90625
 72
     1
 10
33.6875
 20
10.90625
 11
33.5
 21
11.0
 97
        1
330
25E
 75
     0
 76
     1
 98
        1
 10
0.0
 20
0.0
450
        0
451
        0
460
0.0
461
0.0
452
        0
462
0.0
453
        0
470

  0
ENDBLK
  5
260
330
235
100
AcDbEntity
  8
0
  6
ByBlock
 62
     0
100
AcDbBlockEnd
  0
BLOCK
  5
261
330
236
100
AcDbEntity
  8
0
  6
Continuous
 62
     2
100
AcDbBlockBegin
  2
SYMBOL_10_BL3
 70
     0
 10
0.3125
 20
11.0
 30
0.0
  3
SYMBOL_10_BL3
  1

  0
LINE
  5
262
330
236
100
AcDbEntity
  8
0
  6
Continuous
 62
    30
420
 16744192
100
AcDbLine
 10
0.5
 20
11.0
 30
0.0
 11
0.3125
 21
11.09375
 31
0.0
  0
LINE
  5
263
330
236
100
AcDbEntity
  8
0
  6
Continuous
 62
    30
420
 16744192
100
AcDbLine
 10
0.5
 20
11.0
 30
0.0
 11
0.3125
 21
10.90625
 31
0.0
  0
LINE
  5
264
330
236
100
AcDbEntity
  8
0
  6
Continuous
 62
    30
420
 16744192
100
AcDbLine
 10
0.3125
 20
10.9765625
 30
0.0
 11
0.3125
 21
10.90625
 31
0.0
  0
LINE
  5
265
330
236
100
AcDbEntity
  8
0
  6
Continuous
 62
    30
420
 16744192
100
AcDbLine
 10
0.125
 20
10.9765625
 30
0.0
 11
0.3125
 21
10.9765625
 31
0.0
  0
LINE
  5
266
330
236
100
AcDbEntity
  8
0
  6
Continuous
 62
    30
420
 16744192
100
AcDbLine
 10
0.125
 20
10.9765625
 30
0.0
 11
0.125
 21
11.0234375
 31
0.0
  0
LINE
  5
267
330
236
100
AcDbEntity
  8
0
  6
Continuous
 62
    30
420
 16744192
100
AcDbLine
 10
0.3125
 20
11.0234375
 30
0.0
 11
0.125
 21
11.0234375
 31
0.0
  0
LINE
  5
268
330
236
100
AcDbEntity
  8
0
  6
Continuous
 62
    30
420
 16744192
100
AcDbLine
 10
0.3125
 20
11.09375
 30
0.0
 11
0.3125
 21
11.0234375
 31
0.0
  0
LWPOLYLINE
  5
269
330
236
100
AcDbEntity
  8
0
  6
Continuous
 62
     7
100
AcDbPolyline
 90
        8
 70
     0
 43
0.0
 10
0.5
 20
11.0
 10
0.3125
 20
10.90625
 10
0.3125
 20
10.9765625
 10
0.125
 20
10.9765625
 10
0.125
 20
11.0234375
 10
0.3125
 20
11.0234375
 10
0.3125
 20
11.09375
 10
0.5
 20
11.0
  0
HATCH
  5
26A
330
236
100
AcDbEntity
  8
0
  6
Continuous
 62
     7
100
AcDbHatch
 10
0.0
 20
0.0
 30
0.0
210
0.0
220
0.0
230
1.0
  2
SOLID
 70
     1
 71
     1
 91
        1
 92
        1
 93
        7
 72
     1
 10
0.5
 20
11.0
 11
0.3125
 21
10.90625
 72
     1
 10
0.3125
 20
10.90625
 11
0.3125
 21
10.9765625
 72
     1
 10
0.3125
 20
10.9765625
 11
0.125
 21
10.9765625
 72
     1
 10
0.125
 20
10.9765625
 11
0.125
 21
11.0234375
 72
     1
 10
0.125
 20
11.0234375
 11
0.3125
 21
11.0234375
 72
     1
 10
0.3125
 20
11.0234375
 11
0.3125
 21
11.09375
 72
     1
 10
0.3125
 20
11.09375
 11
0.5
 21
11.0
 97
        1
330
269
 75
     0
 76
     1
 98
        1
 10
0.0
 20
0.0
450
        0
451
        0
460
0.0
461
0.0
452
        0
462
0.0
453
        0
470

  0
ENDBLK
  5
26B
330
236
100
AcDbEntity
  8
0
  6
ByBlock
 62
     0
100
AcDbBlockEnd
  0
BLOCK
  5
26C
330
237
100
AcDbEntity
  8
0
  6
Continuous
 62
     2
100
AcDbBlockBegin
  2
SYMBOL_8_BL2
 70
     0
 10
17.0
 20
21.6875
 30
0.0
  3
SYMBOL_8_BL2
  1

  0
LINE
  5
26D
330
237
100
AcDbEntity
  8
0
  6
Continuous
 62
    30
420
 16744192
100
AcDbLine
 10
17.0
 20
21.5
 30
0.0
 11
17.09375
 21
21.6875
 31
0.0
  0
LINE
  5
26E
330
237
100
AcDbEntity
  8
0
  6
Continuous
 62
    30
420
 16744192
100
AcDbLine
 10
17.0
 20
21.5
 30
0.0
 11
16.90625
 21
21.6875
 31
0.0
  0
LINE
  5
26F
330
237
100
AcDbEntity
  8
0
  6
Continuous
 62
    30
420
 16744192
100
AcDbLine
 10
16.9765625
 20
21.6875
 30
0.0
 11
16.90625
 21
21.6875
 31
0.0
  0
LINE
  5
270
330
237
100
AcDbEntity
  8
0
  6
Continuous
 62
    30
420
 16744192
100
AcDbLine
 10
16.9765625
 20
21.875
 30
0.0
 11
16.9765625
 21
21.6875
 31
0.0
  0
LINE
  5
271
330
237
100
AcDbEntity
  8
0
  6
Continuous
 62
    30
420
 16744192
100
AcDbLine
 10
16.9765625
 20
21.875
 30
0.0
 11
17.0234375
 21
21.875
 31
0.0
  0
LINE
  5
272
330
237
100
AcDbEntity
  8
0
  6
Continuous
 62
    30
420
 16744192
100
AcDbLine
 10
17.0234375
 20
21.6875
 30
0.0
 11
17.0234375
 21
21.875
 31
0.0
  0
LINE
  5
273
330
237
100
AcDbEntity
  8
0
  6
Continuous
 62
    30
420
 16744192
100
AcDbLine
 10
17.09375
 20
21.6875
 30
0.0
 11
17.0234375
 21
21.6875
 31
0.0
  0
LWPOLYLINE
  5
274
330
237
100
AcDbEntity
  8
0
  6
Continuous
 62
     7
100
AcDbPolyline
 90
        8
 70
     0
 43
0.0
 10
17.0
 20
21.5
 10
16.90625
 20
21.6875
 10
16.9765625
 20
21.6875
 10
16.9765625
 20
21.875
 10
17.0234375
 20
21.875
 10
17.0234375
 20
21.6875
 10
17.09375
 20
21.6875
 10
17.0
 20
21.5
  0
HATCH
  5
275
330
237
100
AcDbEntity
  8
0
  6
Continuous
 62
     7
100
AcDbHatch
 10
0.0
 20
0.0
 30
0.0
210
0.0
220
0.0
230
1.0
  2
SOLID
 70
     1
 71
     1
 91
        1
 92
        1
 93
        7
 72
     1
 10
17.0
 20
21.5
 11
16.90625
 21
21.6875
 72
     1
 10
16.90625
 20
21.6875
 11
16.9765625
 21
21.6875
 72
     1
 10
16.9765625
 20
21.6875
 11
16.9765625
 21
21.875
 72
     1
 10
16.9765625
 20
21.875
 11
17.0234375
 21
21.875
 72
     1
 10
17.0234375
 20
21.875
 11
17.0234375
 21
21.6875
 72
     1
 10
17.0234375
 20
21.6875
 11
17.09375
 21
21.6875
 72
     1
 10
17.09375
 20
21.6875
 11
17.0
 21
21.5
 97
        1
330
274
 75
     0
 76
     1
 98
        1
 10
0.0
 20
0.0
450
        0
451
        0
460
0.0
461
0.0
452
        0
462
0.0
453
        0
470

  0
ENDBLK
  5
276
330
237
100
AcDbEntity
  8
0
  6
ByBlock
 62
     0
100
AcDbBlockEnd
  0
BLOCK
  5
277
330
238
100
AcDbEntity
  8
0
  6
Continuous
 62
     2
100
AcDbBlockBegin
  2
SYMBOL_6_BL1
 70
     0
 10
17.0
 20
0.3125
 30
0.0
  3
SYMBOL_6_BL1
  1

  0
LINE
  5
278
330
238
100
AcDbEntity
  8
0
  6
Continuous
 62
    30
420
 16744192
100
AcDbLine
 10
17.0
 20
0.5
 30
0.0
 11
16.90625
 21
0.3125
 31
0.0
  0
LINE
  5
279
330
238
100
AcDbEntity
  8
0
  6
Continuous
 62
    30
420
 16744192
100
AcDbLine
 10
17.0
 20
0.5
 30
0.0
 11
17.09375
 21
0.3125
 31
0.0
  0
LINE
  5
27A
330
238
100
AcDbEntity
  8
0
  6
Continuous
 62
    30
420
 16744192
100
AcDbLine
 10
17.0234375
 20
0.3125
 30
0.0
 11
17.09375
 21
0.3125
 31
0.0
  0
LINE
  5
27B
330
238
100
AcDbEntity
  8
0
  6
Continuous
 62
    30
420
 16744192
100
AcDbLine
 10
17.0234375
 20
0.125
 30
0.0
 11
17.0234375
 21
0.3125
 31
0.0
  0
LINE
  5
27C
330
238
100
AcDbEntity
  8
0
  6
Continuous
 62
    30
420
 16744192
100
AcDbLine
 10
17.0234375
 20
0.125
 30
0.0
 11
16.9765625
 21
0.125
 31
0.0
  0
LINE
  5
27D
330
238
100
AcDbEntity
  8
0
  6
Continuous
 62
    30
420
 16744192
100
AcDbLine
 10
16.9765625
 20
0.3125
 30
0.0
 11
16.9765625
 21
0.125
 31
0.0
  0
LINE
  5
27E
330
238
100
AcDbEntity
  8
0
  6
Continuous
 62
    30
420
 16744192
100
AcDbLine
 10
16.90625
 20
0.3125
 30
0.0
 11
16.9765625
 21
0.3125
 31
0.0
  0
LWPOLYLINE
  5
27F
330
238
100
AcDbEntity
  8
0
  6
Continuous
 62
     7
100
AcDbPolyline
 90
        8
 70
     0
 43
0.0
 10
17.0
 20
0.5
 10
17.09375
 20
0.3125
 10
17.0234375
 20
0.3125
 10
17.0234375
 20
0.125
 10
16.9765625
 20
0.125
 10
16.9765625
 20
0.3125
 10
16.90625
 20
0.3125
 10
17.0
 20
0.5
  0
HATCH
  5
280
330
238
100
AcDbEntity
  8
0
  6
Continuous
 62
     7
100
AcDbHatch
 10
0.0
 20
0.0
 30
0.0
210
0.0
220
0.0
230
1.0
  2
SOLID
 70
     1
 71
     1
 91
        1
 92
        1
 93
        7
 72
     1
 10
17.0
 20
0.5
 11
17.09375
 21
0.3125
 72
     1
 10
17.09375
 20
0.3125
 11
17.0234375
 21
0.3125
 72
     1
 10
17.0234375
 20
0.3125
 11
17.0234375
 21
0.125
 72
     1
 10
17.0234375
 20
0.125
 11
16.9765625
 21
0.125
 72
     1
 10
16.9765625
 20
0.125
 11
16.9765625
 21
0.3125
 72
     1
 10
16.9765625
 20
0.3125
 11
16.90625
 21
0.3125
 72
     1
 10
16.90625
 20
0.3125
 11
17.0
 21
0.5
 97
        1
330
27F
 75
     0
 76
     1
 98
        1
 10
0.0
 20
0.0
450
        0
451
        0
460
0.0
461
0.0
452
        0
462
0.0
453
        0
470

  0
ENDBLK
  5
281
330
238
100
AcDbEntity
  8
0
  6
ByBlock
 62
     0
100
AcDbBlockEnd
  0
BLOCK
  5
282
330
239
100
AcDbEntity
  8
0
  6
Continuous
 62
     2
100
AcDbBlockBegin
  2
SYMBOL_0_BL0
 70
     0
 10
30.1873715
 20
2.174145999999999
 30
0.0
  3
SYMBOL_0_BL0
  1

  0
ARC
  5
283
330
239
100
AcDbEntity
  8
0
  6
Continuous
 62
     2
100
AcDbCircle
 10
30.753184
 20
2.22961475
 30
0.0
 40
0.03065625
100
AcDbArc
 50
270.0
 51
90.0
  0
LINE
  5
284
330
239
100
AcDbEntity
  8
0
  6
Continuous
 62
     2
100
AcDbLine
 10
29.503184
 20
2.033520999999999
 30
0.0
 11
29.503184
 21
2.314770999999999
 31
0.0
  0
LINE
  5
285
330
239
100
AcDbEntity
  8
0
  6
Continuous
 62
     2
100
AcDbLine
 10
29.503184
 20
2.314770999999999
 30
0.0
 11
29.570184
 21
2.314770999999999
 31
0.0
  0
LINE
  5
286
330
239
100
AcDbEntity
  8
0
  6
Continuous
 62
     2
100
AcDbLine
 10
29.503184
 20
2.033520999999999
 30
0.0
 11
29.570184
 21
2.033520999999999
 31
0.0
  0
LINE
  5
287
330
239
100
AcDbEntity
  8
0
  6
Continuous
 62
     2
100
AcDbLine
 10
29.753184
 20
2.314770999999999
 30
0.0
 11
29.628184
 21
2.189770999999999
 31
0.0
  0
LINE
  5
288
330
239
100
AcDbEntity
  8
0
  6
Continuous
 62
     2
100
AcDbLine
 10
29.628184
 20
2.189770999999999
 30
0.0
 11
29.753184
 21
2.033520999999999
 31
0.0
  0
CIRCLE
  5
289
330
239
100
AcDbEntity
  8
0
  6
Continuous
 62
     2
100
AcDbCircle
 10
29.862559
 20
2.174145999999999
 30
0.0
 40
0.073625
  0
LINE
  5
28A
330
239
100
AcDbEntity
  8
0
  6
Continuous
 62
     2
100
AcDbLine
 10
29.6673821352
 20
2.033520999999999
 30
0.0
 11
29.753184
 21
2.033520999999999
 31
0.0
  0
CIRCLE
  5
28B
330
239
100
AcDbEntity
  8
0
  6
Continuous
 62
     2
100
AcDbCircle
 10
29.862559
 20
2.174145999999999
 30
0.0
 40
0.140625
  0
LINE
  5
28C
330
239
100
AcDbEntity
  8
0
  6
Continuous
 62
     2
100
AcDbLine
 10
29.570184
 20
2.033520999999999
 30
0.0
 11
29.570184
 21
2.155018668999999
 31
0.0
  0
LINE
  5
28D
330
239
100
AcDbEntity
  8
0
  6
Continuous
 62
     2
100
AcDbLine
 10
29.6584316913
 20
2.314770999999999
 30
0.0
 11
29.570184
 21
2.2265233087
 31
0.0
  0
LINE
  5
28E
330
239
100
AcDbEntity
  8
0
  6
Continuous
 62
     2
100
AcDbLine
 10
29.570184
 20
2.155018668999999
 30
0.0
 11
29.6673821352
 21
2.033520999999999
 31
0.0
  0
LINE
  5
28F
330
239
100
AcDbEntity
  8
0
  6
Continuous
 62
     2
100
AcDbLine
 10
29.6584316913
 20
2.314770999999999
 30
0.0
 11
29.753184
 21
2.314770999999999
 31
0.0
  0
LINE
  5
290
330
239
100
AcDbEntity
  8
0
  6
Continuous
 62
     2
100
AcDbLine
 10
29.570184
 20
2.314770999999999
 30
0.0
 11
29.570184
 21
2.2265233087
 31
0.0
  0
LINE
  5
291
330
239
100
AcDbEntity
  8
0
  6
Continuous
 62
     2
100
AcDbLine
 10
30.034434
 20
2.314770999999999
 30
0.0
 11
30.034434
 21
2.033520999999999
 31
0.0
  0
LINE
  5
292
330
239
100
AcDbEntity
  8
0
  6
Continuous
 62
     2
100
AcDbLine
 10
30.101434
 20
2.033520999999999
 30
0.0
 11
30.101434
 21
2.156270999999998
 31
0.0
  0
LINE
  5
293
330
239
100
AcDbEntity
  8
0
  6
Continuous
 62
     2
100
AcDbLine
 10
30.101434
 20
2.223270999999999
 30
0.0
 11
30.101434
 21
2.314770999999999
 31
0.0
  0
LINE
  5
294
330
239
100
AcDbEntity
  8
0
  6
Continuous
 62
     2
100
AcDbLine
 10
30.179559
 20
2.033520999999999
 30
0.0
 11
30.179559
 21
2.156270999999998
 31
0.0
  0
LINE
  5
295
330
239
100
AcDbEntity
  8
0
  6
Continuous
 62
     2
100
AcDbLine
 10
30.179559
 20
2.223270999999999
 30
0.0
 11
30.179559
 21
2.314770999999999
 31
0.0
  0
LINE
  5
296
330
239
100
AcDbEntity
  8
0
  6
Continuous
 62
     2
100
AcDbLine
 10
30.246559
 20
2.314770999999999
 30
0.0
 11
30.246559
 21
2.033520999999999
 31
0.0
  0
LINE
  5
297
330
239
100
AcDbEntity
  8
0
  6
Continuous
 62
     2
100
AcDbLine
 10
30.101434
 20
2.223270999999999
 30
0.0
 11
30.179559
 21
2.223270999999999
 31
0.0
  0
LINE
  5
298
330
239
100
AcDbEntity
  8
0
  6
Continuous
 62
     2
100
AcDbLine
 10
30.101434
 20
2.156270999999998
 30
0.0
 11
30.179559
 21
2.156270999999998
 31
0.0
  0
LINE
  5
299
330
239
100
AcDbEntity
  8
0
  6
Continuous
 62
     2
100
AcDbLine
 10
30.179559
 20
2.033520999999999
 30
0.0
 11
30.246559
 21
2.033520999999999
 31
0.0
  0
LINE
  5
29A
330
239
100
AcDbEntity
  8
0
  6
Continuous
 62
     2
100
AcDbLine
 10
30.034434
 20
2.033520999999999
 30
0.0
 11
30.101434
 21
2.033520999999999
 31
0.0
  0
LINE
  5
29B
330
239
100
AcDbEntity
  8
0
  6
Continuous
 62
     2
100
AcDbLine
 10
30.179559
 20
2.314770999999999
 30
0.0
 11
30.246559
 21
2.314770999999999
 31
0.0
  0
LINE
  5
29C
330
239
100
AcDbEntity
  8
0
  6
Continuous
 62
     2
100
AcDbLine
 10
30.034434
 20
2.314770999999999
 30
0.0
 11
30.101434
 21
2.314770999999999
 31
0.0
  0
LINE
  5
29D
330
239
100
AcDbEntity
  8
0
  6
Continuous
 62
     2
100
AcDbLine
 10
30.277809
 20
2.314770999999999
 30
0.0
 11
30.277809
 21
2.033520999999999
 31
0.0
  0
LINE
  5
29E
330
239
100
AcDbEntity
  8
0
  6
Continuous
 62
     2
100
AcDbLine
 10
30.434059
 20
2.100521
 30
0.0
 11
30.434059
 21
2.033520999999999
 31
0.0
  0
LINE
  5
29F
330
239
100
AcDbEntity
  8
0
  6
Continuous
 62
     2
100
AcDbLine
 10
30.277809
 20
2.033520999999999
 30
0.0
 11
30.434059
 21
2.033520999999999
 31
0.0
  0
LINE
  5
2A0
330
239
100
AcDbEntity
  8
0
  6
Continuous
 62
     2
100
AcDbLine
 10
30.344809
 20
2.100521
 30
0.0
 11
30.344809
 21
2.314770999999999
 31
0.0
  0
LINE
  5
2A1
330
239
100
AcDbEntity
  8
0
  6
Continuous
 62
     2
100
AcDbLine
 10
30.344809
 20
2.100521
 30
0.0
 11
30.434059
 21
2.100521
 31
0.0
  0
LINE
  5
2A2
330
239
100
AcDbEntity
  8
0
  6
Continuous
 62
     2
100
AcDbLine
 10
30.277809
 20
2.314770999999999
 30
0.0
 11
30.344809
 21
2.314770999999999
 31
0.0
  0
LINE
  5
2A3
330
239
100
AcDbEntity
  8
0
  6
Continuous
 62
     2
100
AcDbLine
 10
30.465309
 20
2.033520999999999
 30
0.0
 11
30.621559
 21
2.033520999999999
 31
0.0
  0
LINE
  5
2A4
330
239
100
AcDbEntity
  8
0
  6
Continuous
 62
     2
100
AcDbLine
 10
30.621559
 20
2.100521
 30
0.0
 11
30.621559
 21
2.033520999999999
 31
0.0
  0
LINE
  5
2A5
330
239
100
AcDbEntity
  8
0
  6
Continuous
 62
     2
100
AcDbLine
 10
30.532309
 20
2.100521
 30
0.0
 11
30.621559
 21
2.100521
 31
0.0
  0
LINE
  5
2A6
330
239
100
AcDbEntity
  8
0
  6
Continuous
 62
     2
100
AcDbLine
 10
30.532309
 20
2.148458499999998
 30
0.0
 11
30.532309
 21
2.100521
 31
0.0
  0
LINE
  5
2A7
330
239
100
AcDbEntity
  8
0
  6
Continuous
 62
     2
100
AcDbLine
 10
30.532309
 20
2.247770999999999
 30
0.0
 11
30.621559
 21
2.247770999999999
 31
0.0
  0
LINE
  5
2A8
330
239
100
AcDbEntity
  8
0
  6
Continuous
 62
     2
100
AcDbLine
 10
30.465309
 20
2.314770999999999
 30
0.0
 11
30.465309
 21
2.033520999999999
 31
0.0
  0
LINE
  5
2A9
330
239
100
AcDbEntity
  8
0
  6
Continuous
 62
     2
100
AcDbLine
 10
30.621559
 20
2.247770999999999
 30
0.0
 11
30.621559
 21
2.314770999999999
 31
0.0
  0
LINE
  5
2AA
330
239
100
AcDbEntity
  8
0
  6
Continuous
 62
     2
100
AcDbLine
 10
30.465309
 20
2.314770999999999
 30
0.0
 11
30.621559
 21
2.314770999999999
 31
0.0
  0
LINE
  5
2AB
330
239
100
AcDbEntity
  8
0
  6
Continuous
 62
     2
100
AcDbLine
 10
30.532309
 20
2.199833499999999
 30
0.0
 11
30.621559
 21
2.199833499999999
 31
0.0
  0
LINE
  5
2AC
330
239
100
AcDbEntity
  8
0
  6
Continuous
 62
     2
100
AcDbLine
 10
30.621559
 20
2.199833499999999
 30
0.0
 11
30.621559
 21
2.148458499999998
 31
0.0
  0
LINE
  5
2AD
330
239
100
AcDbEntity
  8
0
  6
Continuous
 62
     2
100
AcDbLine
 10
30.532309
 20
2.148458499999998
 30
0.0
 11
30.621559
 21
2.148458499999998
 31
0.0
  0
LINE
  5
2AE
330
239
100
AcDbEntity
  8
0
  6
Continuous
 62
     2
100
AcDbLine
 10
30.532309
 20
2.199833499999999
 30
0.0
 11
30.532309
 21
2.247770999999999
 31
0.0
  0
LINE
  5
2AF
330
239
100
AcDbEntity
  8
0
  6
Continuous
 62
     2
100
AcDbLine
 10
30.652809
 20
2.033520999999999
 30
0.0
 11
30.652809
 21
2.314770999999999
 31
0.0
  0
LINE
  5
2B0
330
239
100
AcDbEntity
  8
0
  6
Continuous
 62
     2
100
AcDbLine
 10
30.719809
 20
2.142895999999999
 30
0.0
 11
30.719809
 21
2.033520999999999
 31
0.0
  0
ARC
  5
2B1
330
239
100
AcDbEntity
  8
0
  6
Continuous
 62
     2
100
AcDbCircle
 10
30.7543715
 20
2.228833499999999
 30
0.0
 40
0.0859375
100
AcDbArc
 50
304.1679402531
 51
90.0
  0
LINE
  5
2B2
330
239
100
AcDbEntity
  8
0
  6
Continuous
 62
     2
100
AcDbLine
 10
30.7543715
 20
2.314770999999999
 30
0.0
 11
30.652809
 21
2.314770999999999
 31
0.0
  0
LINE
  5
2B3
330
239
100
AcDbEntity
  8
0
  6
Continuous
 62
     2
100
AcDbLine
 10
30.753184
 20
2.260270999999999
 30
0.0
 11
30.719809
 21
2.260270999999999
 31
0.0
  0
LINE
  5
2B4
330
239
100
AcDbEntity
  8
0
  6
Continuous
 62
     2
100
AcDbLine
 10
30.8026357616
 20
2.1577292458
 30
0.0
 11
30.871559
 21
2.033520999999999
 31
0.0
  0
LINE
  5
2B5
330
239
100
AcDbEntity
  8
0
  6
Continuous
 62
     2
100
AcDbLine
 10
30.7949350526
 20
2.033520999999999
 30
0.0
 11
30.7342427922
 21
2.142895999999999
 31
0.0
  0
LINE
  5
2B6
330
239
100
AcDbEntity
  8
0
  6
Continuous
 62
     2
100
AcDbLine
 10
30.652809
 20
2.033520999999999
 30
0.0
 11
30.719809
 21
2.033520999999999
 31
0.0
  0
LINE
  5
2B7
330
239
100
AcDbEntity
  8
0
  6
Continuous
 62
     2
100
AcDbLine
 10
30.7949350526
 20
2.033520999999999
 30
0.0
 11
30.871559
 21
2.033520999999999
 31
0.0
  0
LINE
  5
2B8
330
239
100
AcDbEntity
  8
0
  6
Continuous
 62
     2
100
AcDbLine
 10
30.753184
 20
2.198958499999998
 30
0.0
 11
30.719809
 21
2.198958499999998
 31
0.0
  0
LINE
  5
2B9
330
239
100
AcDbEntity
  8
0
  6
Continuous
 62
     2
100
AcDbLine
 10
30.719809
 20
2.260270999999999
 30
0.0
 11
30.719809
 21
2.198958499999998
 31
0.0
  0
LINE
  5
2BA
330
239
100
AcDbEntity
  8
0
  6
Continuous
 62
     2
100
AcDbLine
 10
30.719809
 20
2.142895999999999
 30
0.0
 11
30.7342427922
 21
2.142895999999999
 31
0.0
  0
LWPOLYLINE
  5
2BB
330
239
100
AcDbEntity
  8
0
  6
Continuous
 62
     2
100
AcDbPolyline
 90
       14
 70
     0
 43
0.0
 10
30.871559
 20
2.033520999999999
 10
30.7949350526
 20
2.033520999999999
 10
30.7342427922
 20
2.142895999999999
 10
30.719809
 20
2.142895999999999
 10
30.719809
 20
2.033520999999999
 10
30.652809
 20
2.033520999999999
 10
30.652809
 20
2.260270999999999
 10
30.719809
 20
2.260270999999999
 10
30.719809
 20
2.198958499999998
 10
30.753184
 20
2.198958499999998
 10
30.833650134
 20
2.198958499999998
 10
30.8247683179
 20
2.1795431162
 10
30.8026357616
 20
2.1577292458
 10
30.871559
 20
2.033520999999999
  0
HATCH
  5
2BC
330
239
100
AcDbEntity
  8
0
  6
Continuous
 62
     2
100
AcDbHatch
 10
0.0
 20
0.0
 30
0.0
210
0.0
220
0.0
230
1.0
  2
SOLID
 70
     1
 71
     1
 91
        1
 92
        1
 93
       13
 72
     1
 10
30.871559
 20
2.033520999999999
 11
30.7949350526
 21
2.033520999999999
 72
     1
 10
30.7949350526
 20
2.033520999999999
 11
30.7342427922
 21
2.142895999999999
 72
     1
 10
30.7342427922
 20
2.142895999999999
 11
30.719809
 21
2.142895999999999
 72
     1
 10
30.719809
 20
2.142895999999999
 11
30.719809
 21
2.033520999999999
 72
     1
 10
30.719809
 20
2.033520999999999
 11
30.652809
 21
2.033520999999999
 72
     1
 10
30.652809
 20
2.033520999999999
 11
30.652809
 21
2.260270999999999
 72
     1
 10
30.652809
 20
2.260270999999999
 11
30.719809
 21
2.260270999999999
 72
     1
 10
30.719809
 20
2.260270999999999
 11
30.719809
 21
2.198958499999998
 72
     1
 10
30.719809
 20
2.198958499999998
 11
30.753184
 21
2.198958499999998
 72
     1
 10
30.753184
 20
2.198958499999998
 11
30.833650134
 21
2.198958499999998
 72
     1
 10
30.833650134
 20
2.198958499999998
 11
30.8247683179
 21
2.1795431162
 72
     1
 10
30.8247683179
 20
2.1795431162
 11
30.8026357616
 21
2.1577292458
 72
     1
 10
30.8026357616
 20
2.1577292458
 11
30.871559
 21
2.033520999999999
 97
        1
330
2BB
 75
     0
 76
     1
 98
        1
 10
0.0
 20
0.0
450
        0
451
        0
460
0.0
461
0.0
452
        0
462
0.0
453
        0
470

  0
LWPOLYLINE
  5
2BD
330
239
100
AcDbEntity
  8
0
  6
Continuous
 62
     2
100
AcDbPolyline
 90
       18
 70
     0
 43
0.0
 10
30.652809
 20
2.260270999999999
 10
30.652809
 20
2.314770999999999
 10
30.7543715
 20
2.314770999999999
 10
30.7849349823
 20
2.309152410999999
 10
30.811501987
 20
2.2930313299
 10
30.8305986155
 20
2.268515747599999
 10
30.8397277946
 20
2.238811318999998
 10
30.8376957941
 20
2.207802191799999
 10
30.833650134
 20
2.198958499999998
 10
30.753184
 20
2.198958499999998
 10
30.768512125
 20
2.203065658699999
 10
30.7797330913
 20
2.214286625
 10
30.78384025
 20
2.22961475
 10
30.7797330913
 20
2.244942875
 10
30.768512125
 20
2.256163841299998
 10
30.753184
 20
2.260270999999999
 10
30.719809
 20
2.260270999999999
 10
30.652809
 20
2.260270999999999
  0
HATCH
  5
2BE
330
239
100
AcDbEntity
  8
0
  6
Continuous
 62
     2
100
AcDbHatch
 10
0.0
 20
0.0
 30
0.0
210
0.0
220
0.0
230
1.0
  2
SOLID
 70
     1
 71
     1
 91
        1
 92
        1
 93
       17
 72
     1
 10
30.652809
 20
2.260270999999999
 11
30.652809
 21
2.314770999999999
 72
     1
 10
30.652809
 20
2.314770999999999
 11
30.7543715
 21
2.314770999999999
 72
     1
 10
30.7543715
 20
2.314770999999999
 11
30.7849349823
 21
2.309152410999999
 72
     1
 10
30.7849349823
 20
2.309152410999999
 11
30.811501987
 21
2.2930313299
 72
     1
 10
30.811501987
 20
2.2930313299
 11
30.8305986155
 21
2.268515747599999
 72
     1
 10
30.8305986155
 20
2.268515747599999
 11
30.8397277946
 21
2.238811318999998
 72
     1
 10
30.8397277946
 20
2.238811318999998
 11
30.8376957941
 21
2.207802191799999
 72
     1
 10
30.8376957941
 20
2.207802191799999
 11
30.833650134
 21
2.198958499999998
 72
     1
 10
30.833650134
 20
2.198958499999998
 11
30.753184
 21
2.198958499999998
 72
     1
 10
30.753184
 20
2.198958499999998
 11
30.768512125
 21
2.203065658699999
 72
     1
 10
30.768512125
 20
2.203065658699999
 11
30.7797330913
 21
2.214286625
 72
     1
 10
30.7797330913
 20
2.214286625
 11
30.78384025
 21
2.22961475
 72
     1
 10
30.78384025
 20
2.22961475
 11
30.7797330913
 21
2.244942875
 72
     1
 10
30.7797330913
 20
2.244942875
 11
30.768512125
 21
2.256163841299998
 72
     1
 10
30.768512125
 20
2.256163841299998
 11
30.753184
 21
2.260270999999999
 72
     1
 10
30.753184
 20
2.260270999999999
 11
30.719809
 21
2.260270999999999
 72
     1
 10
30.719809
 20
2.260270999999999
 11
30.652809
 21
2.260270999999999
 97
        1
330
2BD
 75
     0
 76
     1
 98
        1
 10
0.0
 20
0.0
450
        0
451
        0
460
0.0
461
0.0
452
        0
462
0.0
453
        0
470

  0
LWPOLYLINE
  5
2BF
330
239
100
AcDbEntity
  8
0
  6
Continuous
 62
     2
100
AcDbPolyline
 90
       12
 70
     0
 43
0.0
 10
29.570184
 20
2.033520999999999
 10
29.503184
 20
2.033520999999999
 10
29.503184
 20
2.314770999999999
 10
29.570184
 20
2.314770999999999
 10
29.570184
 20
2.2265233087
 10
29.6584316913
 20
2.314770999999999
 10
29.753184
 20
2.314770999999999
 10
29.628184
 20
2.189770999999999
 10
29.753184
 20
2.033520999999999
 10
29.6673821352
 20
2.033520999999999
 10
29.570184
 20
2.155018668999999
 10
29.570184
 20
2.033520999999999
  0
HATCH
  5
2C0
330
239
100
AcDbEntity
  8
0
  6
Continuous
 62
     2
100
AcDbHatch
 10
0.0
 20
0.0
 30
0.0
210
0.0
220
0.0
230
1.0
  2
SOLID
 70
     1
 71
     1
 91
        1
 92
        1
 93
       11
 72
     1
 10
29.570184
 20
2.033520999999999
 11
29.503184
 21
2.033520999999999
 72
     1
 10
29.503184
 20
2.033520999999999
 11
29.503184
 21
2.314770999999999
 72
     1
 10
29.503184
 20
2.314770999999999
 11
29.570184
 21
2.314770999999999
 72
     1
 10
29.570184
 20
2.314770999999999
 11
29.570184
 21
2.2265233087
 72
     1
 10
29.570184
 20
2.2265233087
 11
29.6584316913
 21
2.314770999999999
 72
     1
 10
29.6584316913
 20
2.314770999999999
 11
29.753184
 21
2.314770999999999
 72
     1
 10
29.753184
 20
2.314770999999999
 11
29.628184
 21
2.189770999999999
 72
     1
 10
29.628184
 20
2.189770999999999
 11
29.753184
 21
2.033520999999999
 72
     1
 10
29.753184
 20
2.033520999999999
 11
29.6673821352
 21
2.033520999999999
 72
     1
 10
29.6673821352
 20
2.033520999999999
 11
29.570184
 21
2.155018668999999
 72
     1
 10
29.570184
 20
2.155018668999999
 11
29.570184
 21
2.033520999999999
 97
        1
330
2BF
 75
     0
 76
     1
 98
        1
 10
0.0
 20
0.0
450
        0
451
        0
460
0.0
461
0.0
452
        0
462
0.0
453
        0
470

  0
LWPOLYLINE
  5
2C1
330
239
100
AcDbEntity
  8
0
  6
Continuous
 62
     2
100
AcDbPolyline
 90
       23
 70
     0
 43
0.0
 10
29.862559
 20
2.033520999999999
 10
29.8191034852
 20
2.0404036774
 10
29.7799016989
 20
2.0603779852
 10
29.7487909852
 20
2.091488698899997
 10
29.7288166774
 20
2.1306904852
 10
29.721934
 20
2.174145999999999
 10
29.7288166774
 20
2.217601514799997
 10
29.7440287706
 20
2.2474569287
 10
29.869352258
 20
2.2474569287
 10
29.8424105624
 20
2.244960413
 10
29.8181900249
 20
2.2329000184
 10
29.7999617634
 20
2.212904567999999
 10
29.7901876055
 20
2.187674558199999
 10
29.7901876055
 20
2.160617441799999
 10
29.7999617634
 20
2.135387431999999
 10
29.8181900249
 20
2.115391981599997
 10
29.8424105624
 20
2.103331587
 10
29.869352258
 20
2.1008350713
 10
29.9810892294
 20
2.1008350713
 10
29.9763270148
 20
2.091488698899997
 10
29.9452163011
 20
2.0603779852
 10
29.9060145148
 20
2.0404036774
 10
29.862559
 20
2.033520999999999
  0
HATCH
  5
2C2
330
239
100
AcDbEntity
  8
0
  6
Continuous
 62
     2
100
AcDbHatch
 10
0.0
 20
0.0
 30
0.0
210
0.0
220
0.0
230
1.0
  2
SOLID
 70
     1
 71
     1
 91
        1
 92
        1
 93
       22
 72
     1
 10
29.862559
 20
2.033520999999999
 11
29.8191034852
 21
2.0404036774
 72
     1
 10
29.8191034852
 20
2.0404036774
 11
29.7799016989
 21
2.0603779852
 72
     1
 10
29.7799016989
 20
2.0603779852
 11
29.7487909852
 21
2.091488698899997
 72
     1
 10
29.7487909852
 20
2.091488698899997
 11
29.7288166774
 21
2.1306904852
 72
     1
 10
29.7288166774
 20
2.1306904852
 11
29.721934
 21
2.174145999999999
 72
     1
 10
29.721934
 20
2.174145999999999
 11
29.7288166774
 21
2.217601514799997
 72
     1
 10
29.7288166774
 20
2.217601514799997
 11
29.7440287706
 21
2.2474569287
 72
     1
 10
29.7440287706
 20
2.2474569287
 11
29.869352258
 21
2.2474569287
 72
     1
 10
29.869352258
 20
2.2474569287
 11
29.8424105624
 21
2.244960413
 72
     1
 10
29.8424105624
 20
2.244960413
 11
29.8181900249
 21
2.2329000184
 72
     1
 10
29.8181900249
 20
2.2329000184
 11
29.7999617634
 21
2.212904567999999
 72
     1
 10
29.7999617634
 20
2.212904567999999
 11
29.7901876055
 21
2.187674558199999
 72
     1
 10
29.7901876055
 20
2.187674558199999
 11
29.7901876055
 21
2.160617441799999
 72
     1
 10
29.7901876055
 20
2.160617441799999
 11
29.7999617634
 21
2.135387431999999
 72
     1
 10
29.7999617634
 20
2.135387431999999
 11
29.8181900249
 21
2.115391981599997
 72
     1
 10
29.8181900249
 20
2.115391981599997
 11
29.8424105624
 21
2.103331587
 72
     1
 10
29.8424105624
 20
2.103331587
 11
29.869352258
 21
2.1008350713
 72
     1
 10
29.869352258
 20
2.1008350713
 11
29.9810892294
 21
2.1008350713
 72
     1
 10
29.9810892294
 20
2.1008350713
 11
29.9763270148
 21
2.091488698899997
 72
     1
 10
29.9763270148
 20
2.091488698899997
 11
29.9452163011
 21
2.0603779852
 72
     1
 10
29.9452163011
 20
2.0603779852
 11
29.9060145148
 21
2.0404036774
 72
     1
 10
29.9060145148
 20
2.0404036774
 11
29.862559
 21
2.033520999999999
 97
        1
330
2C1
 75
     0
 76
     1
 98
        1
 10
0.0
 20
0.0
450
        0
451
        0
460
0.0
461
0.0
452
        0
462
0.0
453
        0
470

  0
LWPOLYLINE
  5
2C3
330
239
100
AcDbEntity
  8
0
  6
Continuous
 62
     2
100
AcDbPolyline
 90
       22
 70
     0
 43
0.0
 10
29.7440287706
 20
2.2474569287
 10
29.7487909852
 20
2.2568033011
 10
29.7799016989
 20
2.287914014799997
 10
29.8191034852
 20
2.307888322599997
 10
29.862559
 20
2.314770999999999
 10
29.9060145148
 20
2.307888322599997
 10
29.9452163011
 20
2.287914014799997
 10
29.9763270148
 20
2.2568033011
 10
29.9963013226
 20
2.217601514799997
 10
30.003184
 20
2.174145999999999
 10
29.9963013226
 20
2.1306904852
 10
29.9810892294
 20
2.1008350713
 10
29.869352258
 20
2.1008350713
 10
29.8953764864
 20
2.1082396027
 10
29.9169685315
 20
2.1245451582
 10
29.9312122679
 20
2.147549582299999
 10
29.936184
 20
2.174145999999999
 10
29.9312122679
 20
2.200742417699999
 10
29.9169685315
 20
2.2237468418
 10
29.8953764864
 20
2.240052397299999
 10
29.869352258
 20
2.2474569287
 10
29.7440287706
 20
2.2474569287
  0
HATCH
  5
2C4
330
239
100
AcDbEntity
  8
0
  6
Continuous
 62
     2
100
AcDbHatch
 10
0.0
 20
0.0
 30
0.0
210
0.0
220
0.0
230
1.0
  2
SOLID
 70
     1
 71
     1
 91
        1
 92
        1
 93
       21
 72
     1
 10
29.7440287706
 20
2.2474569287
 11
29.7487909852
 21
2.2568033011
 72
     1
 10
29.7487909852
 20
2.2568033011
 11
29.7799016989
 21
2.287914014799997
 72
     1
 10
29.7799016989
 20
2.287914014799997
 11
29.8191034852
 21
2.307888322599997
 72
     1
 10
29.8191034852
 20
2.307888322599997
 11
29.862559
 21
2.314770999999999
 72
     1
 10
29.862559
 20
2.314770999999999
 11
29.9060145148
 21
2.307888322599997
 72
     1
 10
29.9060145148
 20
2.307888322599997
 11
29.9452163011
 21
2.287914014799997
 72
     1
 10
29.9452163011
 20
2.287914014799997
 11
29.9763270148
 21
2.2568033011
 72
     1
 10
29.9763270148
 20
2.2568033011
 11
29.9963013226
 21
2.217601514799997
 72
     1
 10
29.9963013226
 20
2.217601514799997
 11
30.003184
 21
2.174145999999999
 72
     1
 10
30.003184
 20
2.174145999999999
 11
29.9963013226
 21
2.1306904852
 72
     1
 10
29.9963013226
 20
2.1306904852
 11
29.9810892294
 21
2.1008350713
 72
     1
 10
29.9810892294
 20
2.1008350713
 11
29.869352258
 21
2.1008350713
 72
     1
 10
29.869352258
 20
2.1008350713
 11
29.8953764864
 21
2.1082396027
 72
     1
 10
29.8953764864
 20
2.1082396027
 11
29.9169685315
 21
2.1245451582
 72
     1
 10
29.9169685315
 20
2.1245451582
 11
29.9312122679
 21
2.147549582299999
 72
     1
 10
29.9312122679
 20
2.147549582299999
 11
29.936184
 21
2.174145999999999
 72
     1
 10
29.936184
 20
2.174145999999999
 11
29.9312122679
 21
2.200742417699999
 72
     1
 10
29.9312122679
 20
2.200742417699999
 11
29.9169685315
 21
2.2237468418
 72
     1
 10
29.9169685315
 20
2.2237468418
 11
29.8953764864
 21
2.240052397299999
 72
     1
 10
29.8953764864
 20
2.240052397299999
 11
29.869352258
 21
2.2474569287
 72
     1
 10
29.869352258
 20
2.2474569287
 11
29.7440287706
 21
2.2474569287
 97
        1
330
2C3
 75
     0
 76
     1
 98
        1
 10
0.0
 20
0.0
450
        0
451
        0
460
0.0
461
0.0
452
        0
462
0.0
453
        0
470

  0
LWPOLYLINE
  5
2C5
330
239
100
AcDbEntity
  8
0
  6
Continuous
 62
     2
100
AcDbPolyline
 90
       13
 70
     0
 43
0.0
 10
30.101434
 20
2.033520999999999
 10
30.034434
 20
2.033520999999999
 10
30.034434
 20
2.314770999999999
 10
30.101434
 20
2.314770999999999
 10
30.101434
 20
2.223270999999999
 10
30.179559
 20
2.223270999999999
 10
30.179559
 20
2.314770999999999
 10
30.246559
 20
2.314770999999999
 10
30.246559
 20
2.033520999999999
 10
30.179559
 20
2.033520999999999
 10
30.179559
 20
2.156270999999998
 10
30.101434
 20
2.156270999999998
 10
30.101434
 20
2.033520999999999
  0
HATCH
  5
2C6
330
239
100
AcDbEntity
  8
0
  6
Continuous
 62
     2
100
AcDbHatch
 10
0.0
 20
0.0
 30
0.0
210
0.0
220
0.0
230
1.0
  2
SOLID
 70
     1
 71
     1
 91
        1
 92
        1
 93
       12
 72
     1
 10
30.101434
 20
2.033520999999999
 11
30.034434
 21
2.033520999999999
 72
     1
 10
30.034434
 20
2.033520999999999
 11
30.034434
 21
2.314770999999999
 72
     1
 10
30.034434
 20
2.314770999999999
 11
30.101434
 21
2.314770999999999
 72
     1
 10
30.101434
 20
2.314770999999999
 11
30.101434
 21
2.223270999999999
 72
     1
 10
30.101434
 20
2.223270999999999
 11
30.179559
 21
2.223270999999999
 72
     1
 10
30.179559
 20
2.223270999999999
 11
30.179559
 21
2.314770999999999
 72
     1
 10
30.179559
 20
2.314770999999999
 11
30.246559
 21
2.314770999999999
 72
     1
 10
30.246559
 20
2.314770999999999
 11
30.246559
 21
2.033520999999999
 72
     1
 10
30.246559
 20
2.033520999999999
 11
30.179559
 21
2.033520999999999
 72
     1
 10
30.179559
 20
2.033520999999999
 11
30.179559
 21
2.156270999999998
 72
     1
 10
30.179559
 20
2.156270999999998
 11
30.101434
 21
2.156270999999998
 72
     1
 10
30.101434
 20
2.156270999999998
 11
30.101434
 21
2.033520999999999
 97
        1
330
2C5
 75
     0
 76
     1
 98
        1
 10
0.0
 20
0.0
450
        0
451
        0
460
0.0
461
0.0
452
        0
462
0.0
453
        0
470

  0
LWPOLYLINE
  5
2C7
330
239
100
AcDbEntity
  8
0
  6
Continuous
 62
     2
100
AcDbPolyline
 90
        7
 70
     0
 43
0.0
 10
30.434059
 20
2.033520999999999
 10
30.277809
 20
2.033520999999999
 10
30.277809
 20
2.314770999999999
 10
30.344809
 20
2.314770999999999
 10
30.344809
 20
2.100521
 10
30.434059
 20
2.100521
 10
30.434059
 20
2.033520999999999
  0
HATCH
  5
2C8
330
239
100
AcDbEntity
  8
0
  6
Continuous
 62
     2
100
AcDbHatch
 10
0.0
 20
0.0
 30
0.0
210
0.0
220
0.0
230
1.0
  2
SOLID
 70
     1
 71
     1
 91
        1
 92
        1
 93
        6
 72
     1
 10
30.434059
 20
2.033520999999999
 11
30.277809
 21
2.033520999999999
 72
     1
 10
30.277809
 20
2.033520999999999
 11
30.277809
 21
2.314770999999999
 72
     1
 10
30.277809
 20
2.314770999999999
 11
30.344809
 21
2.314770999999999
 72
     1
 10
30.344809
 20
2.314770999999999
 11
30.344809
 21
2.100521
 72
     1
 10
30.344809
 20
2.100521
 11
30.434059
 21
2.100521
 72
     1
 10
30.434059
 20
2.100521
 11
30.434059
 21
2.033520999999999
 97
        1
330
2C7
 75
     0
 76
     1
 98
        1
 10
0.0
 20
0.0
450
        0
451
        0
460
0.0
461
0.0
452
        0
462
0.0
453
        0
470

  0
LWPOLYLINE
  5
2C9
330
239
100
AcDbEntity
  8
0
  6
Continuous
 62
     2
100
AcDbPolyline
 90
       13
 70
     0
 43
0.0
 10
30.621559
 20
2.033520999999999
 10
30.465309
 20
2.033520999999999
 10
30.465309
 20
2.314770999999999
 10
30.621559
 20
2.314770999999999
 10
30.621559
 20
2.247770999999999
 10
30.532309
 20
2.247770999999999
 10
30.532309
 20
2.199833499999999
 10
30.621559
 20
2.199833499999999
 10
30.621559
 20
2.148458499999998
 10
30.532309
 20
2.148458499999998
 10
30.532309
 20
2.100521
 10
30.621559
 20
2.100521
 10
30.621559
 20
2.033520999999999
  0
HATCH
  5
2CA
330
239
100
AcDbEntity
  8
0
  6
Continuous
 62
     2
100
AcDbHatch
 10
0.0
 20
0.0
 30
0.0
210
0.0
220
0.0
230
1.0
  2
SOLID
 70
     1
 71
     1
 91
        1
 92
        1
 93
       12
 72
     1
 10
30.621559
 20
2.033520999999999
 11
30.465309
 21
2.033520999999999
 72
     1
 10
30.465309
 20
2.033520999999999
 11
30.465309
 21
2.314770999999999
 72
     1
 10
30.465309
 20
2.314770999999999
 11
30.621559
 21
2.314770999999999
 72
     1
 10
30.621559
 20
2.314770999999999
 11
30.621559
 21
2.247770999999999
 72
     1
 10
30.621559
 20
2.247770999999999
 11
30.532309
 21
2.247770999999999
 72
     1
 10
30.532309
 20
2.247770999999999
 11
30.532309
 21
2.199833499999999
 72
     1
 10
30.532309
 20
2.199833499999999
 11
30.621559
 21
2.199833499999999
 72
     1
 10
30.621559
 20
2.199833499999999
 11
30.621559
 21
2.148458499999998
 72
     1
 10
30.621559
 20
2.148458499999998
 11
30.532309
 21
2.148458499999998
 72
     1
 10
30.532309
 20
2.148458499999998
 11
30.532309
 21
2.100521
 72
     1
 10
30.532309
 20
2.100521
 11
30.621559
 21
2.100521
 72
     1
 10
30.621559
 20
2.100521
 11
30.621559
 21
2.033520999999999
 97
        1
330
2C9
 75
     0
 76
     1
 98
        1
 10
0.0
 20
0.0
450
        0
451
        0
460
0.0
461
0.0
452
        0
462
0.0
453
        0
470

  0
ENDBLK
  5
2CB
330
239
100
AcDbEntity
  8
0
  6
ByBlock
 62
     0
100
AcDbBlockEnd
  0
BLOCK
  5
FC6
330
FC4
100
AcDbEntity
  8
0
100
AcDbBlockBegin
  2
GENAXEH
 70
     0
 10
0.0
 20
0.0
 30
0.0
  3
GENAXEH
  1

  0
LINE
  5
FC5
330
FC4
100
AcDbEntity
  8
0
100
AcDbLine
 10
-1.0
 20
0.0
 30
0.0
 11
1.0
 21
0.0
 31
0.0
  0
ENDBLK
  5
FC7
330
FC4
100
AcDbEntity
  8
0
100
AcDbBlockEnd
  0
ENDSEC
  0
SECTION
  2
ENTITIES
  0
LINE
  5
805
330
21D
100
AcDbEntity
  8
CURVE1
  6
Continuous
 62
     7
100
AcDbLine
 10
5.506237653899997
 20
18.1563862428
 30
0.0
 11
5.506237653899997
 21
11.148512227
 31
0.0
  0
LINE
  5
806
330
21D
100
AcDbEntity
  8
CURVE1
  6
Continuous
 62
     7
100
AcDbLine
 10
5.693245527899999
 20
18.3433941168
 30
0.0
 11
5.693245527899999
 21
18.1563862428
 31
0.0
  0
LINE
  5
807
330
21D
100
AcDbEntity
  8
0
  6
Continuous
 62
     7
100
AcDbLine
 10
5.693245527899999
 20
18.1563862428
 30
0.0
 11
5.693245527899999
 21
11.148512227
 31
0.0
  0
LINE
  5
808
330
21D
100
AcDbEntity
  8
CURVE1
  6
Continuous
 62
     7
100
AcDbLine
 10
5.693245527899999
 20
11.148512227
 30
0.0
 11
5.693245527899999
 21
10.961504353
 31
0.0
  0
LINE
  5
80F
330
21D
100
AcDbEntity
  8
0
  6
Continuous
 62
     7
100
AcDbLine
 10
5.9545846715
 20
12.506391425
 30
0.0
 11
5.9545846715
 21
16.7985070448
 31
0.0
  0
LINE
  5
810
330
21D
100
AcDbEntity
  8
0
  6
Continuous
 62
     7
100
AcDbLine
 10
6.0262985445
 20
12.506391425
 30
0.0
 11
6.0262985445
 21
16.7985070448
 31
0.0
  0
LINE
  5
816
330
21D
100
AcDbEntity
  8
0
  6
Continuous
 62
     7
100
AcDbLine
 10
6.384187184199999
 20
12.9792208884
 30
0.0
 11
6.384187184199999
 21
16.3256775814
 31
0.0
  0
LINE
  5
817
330
21D
100
AcDbEntity
  8
0
  6
Continuous
 62
     7
100
AcDbLine
 10
6.410763619699999
 20
12.9792208884
 30
0.0
 11
6.410763619699999
 21
16.3256775814
 31
0.0
  0
LINE
  5
81F
330
21D
100
AcDbEntity
  8
0
  6
Continuous
 62
     7
100
AcDbLine
 10
6.703173576
 20
17.6166000282
 30
0.0
 11
6.707976921599997
 21
17.5547299715
 31
0.0
  0
LINE
  5
820
330
21D
100
AcDbEntity
  8
0
  6
Continuous
 62
     7
100
AcDbLine
 10
7.105357902899999
 20
16.8441895878
 30
0.0
 11
7.105449523899999
 21
16.8423435818
 31
0.0
  0
LINE
  5
821
330
21D
100
AcDbEntity
  8
0
  6
Continuous
 62
     7
100
AcDbLine
 10
7.0953288558
 20
17.0660012469
 30
0.0
 11
7.095209984099997
 21
17.0688587271
 31
0.0
  0
LINE
  5
822
330
21D
100
AcDbEntity
  8
0
  6
Continuous
 62
     7
100
AcDbLine
 10
7.095325553999997
 20
12.2388972421
 30
0.0
 11
7.0952164989
 21
12.2360392016
 31
0.0
  0
LINE
  5
823
330
21D
100
AcDbEntity
  8
0
  6
Continuous
 62
     7
100
AcDbLine
 10
7.105357902899999
 20
12.460708882
 30
0.0
 11
7.105449523899999
 21
12.4625548888
 31
0.0
  0
LINE
  5
824
330
21D
100
AcDbEntity
  8
0
  6
Continuous
 62
     7
100
AcDbLine
 10
6.703173576
 20
11.6882984416
 30
0.0
 11
6.707976921599997
 21
11.7501684986
 31
0.0
  0
LINE
  5
827
330
21D
100
AcDbEntity
  8
0
  6
Continuous
 62
     7
100
AcDbLine
 10
7.5239176883
 20
12.9257346382
 30
0.0
 11
7.523915709899996
 21
14.1954446102
 31
0.0
  0
LINE
  5
828
330
21D
100
AcDbEntity
  8
0
  6
Continuous
 62
     7
100
AcDbLine
 10
7.5239157094
 20
15.1094538596
 30
0.0
 11
7.523917685299997
 21
16.3791638316
 31
0.0
  0
LINE
  5
82B
330
21D
100
AcDbEntity
  8
CURVE1
  6
Continuous
 62
     7
100
AcDbLine
 10
5.693245527899999
 20
10.961504353
 30
0.0
 11
17.0318282051
 21
10.961504353
 31
0.0
  0
LINE
  5
82F
330
21D
100
AcDbEntity
  8
CURVE1
  6
Continuous
 62
     7
100
AcDbLine
 10
17.2188360791
 20
11.148512227
 30
0.0
 11
17.0318282051
 21
11.148512227
 31
0.0
  0
LINE
  5
830
330
21D
100
AcDbEntity
  8
0
  6
Continuous
 62
     7
100
AcDbLine
 10
17.0318282051
 20
11.148512227
 30
0.0
 11
5.693245527899999
 21
11.148512227
 31
0.0
  0
LINE
  5
831
330
21D
100
AcDbEntity
  8
CURVE1
  6
Continuous
 62
     7
100
AcDbLine
 10
5.693245527899999
 20
11.148512227
 30
0.0
 11
5.506237653899997
 21
11.148512227
 31
0.0
  0
LINE
  5
833
330
21D
100
AcDbEntity
  8
0
  6
Continuous
 62
     7
100
AcDbLine
 10
6.0262985445
 20
12.506391425
 30
0.0
 11
6.3847462647
 21
12.9493976196
 31
0.0
  0
LINE
  5
834
330
21D
100
AcDbEntity
  8
0
  6
Continuous
 62
     7
100
AcDbLine
 10
6.0262985445
 20
16.7985070448
 30
0.0
 11
6.3847462647
 21
16.3555008502
 31
0.0
  0
LINE
  5
83A
330
21D
100
AcDbEntity
  8
0
  6
Continuous
 62
     7
100
AcDbLine
 10
6.707976921599997
 20
11.7501684983
 30
0.0
 11
7.069695180599999
 21
12.2019935212
 31
0.0
  0
LINE
  5
83B
330
21D
100
AcDbEntity
  8
0
  6
Continuous
 62
     7
100
AcDbLine
 10
16.7691551913
 20
12.4256819435
 30
0.0
 11
16.6975764785
 21
12.4256819436
 31
0.0
  0
LINE
  5
83C
330
21D
100
AcDbEntity
  8
0
  6
Continuous
 62
     7
100
AcDbLine
 10
5.9545846715
 20
12.506391425
 30
0.0
 11
6.0262985445
 21
12.506391425
 31
0.0
  0
LINE
  5
83D
330
21D
100
AcDbEntity
  8
0
  6
Continuous
 62
     7
100
AcDbLine
 10
16.3348485581
 20
12.8620941611
 30
0.0
 11
16.3089599412
 21
12.8620941611
 31
0.0
  0
LINE
  5
83E
330
21D
100
AcDbEntity
  8
0
  6
Continuous
 62
     7
100
AcDbLine
 10
6.707976921599997
 20
17.5547299715
 30
0.0
 11
7.069695180599999
 21
17.1029049486
 31
0.0
  0
LINE
  5
841
330
21D
100
AcDbEntity
  8
0
  6
Continuous
 62
     7
100
AcDbLine
 10
6.384187184199999
 20
12.9792208884
 30
0.0
 11
6.637779896199997
 21
12.9792208884
 31
0.0
  0
LINE
  5
869
330
21D
100
AcDbEntity
  8
0
  6
Continuous
 62
     7
100
AcDbLine
 10
6.384187184199999
 20
16.3256775814
 30
0.0
 11
6.637779895299996
 21
16.3256775814
 31
0.0
  0
LINE
  5
86A
330
21D
100
AcDbEntity
  8
0
  6
Continuous
 62
     7
100
AcDbLine
 10
16.3348485581
 20
16.4428036098
 30
0.0
 11
16.3089599412
 21
16.4428036098
 31
0.0
  0
LINE
  5
86D
330
21D
100
AcDbEntity
  8
0
  6
Continuous
 62
     7
100
AcDbLine
 10
5.9545846715
 20
16.7985070448
 30
0.0
 11
6.0262985445
 21
16.7985070448
 31
0.0
  0
LINE
  5
86E
330
21D
100
AcDbEntity
  8
0
  6
Continuous
 62
     7
100
AcDbLine
 10
16.7691551913
 20
16.8792165263
 30
0.0
 11
16.6975764786
 21
16.8792165263
 31
0.0
  0
LINE
  5
86F
330
21D
100
AcDbEntity
  8
0
  6
Continuous
 62
     7
100
AcDbLine
 10
15.025197643
 20
16.9282611668
 30
0.0
 11
7.0953288558
 21
17.0660012469
 31
0.0
  0
LINE
  5
87A
330
21D
100
AcDbEntity
  8
0
  6
Continuous
 62
     7
100
AcDbLine
 10
15.0109176598
 20
17.0593684405
 30
0.0
 11
7.0953288563
 21
17.0660012469
 31
0.0
  0
LINE
  5
87E
330
21D
100
AcDbEntity
  8
0
  6
Continuous
 62
     7
100
AcDbLine
 10
17.0318282051
 20
18.1563862428
 30
0.0
 11
5.693245527899999
 21
18.1563862428
 31
0.0
  0
LINE
  5
87F
330
21D
100
AcDbEntity
  8
CURVE1
  6
Continuous
 62
     7
100
AcDbLine
 10
5.506237653899997
 20
18.1563862428
 30
0.0
 11
5.693245527899999
 21
18.1563862428
 31
0.0
  0
LINE
  5
880
330
21D
100
AcDbEntity
  8
CURVE1
  6
Continuous
 62
     7
100
AcDbLine
 10
17.0318282051
 20
18.1563862428
 30
0.0
 11
17.2188360791
 21
18.1563862428
 31
0.0
  0
LINE
  5
881
330
21D
100
AcDbEntity
  8
CURVE1
  6
Continuous
 62
     7
100
AcDbLine
 10
5.693245527899999
 20
18.3433941168
 30
0.0
 11
17.0318282051
 21
18.3433941168
 31
0.0
  0
LINE
  5
882
330
21D
100
AcDbEntity
  8
0
  6
Continuous
 62
     7
100
AcDbLine
 10
15.3370220731
 20
17.441301787
 30
0.0
 11
15.3371313242
 21
17.4110270669
 31
0.0
  0
LINE
  5
883
330
21D
100
AcDbEntity
  8
0
  6
Continuous
 62
     7
100
AcDbLine
 10
15.3370229748
 20
11.8635966726
 30
0.0
 11
15.3371322253
 21
11.893871387
 31
0.0
  0
LINE
  5
887
330
21D
100
AcDbEntity
  8
0
  6
Continuous
 62
     7
100
AcDbLine
 10
15.8060785062
 20
11.3970958402
 30
0.0
 11
15.8051614721
 21
11.4649754319
 31
0.0
  0
LINE
  5
888
330
21D
100
AcDbEntity
  8
0
  6
Continuous
 62
     7
100
AcDbLine
 10
15.7593341651
 20
16.1949183817
 30
0.0
 11
15.7593341651
 21
13.109980155
 31
0.0
  0
LINE
  5
889
330
21D
100
AcDbEntity
  8
0
  6
Continuous
 62
     7
100
AcDbLine
 10
15.8060785062
 20
17.9078026296
 30
0.0
 11
15.805161472
 21
17.8399230376
 31
0.0
  0
LINE
  5
88D
330
21D
100
AcDbEntity
  8
0
  6
Continuous
 62
     7
100
AcDbLine
 10
16.3089599412
 20
16.4428036098
 30
0.0
 11
16.3089599412
 21
12.8620941611
 31
0.0
  0
LINE
  5
88E
330
21D
100
AcDbEntity
  8
0
  6
Continuous
 62
     7
100
AcDbLine
 10
16.3348485581
 20
16.4428036098
 30
0.0
 11
16.3348485581
 21
12.8620941611
 31
0.0
  0
LINE
  5
890
330
21D
100
AcDbEntity
  8
0
  6
Continuous
 62
     7
100
AcDbLine
 10
16.6975764786
 20
16.8792165263
 30
0.0
 11
16.6975764785
 21
12.4256819435
 31
0.0
  0
LINE
  5
891
330
21D
100
AcDbEntity
  8
0
  6
Continuous
 62
     7
100
AcDbLine
 10
16.7691551913
 20
16.8792165263
 30
0.0
 11
16.7691551913
 21
12.4256819435
 31
0.0
  0
LINE
  5
893
330
21D
100
AcDbEntity
  8
0
  6
Continuous
 62
     7
100
AcDbLine
 10
17.0318282051
 20
18.1563862428
 30
0.0
 11
17.0318282051
 21
11.148512227
 31
0.0
  0
LINE
  5
894
330
21D
100
AcDbEntity
  8
CURVE1
  6
Continuous
 62
     7
100
AcDbLine
 10
17.0318282051
 20
10.961504353
 30
0.0
 11
17.0318282051
 21
11.148512227
 31
0.0
  0
LINE
  5
895
330
21D
100
AcDbEntity
  8
CURVE1
  6
Continuous
 62
     7
100
AcDbLine
 10
17.0318282051
 20
18.1563862428
 30
0.0
 11
17.0318282051
 21
18.3433941168
 31
0.0
  0
LINE
  5
896
330
21D
100
AcDbEntity
  8
CURVE1
  6
Continuous
 62
     7
100
AcDbLine
 10
17.2188360791
 20
18.1563862428
 30
0.0
 11
17.2188360791
 21
11.148512227
 31
0.0
  0
ARC
  5
BF5
330
21D
100
AcDbEntity
  8
0
  6
Continuous
 62
     7
100
AcDbCircle
 10
-622.2138182708
 20
14.6524474295
 30
0.0
 40
628.8538766625999
100
AcDbArc
 50
359.9329788517
 51
0.0670220065
  0
ARC
  5
BF6
330
21D
100
AcDbEntity
  8
0
  6
Continuous
 62
     7
100
AcDbCircle
 10
-465.0480082023999
 20
14.3778300368
 30
0.0
 40
471.6878616221999
100
AcDbArc
 50
359.8301111279
 51
359.9440051608
  0
ARC
  5
BF7
330
21D
100
AcDbEntity
  8
0
  6
Continuous
 62
     7
100
AcDbCircle
 10
185.4497768912
 20
-136.6224041267
 30
0.0
 40
228.1228894417
100
AcDbArc
 50
137.709486585
 51
137.8453209095
  0
ARC
  5
BF8
330
21D
100
AcDbEntity
  8
0
  6
Continuous
 62
     7
100
AcDbCircle
 10
7.348960017499997
 20
-135.6368019534
 30
0.0
 40
148.0994942347
100
AcDbArc
 50
89.93894701269999
 51
90.06072181030001
  0
ARC
  5
BF9
330
21D
100
AcDbEntity
  8
0
  6
Continuous
 62
     7
100
AcDbCircle
 10
14.4524907896
 20
-82.2020800663
 30
0.0
 40
100.1190332209
100
AcDbArc
 50
89.22534982909999
 51
94.43919289790001
  0
ARC
  5
BFA
330
21D
100
AcDbEntity
  8
0
  6
Continuous
 62
     7
100
AcDbCircle
 10
14.3870281341
 20
-82.15910789330001
 30
0.0
 40
100.0090860335
100
AcDbArc
 50
89.1875160398
 51
94.4037069374
  0
ARC
  5
BFB
330
21D
100
AcDbEntity
  8
0
  6
Continuous
 62
     7
100
AcDbCircle
 10
15.6448843136
 20
-10.7651812313
 30
0.0
 40
27.8317710208
100
AcDbArc
 50
90.78832404020001
 51
91.3052261558
  0
ARC
  5
BFC
330
21D
100
AcDbEntity
  8
0
  6
Continuous
 62
     7
100
AcDbCircle
 10
34.5034169909
 20
11.1107937019
 30
0.0
 40
27.4312944059
100
AcDbArc
 50
177.1792911792
 51
177.6430645050999
  0
ARC
  5
BFD
330
21D
100
AcDbEntity
  8
0
  6
Continuous
 62
     7
100
AcDbCircle
 10
-10.6925592515
 20
3.392551525299997
 30
0.0
 40
21.4065538997
100
AcDbArc
 50
32.5704056418
 51
32.93064676530001
  0
ARC
  5
BFE
330
21D
100
AcDbEntity
  8
0
  6
Continuous
 62
     7
100
AcDbCircle
 10
24.7719241589
 20
10.3284113039
 30
0.0
 40
17.7708159112
100
AcDbArc
 50
166.9505785547
 51
167.3890154604
  0
ARC
  5
BFF
330
21D
100
AcDbEntity
  8
0
  6
Continuous
 62
     7
100
AcDbCircle
 10
2.545073391999999
 20
1.8244099594
 30
0.0
 40
13.7446815985
100
AcDbArc
 50
70.18498336589999
 51
70.65684601689999
  0
ARC
  5
C00
330
21D
100
AcDbEntity
  8
0
  6
Continuous
 62
     7
100
AcDbCircle
 10
15.3372269447
 20
12.8711656142
 30
0.0
 40
1.0075689502
100
AcDbArc
 50
269.9884011782
 51
275.0413539907
  0
ARC
  5
C01
330
21D
100
AcDbEntity
  8
0
  6
Continuous
 62
     7
100
AcDbCircle
 10
15.3383978075
 20
12.806344854
 30
0.0
 40
0.9124743405
100
AcDbArc
 50
269.9205319955
 51
274.9885773756
  0
ARC
  5
C02
330
21D
100
AcDbEntity
  8
0
  6
Continuous
 62
     7
100
AcDbCircle
 10
15.4287526463
 20
12.862106665
 30
0.0
 40
0.9060959118999999
100
AcDbArc
 50
357.7278342101999
 51
359.9992093287
  0
ARC
  5
C03
330
21D
100
AcDbEntity
  8
0
  6
Continuous
 62
     7
100
AcDbCircle
 10
15.4986004735
 20
12.8623829812
 30
0.0
 40
0.8103595192
100
AcDbArc
 50
357.6726683968
 51
359.9795792209
  0
ARC
  5
C04
330
21D
100
AcDbEntity
  8
0
  6
Continuous
 62
     7
100
AcDbCircle
 10
7.1584008983
 20
13.0036683205
 30
0.0
 40
0.8065675348
100
AcDbArc
 50
263.6858787829
 51
265.3497895653
  0
ARC
  5
C05
330
21D
100
AcDbEntity
  8
0
  6
Continuous
 62
     7
100
AcDbCircle
 10
7.1803746721
 20
12.9792297052
 30
0.0
 40
0.796187488
100
AcDbArc
 50
180.0006344752
 51
182.1472992402
  0
ARC
  5
C06
330
21D
100
AcDbEntity
  8
0
  6
Continuous
 62
     7
100
AcDbCircle
 10
7.1539006082
 20
12.9426134809
 30
0.0
 40
0.7090070781000001
100
AcDbArc
 50
263.6396207391
 51
265.2522296409
  0
ARC
  5
C07
330
21D
100
AcDbEntity
  8
0
  6
Continuous
 62
     7
100
AcDbCircle
 10
7.108999068999997
 20
12.9792295597
 30
0.0
 40
0.6982354493000003
100
AcDbArc
 50
180.000711543
 51
182.1631498441
  0
ARC
  5
C08
330
21D
100
AcDbEntity
  8
0
  6
Continuous
 62
     7
100
AcDbCircle
 10
15.0566052351
 20
12.6680113131
 30
0.0
 40
0.6542395748
100
AcDbArc
 50
269.4700570065001
 51
277.2726316168
  0
ARC
  5
C09
330
21D
100
AcDbEntity
  8
0
  6
Continuous
 62
     7
100
AcDbCircle
 10
7.1568939632
 20
12.9791441689
 30
0.0
 40
0.5191140726
100
AcDbArc
 50
179.9915322918
 51
264.3124100789
  0
CIRCLE
  5
C0A
330
21D
100
AcDbEntity
  8
0
  6
Continuous
 62
     7
100
AcDbCircle
 10
7.523954189299999
 20
14.6524492349
 30
0.0
 40
0.3149366425
  0
CIRCLE
  5
C0B
330
21D
100
AcDbEntity
  8
0
  6
Continuous
 62
     7
100
AcDbCircle
 10
7.523954189299999
 20
14.6524492349
 30
0.0
 40
0.2460629921
  0
ARC
  5
C0C
330
21D
100
AcDbEntity
  8
CURVE1
  6
Continuous
 62
     7
100
AcDbCircle
 10
5.693245527899999
 20
11.148512227
 30
0.0
 40
0.187007874
100
AcDbArc
 50
180.0
 51
270.0
  0
ARC
  5
C0D
330
21D
100
AcDbEntity
  8
CURVE1
  6
Continuous
 62
     7
100
AcDbCircle
 10
17.0318282051
 20
11.148512227
 30
0.0
 40
0.187007874
100
AcDbArc
 50
270.0
 51
360.0
  0
ARC
  5
C0E
330
21D
100
AcDbEntity
  8
0
  6
Continuous
 62
     7
100
AcDbCircle
 10
17.0318282051
 20
11.148512227
 30
0.0
 40
0.187007874
100
AcDbArc
 50
270.0
 51
360.0
  0
ARC
  5
C0F
330
21D
100
AcDbEntity
  8
0
  6
Continuous
 62
     7
100
AcDbCircle
 10
185.449800352
 20
165.9273238835
 30
0.0
 40
228.1229211204
100
AcDbArc
 50
222.1546791092
 51
222.290513405
  0
ARC
  5
C10
330
21D
100
AcDbEntity
  8
0
  6
Continuous
 62
     7
100
AcDbCircle
 10
7.3489610864
 20
164.8834275292
 30
0.0
 40
148.0412213726
100
AcDbArc
 50
269.9392545886
 51
270.0610766044
  0
ARC
  5
C11
330
21D
100
AcDbEntity
  8
0
  6
Continuous
 62
     7
100
AcDbCircle
 10
14.4524907805
 20
111.5069782388
 30
0.0
 40
100.1190329237
100
AcDbArc
 50
265.5608070941
 51
270.7746501784
  0
ARC
  5
C12
330
21D
100
AcDbEntity
  8
0
  6
Continuous
 62
     7
100
AcDbCircle
 10
14.3870281287
 20
111.4640061891
 30
0.0
 40
100.0090858596
100
AcDbArc
 50
265.596293058
 51
270.8124839647
  0
ARC
  5
C13
330
21D
100
AcDbEntity
  8
0
  6
Continuous
 62
     7
100
AcDbCircle
 10
34.4958657399
 20
18.1937633329
 30
0.0
 40
27.4237355015
100
AcDbArc
 50
182.3568719965
 51
182.8207727142
  0
ARC
  5
C14
330
21D
100
AcDbEntity
  8
0
  6
Continuous
 62
     7
100
AcDbCircle
 10
-10.6912538662
 20
25.9117561172
 30
0.0
 40
21.4051321802
100
AcDbArc
 50
327.068781308
 51
327.4290460237
  0
ARC
  5
C15
330
21D
100
AcDbEntity
  8
0
  6
Continuous
 62
     7
100
AcDbCircle
 10
24.7704761532
 20
18.975887132
 30
0.0
 40
17.7692644761
100
AcDbArc
 50
192.6101156841
 51
193.0485900802
  0
ARC
  5
C16
330
21D
100
AcDbEntity
  8
0
  6
Continuous
 62
     7
100
AcDbCircle
 10
2.544989751899997
 20
27.4810598786
 30
0.0
 40
13.7452451997
100
AcDbArc
 50
289.3426950632
 51
289.8145346135
  0
ARC
  5
C17
330
21D
100
AcDbEntity
  8
0
  6
Continuous
 62
     7
100
AcDbCircle
 10
15.6426375409
 20
24.2936426284
 30
0.0
 40
12.0646627576
100
AcDbArc
 50
266.9985531658
 51
268.1076920474
  0
ARC
  5
C18
330
21D
100
AcDbEntity
  8
0
  6
Continuous
 62
     7
100
AcDbCircle
 10
15.3371033477
 20
16.4309382254
 30
0.0
 40
1.0103635629
100
AcDbArc
 50
84.96559375169999
 51
90.0046089289
  0
ARC
  5
C19
330
21D
100
AcDbEntity
  8
0
  6
Continuous
 62
     7
100
AcDbCircle
 10
15.3383969351
 20
16.4985529414
 30
0.0
 40
0.9124750141999999
100
AcDbArc
 50
85.01137975659998
 51
90.07946977000001
  0
ARC
  5
C1A
330
21D
100
AcDbEntity
  8
0
  6
Continuous
 62
     7
100
AcDbCircle
 10
15.4287434428
 20
16.442790932
 30
0.0
 40
0.9061051154000001
100
AcDbArc
 50
0.0008016574
 51
2.272196098499998
  0
ARC
  5
C1B
330
21D
100
AcDbEntity
  8
0
  6
Continuous
 62
     7
100
AcDbCircle
 10
15.0525762763
 20
16.437804544
 30
0.0
 40
0.8525810415
100
AcDbArc
 50
72.0630979964
 51
80.6995725312
  0
ARC
  5
C1C
330
21D
100
AcDbEntity
  8
0
  6
Continuous
 62
     7
100
AcDbCircle
 10
15.4985964464
 20
16.4425147389
 30
0.0
 40
0.8103635462999998
100
AcDbArc
 50
0.0204242689
 51
2.3273668112
  0
ARC
  5
C1D
330
21D
100
AcDbEntity
  8
0
  6
Continuous
 62
     7
100
AcDbCircle
 10
7.158401790399999
 20
16.3012207982
 30
0.0
 40
0.8065769271999998
100
AcDbArc
 50
94.64868832409999
 51
96.3141111494
  0
ARC
  5
C1E
330
21D
100
AcDbEntity
  8
0
  6
Continuous
 62
     7
100
AcDbCircle
 10
7.180377094299999
 20
16.3256687192
 30
0.0
 40
0.7961899102
100
AcDbArc
 50
177.8527040255
 51
179.9993622591
  0
ARC
  5
C1F
330
21D
100
AcDbEntity
  8
0
  6
Continuous
 62
     7
100
AcDbCircle
 10
7.1539008265
 20
16.3622827386
 30
0.0
 40
0.7090093388
100
AcDbArc
 50
94.7483011725
 51
96.3603766451
  0
ARC
  5
C20
330
21D
100
AcDbEntity
  8
0
  6
Continuous
 62
     7
100
AcDbCircle
 10
7.1089999895
 20
16.3256688927
 30
0.0
 40
0.6982363698000002
100
AcDbArc
 50
177.8368515816
 51
179.9992870314
  0
ARC
  5
C21
330
21D
100
AcDbEntity
  8
0
  6
Continuous
 62
     7
100
AcDbCircle
 10
7.156893999299999
 20
16.3257542682
 30
0.0
 40
0.5191141097
100
AcDbArc
 50
95.6876046042
 51
180.0084640976
  0
ARC
  5
C22
330
21D
100
AcDbEntity
  8
CURVE1
  6
Continuous
 62
     7
100
AcDbCircle
 10
5.693245527899999
 20
18.1563862428
 30
0.0
 40
0.187007874
100
AcDbArc
 50
90.0
 51
180.0
  0
ARC
  5
C23
330
21D
100
AcDbEntity
  8
CURVE1
  6
Continuous
 62
     7
100
AcDbCircle
 10
17.0318282051
 20
18.1563862428
 30
0.0
 40
0.187007874
100
AcDbArc
 50
0.0
 51
90.0
  0
ARC
  5
C24
330
21D
100
AcDbEntity
  8
0
  6
Continuous
 62
     7
100
AcDbCircle
 10
17.0318282051
 20
18.1563862428
 30
0.0
 40
0.187007874
100
AcDbArc
 50
0.0
 51
90.0
  0
SPLINE
  5
CCD
330
21D
100
AcDbEntity
  8
0
  6
Continuous
 62
     7
100
AcDbSpline
210
0.0
220
0.0
230
1.0
 70
     8
 71
     3
 72
    15
 73
    11
 74
     0
 42
0.0000000001
 43
0.0000000001
 40
0.0
 40
0.0
 40
0.0
 40
0.0
 40
0.3808557865
 40
0.5529748093000002
 40
0.7039183246
 40
0.8279316907
 40
0.9203353561
 40
0.9778028348999999
 40
0.9929982868999999
 40
1.0
 40
1.0
 40
1.0
 40
1.0
 10
6.4304450297
 20
14.6524492349
 30
0.0
 10
6.4304450297
 20
14.6493102568
 30
0.0
 10
6.430488128999997
 20
14.6447530532
 30
0.0
 10
6.4306467372
 20
14.6389519117
 30
0.0
 10
6.430798926599996
 20
14.635273841
 30
0.0
 10
6.4309865884
 20
14.6322412561
 30
0.0
 10
6.431182877899999
 20
14.6300170839
 30
0.0
 10
6.431394155199997
 20
14.6286262145
 30
0.0
 10
6.431554537
 20
14.6280350851
 30
0.0
 10
6.4316751165
 20
14.6278429475
 30
0.0
 10
6.4317328239
 20
14.6278429475
 30
0.0
  0
SPLINE
  5
CCE
330
21D
100
AcDbEntity
  8
0
  6
Continuous
 62
     7
100
AcDbSpline
210
0.0
220
0.0
230
1.0
 70
     8
 71
     3
 72
    15
 73
    11
 74
     0
 42
0.0000000001
 43
0.0000000001
 40
0.0
 40
0.0
 40
0.0
 40
0.0
 40
0.0070017131
 40
0.0221971651
 40
0.0796646439
 40
0.1720683093
 40
0.2960816754
 40
0.4470251907
 40
0.6191442135000002
 40
1.0
 40
1.0
 40
1.0
 40
1.0
 10
6.4317328239
 20
14.6770555223
 30
0.0
 10
6.4316751165
 20
14.6770555223
 30
0.0
 10
6.431554537
 20
14.6768633847
 30
0.0
 10
6.431394155199997
 20
14.6762722553
 30
0.0
 10
6.431182877899999
 20
14.6748813859
 30
0.0
 10
6.4309865884
 20
14.6726572137
 30
0.0
 10
6.430798926599996
 20
14.6696246288
 30
0.0
 10
6.4306467372
 20
14.6659465581
 30
0.0
 10
6.430488128999997
 20
14.6601454166
 30
0.0
 10
6.4304450297
 20
14.655588213
 30
0.0
 10
6.4304450297
 20
14.6524492349
 30
0.0
  0
LINE
  5
CCF
330
21D
100
AcDbEntity
  8
0
  6
Continuous
 62
     7
100
AcDbLine
 10
14.9182497287
 20
16.3929641832
 30
0.0
 11
8.558597604899999
 21
16.3810950967
 31
0.0
  0
SPLINE
  5
CD0
330
21D
100
AcDbEntity
  8
0
  6
Continuous
 62
     7
100
AcDbSpline
210
0.0
220
0.0
230
1.0
 70
     8
 71
     3
 72
    21
 73
    17
 74
     0
 42
0.0000000001
 43
0.0000000001
 40
0.0
 40
0.0
 40
0.0
 40
0.0
 40
0.0156241916
 40
0.031249021
 40
0.0624990131
 40
0.0937490907
 40
0.124999183
 40
0.1874993323
 40
0.2499994802
 40
0.3124996308
 40
0.3749997874
 40
0.4999997161
 40
0.6249996984
 40
0.7499997614
 40
0.8749998696
 40
1.0
 40
1.0
 40
1.0
 40
1.0
 10
7.0930320135
 20
17.105144384
 30
0.0
 10
7.135925840099997
 20
17.1078984167
 30
0.0
 10
7.221678642699997
 20
17.1139674083
 30
0.0
 10
7.3931401032
 20
17.1267116132
 30
0.0
 10
7.6074467312
 20
17.1429613194
 30
0.0
 10
7.8646390604
 20
17.1621443173
 30
0.0
 10
8.207609810099999
 20
17.1870804509
 30
0.0
 10
8.6364267956
 20
17.2168128732
 30
0.0
 10
9.1511760923
 20
17.2499653754
 30
0.0
 10
9.666086188099999
 20
17.2805234038
 30
0.0
 10
10.3528302118
 20
17.317764356
 30
0.0
 10
11.2116055083
 20
17.3577171442
 30
0.0
 10
12.2425729019
 20
17.3950376731
 30
0.0
 10
13.273872007
 20
17.4217132638
 30
0.0
 10
14.3053908632
 20
17.4377318338
 30
0.0
 10
14.9931467382
 20
17.4412944823
 30
0.0
 10
15.3370220731
 20
17.4413017851
 30
0.0
  0
SPLINE
  5
CD1
330
21D
100
AcDbEntity
  8
0
  6
Continuous
 62
     7
100
AcDbSpline
210
0.0
220
0.0
230
1.0
 70
     8
 71
     3
 72
    15
 73
    11
 74
     0
 42
0.0000000001
 43
0.0000000001
 40
0.0
 40
0.0
 40
0.0
 40
0.0
 40
0.1249873169
 40
0.2499830533
 40
0.3749837879
 40
0.4999877915999999
 40
0.6249932925000003
 40
0.7499983667
 40
0.8750011845999999
 40
1.0
 40
1.0
 40
1.0
 40
1.0
 10
6.3847462647
 20
16.3555008502
 30
0.0
 10
6.3841067019
 20
16.4018960796
 30
0.0
 10
6.3917942386
 20
16.4950587962
 30
0.0
 10
6.429691712799997
 20
16.6298443128
 30
0.0
 10
6.492275505399999
 20
16.7551293397
 30
0.0
 10
6.577074246
 20
16.8665556095
 30
0.0
 10
6.6810056819
 20
16.9603825587
 30
0.0
 10
6.800486868099999
 20
17.0334105595
 30
0.0
 10
6.931385300499999
 20
17.0830368362
 30
0.0
 10
7.023436366499997
 20
17.0992382594
 30
0.0
 10
7.069695180599999
 20
17.1029049486
 30
0.0
  0
SPLINE
  5
CD2
330
21D
100
AcDbEntity
  8
0
  6
Continuous
 62
     7
100
AcDbSpline
210
0.0
220
0.0
230
1.0
 70
     8
 71
     3
 72
    17
 73
    13
 74
     0
 42
0.0000000001
 43
0.0000000001
 40
0.0
 40
0.0
 40
0.0
 40
0.0
 40
0.1248758647
 40
0.2498178766
 40
0.3747892572
 40
0.4373574882
 40
0.499927775
 40
0.624916265
 40
0.7499036607999999
 40
0.8124723765
 40
0.8750380561
 40
1.0
 40
1.0
 40
1.0
 40
1.0
 10
6.0262985445
 20
16.7985070448
 30
0.0
 10
6.023852482
 20
16.8455477776
 30
0.0
 10
6.0278051233
 20
16.9403820931
 30
0.0
 10
6.0611514434
 20
17.078648992
 30
0.0
 10
6.1111240112
 20
17.1863418903
 30
0.0
 10
6.1631845665
 20
17.2651805685
 30
0.0
 10
6.222796694099997
 20
17.3384890965
 30
0.0
 10
6.3105622469
 20
17.4184443839
 30
0.0
 10
6.4124149857
 20
17.4794427867
 30
0.0
 10
6.499795240599999
 20
17.5154008509
 30
0.0
 10
6.5902624719
 20
17.5425404406
 30
0.0
 10
6.6608855984
 20
17.5526609058
 30
0.0
 10
6.707976921599997
 20
17.5547299715
 30
0.0
  0
SPLINE
  5
CD3
330
21D
100
AcDbEntity
  8
0
  6
Continuous
 62
     7
100
AcDbSpline
210
0.0
220
0.0
230
1.0
 70
     8
 71
     3
 72
    15
 73
    11
 74
     0
 42
0.0000000001
 43
0.0000000001
 40
0.0
 40
0.0
 40
0.0
 40
0.0
 40
0.1249988154
 40
0.2500016331
 40
0.375006707
 40
0.5000122080000003
 40
0.6250162118000003
 40
0.7500169465000001
 40
0.8750126830999999
 40
1.0
 40
1.0
 40
1.0
 40
1.0
 10
7.069695180599999
 20
12.2019935212
 30
0.0
 10
7.023436366499997
 20
12.2056602105
 30
0.0
 10
6.9313853007
 20
12.2218616339
 30
0.0
 10
6.8004868682
 20
12.27148791
 30
0.0
 10
6.6810056823
 20
12.3445159108
 30
0.0
 10
6.577074246299997
 20
12.4383428598
 30
0.0
 10
6.4922755057
 20
12.5497691298
 30
0.0
 10
6.429691713099999
 20
12.6750541568
 30
0.0
 10
6.3917942386
 20
12.8098396736
 30
0.0
 10
6.3841067019
 20
12.9030023902
 30
0.0
 10
6.3847462647
 20
12.9493976196
 30
0.0
  0
SPLINE
  5
CD4
330
21D
100
AcDbEntity
  8
0
  6
Continuous
 62
     7
100
AcDbSpline
210
0.0
220
0.0
230
1.0
 70
     8
 71
     3
 72
    17
 73
    13
 74
     0
 42
0.0000000001
 43
0.0000000001
 40
0.0
 40
0.0
 40
0.0
 40
0.0
 40
0.1249619436
 40
0.1875276232
 40
0.2500963388
 40
0.3750837344
 40
0.5000722243000002
 40
0.5626425111
 40
0.6252107422
 40
0.750182123
 40
0.8751241351
 40
1.0
 40
1.0
 40
1.0
 40
1.0
 10
6.707976921599997
 20
11.7501684983
 30
0.0
 10
6.6608855985
 20
11.7522375658
 30
0.0
 10
6.5902624725
 20
11.7623580306
 30
0.0
 10
6.4997952407
 20
11.7894976186
 30
0.0
 10
6.412414986699999
 20
11.8254556846
 30
0.0
 10
6.3105622474
 20
11.8864540861
 30
0.0
 10
6.222796694099997
 20
11.9664093729
 30
0.0
 10
6.163184566799999
 20
12.0397179011
 30
0.0
 10
6.111124010399999
 20
12.1185565787
 30
0.0
 10
6.061151442599999
 20
12.2262494773
 30
0.0
 10
6.027805121699999
 20
12.3645163764
 30
0.0
 10
6.0238524823
 20
12.4593506921
 30
0.0
 10
6.0262985445
 20
12.506391425
 30
0.0
  0
SPLINE
  5
CD5
330
21D
100
AcDbEntity
  8
0
  6
Continuous
 62
     7
100
AcDbSpline
210
0.0
220
0.0
230
1.0
 70
     8
 71
     3
 72
    21
 73
    17
 74
     0
 42
0.0000000001
 43
0.0000000001
 40
0.0
 40
0.0
 40
0.0
 40
0.0
 40
0.1250001221
 40
0.2500002239
 40
0.3750002817
 40
0.5000002637
 40
0.6250001951
 40
0.6875003540000001
 40
0.7500005073999999
 40
0.8125006584999997
 40
0.8750008112999998
 40
0.9062509053999999
 40
0.9375009847999999
 40
0.9687509786999999
 40
0.9843758087999999
 40
1.0
 40
1.0
 40
1.0
 40
1.0
 10
15.3370229748
 20
11.8635966847
 30
0.0
 10
14.9931467269
 20
11.8636039838
 30
0.0
 10
14.3053890203
 20
11.8671666115
 30
0.0
 10
13.273867413
 20
11.8831853279
 30
0.0
 10
12.2425655362
 20
11.9098610423
 30
0.0
 10
11.2115953469
 20
11.947181743
 30
0.0
 10
10.3528177072
 20
11.9871347824
 30
0.0
 10
9.6660717961
 20
12.024375893
 30
0.0
 10
9.151160282599999
 20
12.0549341065
 30
0.0
 10
8.636409564899999
 20
12.0880867846
 30
0.0
 10
8.207591397199999
 20
12.1178194007
 30
0.0
 10
7.864619699199999
 20
12.1427556672
 30
0.0
 10
7.6074266632
 20
12.1619388256
 30
0.0
 10
7.3931194423
 20
12.1781886101
 30
0.0
 10
7.221657507
 20
12.190932809
 30
0.0
 10
7.1359044749
 20
12.1970018972
 30
0.0
 10
7.093010526
 20
12.1997558331
 30
0.0
  0
LINE
  5
CD6
330
21D
100
AcDbEntity
  8
0
  6
Continuous
 62
     7
100
AcDbLine
 10
15.42576680099999
 20
11.8674944115
 30
0.0
 11
15.8051614721
 21
11.4649754323
 31
0.0
  0
SPLINE
  5
CD7
330
21D
100
AcDbEntity
  8
0
  6
Continuous
 62
     7
100
AcDbSpline
210
0.0
220
0.0
230
1.0
 70
     8
 71
     3
 72
    15
 73
    11
 74
     0
 42
0.0000000001
 43
0.0000000001
 40
0.0
 40
0.0
 40
0.0
 40
0.0
 40
0.1249971584
 40
0.250012595
 40
0.3750365154
 40
0.5000617946000001
 40
0.6250816973
 40
0.7500877675
 40
0.8750672671
 40
1.0
 40
1.0
 40
1.0
 40
1.0
 10
7.075355596799999
 20
12.2379705089
 30
0.0
 10
7.0313886044
 20
12.2428712117
 30
0.0
 10
6.944120954299999
 20
12.260529996
 30
0.0
 10
6.8201194101
 20
12.3097232489
 30
0.0
 10
6.706729337
 20
12.3800983804
 30
0.0
 10
6.6075963921
 20
12.4694322721
 30
0.0
 10
6.525840524099997
 20
12.5748935809
 30
0.0
 10
6.464041899299999
 20
12.6931517443
 30
0.0
 10
6.4241310095
 20
12.8203989013
 30
0.0
 10
6.412929795299997
 20
12.9086896037
 30
0.0
 10
6.411261182899999
 20
12.9528745798
 30
0.0
  0
LINE
  5
CD8
330
21D
100
AcDbEntity
  8
0
  6
Continuous
 62
     7
100
AcDbLine
 10
7.095328847
 20
12.2388970123
 30
0.0
 11
15.0251977515
 21
12.3766372799
 31
0.0
  0
LINE
  5
CD9
330
21D
100
AcDbEntity
  8
0
  6
Continuous
 62
     7
100
AcDbLine
 10
8.5414511894
 20
12.460708882
 30
0.0
 11
14.9011041005
 21
12.4490344974
 31
0.0
  0
LINE
  5
CDA
330
21D
100
AcDbEntity
  8
0
  6
Continuous
 62
     7
100
AcDbLine
 10
14.901103709
 20
16.8558639717
 30
0.0
 11
8.5414511894
 21
16.8441895878
 31
0.0
  0
SPLINE
  5
CDB
330
21D
100
AcDbEntity
  8
0
  6
Continuous
 62
     7
100
AcDbSpline
210
0.0
220
0.0
230
1.0
 70
     8
 71
     3
 72
    15
 73
    11
 74
     0
 42
0.0000000001
 43
0.0000000001
 40
0.0
 40
0.0
 40
0.0
 40
0.0
 40
0.1249327329
 40
0.2499122324
 40
0.3749183024
 40
0.4999382050000003
 40
0.6249634842000003
 40
0.7499874048000002
 40
0.8750028415999999
 40
1.0
 40
1.0
 40
1.0
 40
1.0
 10
6.411261182899999
 20
16.35202389
 30
0.0
 10
6.412929795399999
 20
16.3962088661
 30
0.0
 10
6.4241310095
 20
16.4844995684
 30
0.0
 10
6.464041899199999
 20
16.6117467253
 30
0.0
 10
6.525840523999997
 20
16.7300048887
 30
0.0
 10
6.6075963919
 20
16.8354661974
 30
0.0
 10
6.706729336699999
 20
16.9248000892
 30
0.0
 10
6.82011941
 20
16.9951752208
 30
0.0
 10
6.944120954199999
 20
17.0443684737
 30
0.0
 10
7.0313886044
 20
17.0620272581
 30
0.0
 10
7.075355596799999
 20
17.0669279609
 30
0.0
  0
SPLINE
  5
CDC
330
21D
100
AcDbEntity
  8
0
  6
Continuous
 62
     7
100
AcDbSpline
210
0.0
220
0.0
230
1.0
 70
     8
 71
     3
 72
    15
 73
    11
 74
     0
 42
0.0000000001
 43
0.0000000001
 40
0.0
 40
0.0
 40
0.0
 40
0.0
 40
0.3808557865
 40
0.5529748093000002
 40
0.7039183246
 40
0.8279316907
 40
0.9203353561
 40
0.9778028348999999
 40
0.9929982868999999
 40
1.0
 40
1.0
 40
1.0
 40
1.0
 10
6.433020618099999
 20
14.6524492349
 30
0.0
 10
6.433020618099999
 20
14.655588213
 30
0.0
 10
6.432977518899997
 20
14.6601454166
 30
0.0
 10
6.432818910599999
 20
14.6659465581
 30
0.0
 10
6.4326667212
 20
14.6696246288
 30
0.0
 10
6.4324790595
 20
14.6726572137
 30
0.0
 10
6.432282769999997
 20
14.6748813859
 30
0.0
 10
6.432071492699997
 20
14.6762722553
 30
0.0
 10
6.4319111109
 20
14.6768633847
 30
0.0
 10
6.431790531399999
 20
14.6770555223
 30
0.0
 10
6.4317328239
 20
14.6770555223
 30
0.0
  0
SPLINE
  5
CDD
330
21D
100
AcDbEntity
  8
0
  6
Continuous
 62
     7
100
AcDbSpline
210
0.0
220
0.0
230
1.0
 70
     8
 71
     3
 72
    11
 73
     7
 74
     0
 42
0.0000000001
 43
0.0000000001
 40
0.0
 40
0.0
 40
0.0
 40
0.0
 40
0.249914071
 40
0.4999595134000003
 40
0.7500358084000001
 40
1.0
 40
1.0
 40
1.0
 40
1.0
 10
15.0816311252
 20
16.2271238414
 30
0.0
 10
15.0816456825
 20
16.2485303171
 30
0.0
 10
15.0733006033
 20
16.2918110065
 30
0.0
 10
15.0373153394
 20
16.3469361906
 30
0.0
 10
14.9829944211
 20
16.38424489
 30
0.0
 10
14.9396604652
 20
16.393004107
 30
0.0
 10
14.9182497287
 20
16.3929641832
 30
0.0
  0
LINE
  5
CDE
330
21D
100
AcDbEntity
  8
0
  6
Continuous
 62
     7
100
AcDbLine
 10
7.0953408997
 20
12.2388972216
 30
0.0
 11
15.0109176393
 21
12.2455300202
 31
0.0
  0
SPLINE
  5
CDF
330
21D
100
AcDbEntity
  8
0
  6
Continuous
 62
     7
100
AcDbSpline
210
0.0
220
0.0
230
1.0
 70
     8
 71
     3
 72
    21
 73
    17
 74
     0
 42
0.0000000001
 43
0.0000000001
 40
0.0
 40
0.0
 40
0.0
 40
0.0
 40
0.1250004337
 40
0.2500008468
 40
0.3750012150999999
 40
0.5000015071
 40
0.6250017468
 40
0.6875020584
 40
0.7500023636
 40
0.8125026635999999
 40
0.8750029531999999
 40
0.9062531011
 40
0.9375031914
 40
0.9687530029999999
 40
0.9843774105000001
 40
1.0
 40
1.0
 40
1.0
 40
1.0
 10
15.3371322254
 20
11.8938713856
 30
0.0
 10
14.9933314223
 20
11.8941368092
 30
0.0
 10
14.3057273083
 20
11.8982027351
 30
0.0
 10
13.2744431657
 20
11.9149307831
 30
0.0
 10
12.2433849962
 20
11.9422728334
 30
0.0
 10
11.212663949
 20
11.9802184719
 30
0.0
 10
10.3540979938
 20
12.0206635044
 30
0.0
 10
9.6675241326
 20
12.0582919017
 30
0.0
 10
9.1527432783
 20
12.0891421845
 30
0.0
 10
8.638125557999995
 20
12.1225991497
 30
0.0
 10
8.2094214507
 20
12.1526133091
 30
0.0
 10
7.8665457083
 20
12.1778249483
 30
0.0
 10
7.6094292945
 20
12.197261693
 30
0.0
 10
7.395193500099997
 20
12.2137992186
 30
0.0
 10
7.2238009419
 20
12.2268760132
 30
0.0
 10
7.138088752899999
 20
12.2331674455
 30
0.0
 10
7.095216551
 20
12.2360400839
 30
0.0
  0
SPLINE
  5
CE0
330
21D
100
AcDbEntity
  8
0
  6
Continuous
 62
     7
100
AcDbSpline
210
0.0
220
0.0
230
1.0
 70
     8
 71
     3
 72
    17
 73
    13
 74
     0
 42
0.0000000001
 43
0.0000000001
 40
0.0
 40
0.0
 40
0.0
 40
0.0
 40
0.2501870561
 40
0.3752314758
 40
0.5002433925
 40
0.6252230410000001
 40
0.7501709070000003
 40
0.8126333088999999
 40
0.8750886829999997
 40
0.9375390506
 40
0.9687649944
 40
1.0
 40
1.0
 40
1.0
 40
1.0
 10
15.0505540959
 20
12.0137997228
 30
0.0
 10
14.3870623477
 20
12.0303858942
 30
0.0
 10
13.3919789444
 20
12.0562322734
 30
0.0
 10
12.0654212059
 20
12.0924249333
 30
0.0
 10
11.0709141657
 20
12.120377297
 30
0.0
 10
10.0766851763
 20
12.1490938872
 30
0.0
 10
9.248336682099999
 20
12.1736214035
 30
0.0
 10
8.585790605899999
 20
12.1935721777
 30
0.0
 10
8.0889679454
 20
12.2086798596
 30
0.0
 10
7.6749749198
 20
12.2213847239
 30
0.0
 10
7.343763800499999
 20
12.2315170095
 30
0.0
 10
7.1781428498
 20
12.2365455624
 30
0.0
 10
7.0953156748
 20
12.2388979355
 30
0.0
  0
SPLINE
  5
CE1
330
21D
100
AcDbEntity
  8
0
  6
Continuous
 62
     7
100
AcDbSpline
210
0.0
220
0.0
230
1.0
 70
     8
 71
     3
 72
    11
 73
     7
 74
     0
 42
0.0000000001
 43
0.0000000001
 40
0.0
 40
0.0
 40
0.0
 40
0.0
 40
0.1729325865
 40
0.396203418
 40
0.6715976307
 40
1.0
 40
1.0
 40
1.0
 40
1.0
 10
15.2674607611
 20
11.9361582987
 30
0.0
 10
15.2562011306
 20
11.9432680623
 30
0.0
 10
15.2287921352
 20
11.956944107
 30
0.0
 10
15.1805177077
 20
11.9755460772
 30
0.0
 10
15.1198095013
 20
11.99490229
 30
0.0
 10
15.0750004065
 20
12.0073288986
 30
0.0
 10
15.0505540959
 20
12.0137997228
 30
0.0
  0
SPLINE
  5
CE2
330
21D
100
AcDbEntity
  8
0
  6
Continuous
 62
     7
100
AcDbSpline
210
0.0
220
0.0
230
1.0
 70
     8
 71
     3
 72
     9
 73
     5
 74
     0
 42
0.0000000001
 43
0.0000000001
 40
0.0
 40
0.0
 40
0.0
 40
0.0
 40
0.2531667263
 40
1.0
 40
1.0
 40
1.0
 40
1.0
 10
15.3371322254
 20
11.8938713856
 30
0.0
 10
15.3312038041
 20
11.8973583323
 30
0.0
 10
15.3078231066
 20
11.9111928482
 30
0.0
 10
15.284616356
 20
11.9253255859
 30
0.0
 10
15.2674607611
 20
11.9361582987
 30
0.0
  0
SPLINE
  5
CE3
330
21D
100
AcDbEntity
  8
0
  6
Continuous
 62
     7
100
AcDbSpline
210
0.0
220
0.0
230
1.0
 70
     8
 71
     3
 72
    21
 73
    17
 74
     0
 42
0.0000000001
 43
0.0000000001
 40
0.0
 40
0.0
 40
0.0
 40
0.0
 40
0.0156225907
 40
0.0312469977
 40
0.0624968075
 40
0.093746896
 40
0.124997042
 40
0.1874973282
 40
0.249997625
 40
0.3124979274
 40
0.3749982367
 40
0.4999984734
 40
0.6249987657000001
 40
0.7499991389
 40
0.8749995582
 40
1.0
 40
1.0
 40
1.0
 40
1.0
 10
7.095210002399999
 20
17.0688582847
 30
0.0
 10
7.1380822399
 20
17.0717308797
 30
0.0
 10
7.223794502499997
 20
17.0780221365
 30
0.0
 10
7.395187177999999
 20
17.0910989012
 30
0.0
 10
7.6094231083
 20
17.107636425
 30
0.0
 10
7.8665396861
 20
17.1270731396
 30
0.0
 10
8.209415642899999
 20
17.1522847971
 30
0.0
 10
8.63812002
 20
17.1822989749
 30
0.0
 10
9.152738064699999
 20
17.2157559835
 30
0.0
 10
9.667519246900001
 20
17.2466063027
 30
0.0
 10
10.3540935528
 20
17.2842347663
 30
0.0
 10
11.2126600797
 20
17.3246798544
 30
0.0
 10
12.2433818363
 20
17.362625542
 30
0.0
 10
13.2744407392
 20
17.3899677279
 30
0.0
 10
14.3057256414
 20
17.4066956576
 30
0.0
 10
14.9933302637
 20
17.4107616565
 30
0.0
 10
15.3371313239
 20
17.4110270835
 30
0.0
  0
SPLINE
  5
CE4
330
21D
100
AcDbEntity
  8
0
  6
Continuous
 62
     7
100
AcDbSpline
210
0.0
220
0.0
230
1.0
 70
     8
 71
     3
 72
    17
 73
    13
 74
     0
 42
0.0000000001
 43
0.0000000001
 40
0.0
 40
0.0
 40
0.0
 40
0.0
 40
0.0312350059
 40
0.0624609492
 40
0.1249113165
 40
0.18736669
 40
0.2498290913
 40
0.3747769563
 40
0.4997566043
 40
0.6247685212
 40
0.7498129415000001
 40
1.0
 40
1.0
 40
1.0
 40
1.0
 10
7.0953288558
 20
17.0660012469
 30
0.0
 10
7.178156107799996
 20
17.0683513949
 30
0.0
 10
7.3437769911
 20
17.0733832063
 30
0.0
 10
7.674988206
 20
17.0835138802
 30
0.0
 10
8.088981270399999
 20
17.0962195004
 30
0.0
 10
8.585804011799995
 20
17.1113269095
 30
0.0
 10
9.248350183699999
 20
17.1312777343
 30
0.0
 10
10.0766988031
 20
17.1558051738
 30
0.0
 10
11.0709279443
 20
17.1845217315
 30
0.0
 10
12.0654351411
 20
17.2124740448
 30
0.0
 10
13.3919930948
 20
17.2486666727
 30
0.0
 10
14.3870766624
 20
17.274512976
 30
0.0
 10
15.0505685201
 20
17.2910991385
 30
0.0
  0
SPLINE
  5
CE5
330
21D
100
AcDbEntity
  8
0
  6
Continuous
 62
     7
100
AcDbSpline
210
0.0
220
0.0
230
1.0
 70
     8
 71
     3
 72
    16
 73
    12
 74
     0
 42
0.0000000001
 43
0.0000000001
 40
0.0
 40
0.0
 40
0.0
 40
0.0
 40
0.0133435071
 40
0.0326449622
 40
0.0904903537
 40
0.1747312043
 40
0.285605035
 40
0.4232866160000003
 40
0.5880131589000001
 40
0.7801122720000003
 40
1.0
 40
1.0
 40
1.0
 40
1.0
 10
15.5565593544
 20
13.1036055437
 30
0.0
 10
15.5569885881
 20
13.1043044868
 30
0.0
 10
15.5584849891
 20
13.1057121094
 30
0.0
 10
15.5632171194
 20
13.1086347295
 30
0.0
 10
15.5725571895
 20
13.112200621
 30
0.0
 10
15.5876061567
 20
13.1161105295
 30
0.0
 10
15.6078098279
 20
13.1195108682
 30
0.0
 10
15.6331113326
 20
13.1219504456
 30
0.0
 10
15.6635126255
 20
13.1229449986
 30
0.0
 10
15.6989689615
 20
13.1220282656
 30
0.0
 10
15.7242247682
 20
13.119968923
 30
0.0
 10
15.7376647986
 20
13.1185338306
 30
0.0
  0
SPLINE
  5
CE6
330
21D
100
AcDbEntity
  8
0
  6
Continuous
 62
     7
100
AcDbSpline
210
0.0
220
0.0
230
1.0
 70
     8
 71
     3
 72
     9
 73
     5
 74
     0
 42
0.0000000001
 43
0.0000000001
 40
0.0
 40
0.0
 40
0.0
 40
0.0
 40
0.4999999999000001
 40
1.0
 40
1.0
 40
1.0
 40
1.0
 10
15.5565593544
 20
13.1036055437
 30
0.0
 10
15.5562232818
 20
13.6198866178
 30
0.0
 10
15.5561913027
 20
14.6524490543
 30
0.0
 10
15.5562232818
 20
15.6850114908
 30
0.0
 10
15.5565593542
 20
16.201292565
 30
0.0
  0
SPLINE
  5
CE7
330
21D
100
AcDbEntity
  8
0
  6
Continuous
 62
     7
100
AcDbSpline
210
0.0
220
0.0
230
1.0
 70
     8
 71
     3
 72
    16
 73
    12
 74
     0
 42
0.0000000001
 43
0.0000000001
 40
0.0
 40
0.0
 40
0.0
 40
0.0
 40
0.2198870738
 40
0.4119850465
 40
0.5767104315
 40
0.7143912065000002
 40
0.8252648398000001
 40
0.909506241
 40
0.967352962
 40
0.9866553718
 40
1.0
 40
1.0
 40
1.0
 40
1.0
 10
15.7376646883
 20
16.1863646373
 30
0.0
 10
15.724224699
 20
16.1849287564
 30
0.0
 10
15.69896894
 20
16.182868148
 30
0.0
 10
15.6635125841
 20
16.1819503048
 30
0.0
 10
15.6331112711
 20
16.1829444914
 30
0.0
 10
15.6078097503
 20
16.1853842634
 30
0.0
 10
15.5876060666
 20
16.1887851811
 30
0.0
 10
15.5725570843
 20
16.1926958672
 30
0.0
 10
15.5632170349
 20
16.1962625053
 30
0.0
 10
15.5584849449
 20
16.1991856693
 30
0.0
 10
15.556988577
 20
16.2005935285
 30
0.0
 10
15.5565593542
 20
16.201292565
 30
0.0
  0
SPLINE
  5
CE8
330
21D
100
AcDbEntity
  8
0
  6
Continuous
 62
     7
100
AcDbSpline
210
0.0
220
0.0
230
1.0
 70
     8
 71
     3
 72
     9
 73
     5
 74
     0
 42
0.0000000001
 43
0.0000000001
 40
0.0
 40
0.0
 40
0.0
 40
0.0
 40
0.6442384206
 40
1.0
 40
1.0
 40
1.0
 40
1.0
 10
15.759334153
 20
16.1949186212
 30
0.0
 10
15.7549564805
 20
16.1924441028
 30
0.0
 10
15.7480449958
 20
16.1887336373
 30
0.0
 10
15.7404262709
 20
16.1866563116
 30
0.0
 10
15.7376646863
 20
16.1863648801
 30
0.0
  0
SPLINE
  5
CE9
330
21D
100
AcDbEntity
  8
0
  6
Continuous
 62
     7
100
AcDbSpline
210
0.0
220
0.0
230
1.0
 70
     8
 71
     3
 72
     9
 73
     5
 74
     0
 42
0.0000000001
 43
0.0000000001
 40
0.0
 40
0.0
 40
0.0
 40
0.0
 40
0.3552469782999999
 40
1.0
 40
1.0
 40
1.0
 40
1.0
 10
15.7376647959
 20
13.1185335152
 30
0.0
 10
15.7404224102
 20
13.1182428365
 30
0.0
 10
15.7480414747
 20
13.1161670839
 30
0.0
 10
15.754952712
 20
13.112455825
 30
0.0
 10
15.7593341493
 20
13.1099798437
 30
0.0
  0
SPLINE
  5
CEA
330
21D
100
AcDbEntity
  8
0
  6
Continuous
 62
     7
100
AcDbSpline
210
0.0
220
0.0
230
1.0
 70
     8
 71
     3
 72
    13
 73
     9
 74
     0
 42
0.0000000001
 43
0.0000000001
 40
0.0
 40
0.0
 40
0.0
 40
0.0
 40
0.3339848637
 40
0.4794258029
 40
0.6101720145
 40
0.7264993871
 40
0.8292135937999999
 40
1.0
 40
1.0
 40
1.0
 40
1.0
 10
15.9198975344
 20
16.4970209136
 30
0.0
 10
15.9111927064
 20
16.4588721513
 30
0.0
 10
15.8965505895
 20
16.4044966896
 30
0.0
 10
15.8713656589
 20
16.3375333997
 30
0.0
 10
15.8518980036
 20
16.2958229583
 30
0.0
 10
15.8309901391
 20
16.2604323908
 30
0.0
 10
15.8031870467
 20
16.2242461437
 30
0.0
 10
15.7775909986
 20
16.2031070338
 30
0.0
 10
15.7593341651
 20
16.1949183817
 30
0.0
  0
SPLINE
  5
CEB
330
21D
100
AcDbEntity
  8
0
  6
Continuous
 62
     7
100
AcDbSpline
210
0.0
220
0.0
230
1.0
 70
     8
 71
     3
 72
     9
 73
     5
 74
     0
 42
0.0000000001
 43
0.0000000001
 40
0.0
 40
0.0
 40
0.0
 40
0.0
 40
0.4298300414
 40
1.0
 40
1.0
 40
1.0
 40
1.0
 10
16.1749966749
 20
16.4666497532
 30
0.0
 10
16.1387183772
 20
16.4729182654
 30
0.0
 10
16.0538202881
 20
16.4845825368
 30
0.0
 10
15.9685637822
 20
16.4929489728
 30
0.0
 10
15.9198975344
 20
16.4970209136
 30
0.0
  0
SPLINE
  5
CEC
330
21D
100
AcDbEntity
  8
0
  6
Continuous
 62
     7
100
AcDbSpline
210
0.0
220
0.0
230
1.0
 70
     8
 71
     3
 72
     9
 73
     5
 74
     0
 42
0.0000000001
 43
0.0000000001
 40
0.0
 40
0.0
 40
0.0
 40
0.0
 40
0.4295897385
 40
1.0
 40
1.0
 40
1.0
 40
1.0
 10
16.1749966749
 20
12.8382487287
 30
0.0
 10
16.1385148716
 20
12.8319465258
 30
0.0
 10
16.0530904494
 20
12.820228837
 30
0.0
 10
15.9673055399
 20
12.8118388664
 30
0.0
 10
15.918317144
 20
12.807757707
 30
0.0
  0
SPLINE
  5
CED
330
21D
100
AcDbEntity
  8
0
  6
Continuous
 62
     7
100
AcDbSpline
210
0.0
220
0.0
230
1.0
 70
     8
 71
     3
 72
    13
 73
     9
 74
     0
 42
0.0000000001
 43
0.0000000001
 40
0.0
 40
0.0
 40
0.0
 40
0.0
 40
0.1703382264
 40
0.2732262392
 40
0.3898607195
 40
0.5209155454
 40
0.6665327420000003
 40
1.0
 40
1.0
 40
1.0
 40
1.0
 10
15.7593341651
 20
13.109980155
 30
0.0
 10
15.7775033046
 20
13.1018310046
 30
0.0
 10
15.80288741
 20
13.0805391379
 30
0.0
 10
15.8303643048
 20
13.0442404682
 30
0.0
 10
15.851048478
 20
13.0087141453
 30
0.0
 10
15.870297836
 20
12.9669143598
 30
0.0
 10
15.8951719681
 20
12.9000076429
 30
0.0
 10
15.909675644
 20
12.8457710128
 30
0.0
 10
15.918317144
 20
12.807757707
 30
0.0
  0
SPLINE
  5
CEE
330
21D
100
AcDbEntity
  8
0
  6
Continuous
 62
     7
100
AcDbSpline
210
0.0
220
0.0
230
1.0
 70
     8
 71
     3
 72
     9
 73
     5
 74
     0
 42
0.0000000001
 43
0.0000000001
 40
0.0
 40
0.0
 40
0.0
 40
0.0
 40
0.7497434784000001
 40
1.0
 40
1.0
 40
1.0
 40
1.0
 10
16.3089599412
 20
12.8620941611
 30
0.0
 10
16.2754594352
 20
12.8562537599
 30
0.0
 10
16.2307641683
 20
12.8485322977
 30
0.0
 10
16.1861530943
 20
12.8403402551
 30
0.0
 10
16.1749966749
 20
12.8382487287
 30
0.0
  0
SPLINE
  5
CEF
330
21D
100
AcDbEntity
  8
0
  6
Continuous
 62
     7
100
AcDbSpline
210
0.0
220
0.0
230
1.0
 70
     8
 71
     3
 72
     9
 73
     5
 74
     0
 42
0.0000000001
 43
0.0000000001
 40
0.0
 40
0.0
 40
0.0
 40
0.0
 40
0.7497423713
 40
1.0
 40
1.0
 40
1.0
 40
1.0
 10
16.3089599412
 20
16.4428036098
 30
0.0
 10
16.2754593695
 20
16.4486435324
 30
0.0
 10
16.2307639507
 20
16.4563644104
 30
0.0
 10
16.1861530658
 20
16.4645577428
 30
0.0
 10
16.1749966749
 20
16.4666497532
 30
0.0
  0
SPLINE
  5
CF0
330
21D
100
AcDbEntity
  8
0
  6
Continuous
 62
     7
100
AcDbSpline
210
0.0
220
0.0
230
1.0
 70
     8
 71
     3
 72
    10
 73
     6
 74
     0
 42
0.0000000001
 43
0.0000000001
 40
0.0
 40
0.0
 40
0.0
 40
0.0
 40
0.3353855681
 40
0.6680077922
 40
1.0
 40
1.0
 40
1.0
 40
1.0
 10
15.027078506
 20
16.92960174109999
 30
0.0
 10
15.0269243667
 20
16.9293933932
 30
0.0
 10
15.0263919661
 20
16.9291211871
 30
0.0
 10
15.0259561338
 20
16.9288513871
 30
0.0
 10
15.0249529927
 20
16.9283383787
 30
0.0
 10
15.025197643
 20
16.9282611668
 30
0.0
  0
SPLINE
  5
CF1
330
21D
100
AcDbEntity
  8
0
  6
Continuous
 62
     7
100
AcDbSpline
210
0.0
220
0.0
230
1.0
 70
     8
 71
     3
 72
    17
 73
    13
 74
     0
 42
0.0000000001
 43
0.0000000001
 40
0.0
 40
0.0
 40
0.0
 40
0.0
 40
0.1248250167
 40
0.2496685268
 40
0.3746701427
 40
0.4372915154000001
 40
0.49992495
 40
0.6250139371
 40
0.7499706328000002
 40
0.8124770734
 40
0.8749888137000001
 40
1.0
 40
1.0
 40
1.0
 40
1.0
 10
15.4257667356
 20
17.437403989
 30
0.0
 10
15.4859266415
 20
17.4334358109
 30
0.0
 10
15.6058264938
 20
17.4142564385
 30
0.0
 10
15.7769860735
 20
17.3524902198
 30
0.0
 10
15.9077039257
 20
17.2751207627
 30
0.0
 10
16.0021912124
 20
17.1994972558
 30
0.0
 10
16.0892677283
 20
17.1153789275
 30
0.0
 10
16.1828271217
 20
16.9956549147
 30
0.0
 10
16.2527927624
 20
16.8608679511
 30
0.0
 10
16.2932390376
 20
16.7469406346
 30
0.0
 10
16.3230724865
 20
16.6297959542
 30
0.0
 10
16.3331476819
 20
16.5390876634
 30
0.0
 10
16.334136135
 20
16.4787151992
 30
0.0
  0
LINE
  5
CF2
330
21D
100
AcDbEntity
  8
0
  6
Continuous
 62
     7
100
AcDbLine
 10
15.4257667356
 20
17.437403989
 30
0.0
 11
15.805161472
 21
17.8399230376
 31
0.0
  0
SPLINE
  5
CF3
330
21D
100
AcDbEntity
  8
0
  6
Continuous
 62
     7
100
AcDbSpline
210
0.0
220
0.0
230
1.0
 70
     8
 71
     3
 72
    18
 73
    14
 74
     0
 42
0.0000000001
 43
0.0000000001
 40
0.0
 40
0.0
 40
0.0
 40
0.0
 40
0.1249827079
 40
0.2499053804
 40
0.3124410276
 40
0.3749741277
 40
0.4375054646
 40
0.5000364978000002
 40
0.5625687852000001
 40
0.6251034192000003
 40
0.7500124519
 40
0.8749859303
 40
1.0
 40
1.0
 40
1.0
 40
1.0
 10
15.805161472
 20
17.8399230376
 30
0.0
 10
15.8673800755
 20
17.8405788969
 30
0.0
 10
15.9921378101
 20
17.8329839703
 30
0.0
 10
16.1443191071
 20
17.7956869521
 30
0.0
 10
16.2589252397
 20
17.7465169023
 30
0.0
 10
16.3399825973
 20
17.6996409933
 30
0.0
 10
16.4145210505
 20
17.6429482541
 30
0.0
 10
16.4811569852
 20
17.5771439016
 30
0.0
 10
16.5388747535
 20
17.5034008893
 30
0.0
 10
16.6032291078
 20
17.3965767295
 30
0.0
 10
16.6601666184
 20
17.2504854277
 30
0.0
 10
16.6945912739
 20
17.0662416038
 30
0.0
 10
16.6990750477
 20
16.94143615579999
 30
0.0
 10
16.6975764786
 20
16.8792165263
 30
0.0
  0
SPLINE
  5
CF4
330
21D
100
AcDbEntity
  8
0
  6
Continuous
 62
     7
100
AcDbSpline
210
0.0
220
0.0
230
1.0
 70
     8
 71
     3
 72
     9
 73
     5
 74
     0
 42
0.0000000001
 43
0.0000000001
 40
0.0
 40
0.0
 40
0.0
 40
0.0
 40
0.4999999999000001
 40
1.0
 40
1.0
 40
1.0
 40
1.0
 10
15.0816311255
 20
13.0777742614
 30
0.0
 10
15.0812734947
 20
13.6026657504
 30
0.0
 10
15.0812537473
 20
14.6524490513
 30
0.0
 10
15.0812734948
 20
15.7022323522
 30
0.0
 10
15.0816311252
 20
16.2271238414
 30
0.0
  0
SPLINE
  5
CF5
330
21D
100
AcDbEntity
  8
0
  6
Continuous
 62
     7
100
AcDbSpline
210
0.0
220
0.0
230
1.0
 70
     8
 71
     3
 72
    11
 73
     7
 74
     0
 42
0.0000000001
 43
0.0000000001
 40
0.0
 40
0.0
 40
0.0
 40
0.0
 40
0.2499641909
 40
0.5000404855000001
 40
0.7500859282
 40
1.0
 40
1.0
 40
1.0
 40
1.0
 10
14.9182501203
 20
12.9119342859
 30
0.0
 10
14.9396608075
 20
12.9118943622
 30
0.0
 10
14.9829946638
 20
12.9206535614
 30
0.0
 10
15.0373154524
 20
12.9579621827
 30
0.0
 10
15.0733006255
 20
13.013087245
 30
0.0
 10
15.0816456827
 20
13.0563678348
 30
0.0
 10
15.0816311255
 20
13.0777742614
 30
0.0
  0
LINE
  5
CF6
330
21D
100
AcDbEntity
  8
0
  6
Continuous
 62
     7
100
AcDbLine
 10
8.5585975954
 20
12.9238033731
 30
0.0
 11
14.9182501203
 21
12.9119342859
 31
0.0
  0
LINE
  5
CF7
330
21D
100
AcDbEntity
  8
0
  6
Continuous
 62
     7
100
AcDbLine
 10
7.5239176883
 20
12.9257346382
 30
0.0
 11
8.5585975954
 21
12.9238033731
 31
0.0
  0
LINE
  5
CF8
330
21D
100
AcDbEntity
  8
0
  6
Continuous
 62
     7
100
AcDbLine
 10
8.5414511894
 20
16.8441895878
 30
0.0
 11
7.5067711988
 21
16.8422902684
 31
0.0
  0
LINE
  5
CF9
330
21D
100
AcDbEntity
  8
0
  6
Continuous
 62
     7
100
AcDbLine
 10
7.1920067123
 20
16.8422893587
 30
0.0
 11
7.105449523899999
 21
16.8423435818
 31
0.0
  0
SPLINE
  5
CFA
330
21D
100
AcDbEntity
  8
0
  6
Continuous
 62
     7
100
AcDbSpline
210
0.0
220
0.0
230
1.0
 70
     8
 71
     3
 72
     9
 73
     5
 74
     0
 42
0.0000000001
 43
0.0000000001
 40
0.0
 40
0.0
 40
0.0
 40
0.0
 40
0.5069653887
 40
1.0
 40
1.0
 40
1.0
 40
1.0
 10
7.1054474672
 20
16.8423127965
 30
0.0
 10
7.1054483575
 20
16.8423179369
 30
0.0
 10
7.1054503121
 20
16.8423280221
 30
0.0
 10
7.105449444199999
 20
16.8423386393
 30
0.0
 10
7.105447681599997
 20
16.8423433968
 30
0.0
  0
SPLINE
  5
CFB
330
21D
100
AcDbEntity
  8
0
  6
Continuous
 62
     7
100
AcDbSpline
210
0.0
220
0.0
230
1.0
 70
     8
 71
     3
 72
     9
 73
     5
 74
     0
 42
0.0000000001
 43
0.0000000001
 40
0.0
 40
0.0
 40
0.0
 40
0.0
 40
0.2498669419
 40
1.0
 40
1.0
 40
1.0
 40
1.0
 10
6.637779895299996
 20
16.3256775814
 30
0.0
 10
6.638005555
 20
16.247583873
 30
0.0
 10
6.6388303308
 20
15.9350424924
 30
0.0
 10
6.639444810099997
 20
15.6225004066
 30
0.0
 10
6.6396281533
 20
15.3880520299
 30
0.0
  0
SPLINE
  5
CFC
330
21D
100
AcDbEntity
  8
0
  6
Continuous
 62
     7
100
AcDbSpline
210
0.0
220
0.0
230
1.0
 70
     8
 71
     3
 72
     9
 73
     5
 74
     0
 42
0.0000000001
 43
0.0000000001
 40
0.0
 40
0.0
 40
0.0
 40
0.0
 40
0.5066876936
 40
1.0
 40
1.0
 40
1.0
 40
1.0
 10
7.1054475671
 20
12.4625856642
 30
0.0
 10
7.105448456299997
 20
12.4625805303
 30
0.0
 10
7.105450296099999
 20
12.4625704225
 30
0.0
 10
7.105449443799997
 20
12.4625598564
 30
0.0
 10
7.105447781399997
 20
12.4625550636
 30
0.0
  0
LINE
  5
CFD
330
21D
100
AcDbEntity
  8
0
  6
Continuous
 62
     7
100
AcDbLine
 10
7.105449523899999
 20
12.4625548888
 30
0.0
 11
7.192004866599996
 21
12.4626091111
 31
0.0
  0
LINE
  5
CFE
330
21D
100
AcDbEntity
  8
0
  6
Continuous
 62
     7
100
AcDbLine
 10
7.5067712019
 20
12.4626082014
 30
0.0
 11
8.5414511894
 21
12.460708882
 31
0.0
  0
SPLINE
  5
CFF
330
21D
100
AcDbEntity
  8
0
  6
Continuous
 62
     7
100
AcDbSpline
210
0.0
220
0.0
230
1.0
 70
     8
 71
     3
 72
    17
 73
    13
 74
     0
 42
0.0000000001
 43
0.0000000001
 40
0.0
 40
0.0
 40
0.0
 40
0.0
 40
0.1250111873
 40
0.1875229284
 40
0.2500293693
 40
0.3749860645
 40
0.5000750496000002
 40
0.5627084833
 40
0.6253298551
 40
0.7503314698000001
 40
0.8751749805999999
 40
1.0
 40
1.0
 40
1.0
 40
1.0
 10
16.3341361613
 20
12.8261832416
 30
0.0
 10
16.33314776849999
 20
12.7658107631
 30
0.0
 10
16.3230726118
 20
12.675102445
 30
0.0
 10
16.2932392298
 20
12.557957721
 30
0.0
 10
16.2527930044
 20
12.4440303588
 30
0.0
 10
16.1828274053
 20
12.309243337
 30
0.0
 10
16.0892680164
 20
12.189519279
 30
0.0
 10
16.0021914856
 20
12.1054009315
 30
0.0
 10
15.9077041725
 20
12.0297774181
 30
0.0
 10
15.7769862693
 20
11.9524079811
 30
0.0
 10
15.6058266187
 20
11.8906418339
 30
0.0
 10
15.4859267239
 20
11.8714625464
 30
0.0
 10
15.42576680109999
 20
11.8674944113
 30
0.0
  0
SPLINE
  5
D00
330
21D
100
AcDbEntity
  8
0
  6
Continuous
 62
     7
100
AcDbSpline
210
0.0
220
0.0
230
1.0
 70
     8
 71
     3
 72
    18
 73
    14
 74
     0
 42
0.0000000001
 43
0.0000000001
 40
0.0
 40
0.0
 40
0.0
 40
0.0
 40
0.1250140682
 40
0.2499875495
 40
0.3748965838
 40
0.4374312184000001
 40
0.4999635062
 40
0.5624945403
 40
0.6250258779
 40
0.6875589784000003
 40
0.7500946267000002
 40
0.8750173004999998
 40
1.0
 40
1.0
 40
1.0
 40
1.0
 10
16.6975764785
 20
12.4256819436
 30
0.0
 10
16.6990750779
 20
12.3634623154
 30
0.0
 10
16.6945912697
 20
12.2386568647
 30
0.0
 10
16.6601666161
 20
12.0544130416
 30
0.0
 10
16.6032290975
 20
11.9083217392
 30
0.0
 10
16.5388747439
 20
11.8014975776
 30
0.0
 10
16.4811569777
 20
11.7277545623
 30
0.0
 10
16.4145210448
 20
11.6619502063
 30
0.0
 10
16.3399825929
 20
11.6052574634
 30
0.0
 10
16.2589252344
 20
11.5583815531
 30
0.0
 10
16.1443190994
 20
11.5092115059
 30
0.0
 10
15.992137802
 20
11.471914487
 30
0.0
 10
15.8673800716
 20
11.4643195965
 30
0.0
 10
15.805161472
 20
11.4649754322
 30
0.0
  0
SPLINE
  5
D01
330
21D
100
AcDbEntity
  8
0
  6
Continuous
 62
     7
100
AcDbSpline
210
0.0
220
0.0
230
1.0
 70
     8
 71
     3
 72
    10
 73
     6
 74
     0
 42
0.0000000001
 43
0.0000000001
 40
0.0
 40
0.0
 40
0.0
 40
0.0
 40
0.3319422587
 40
0.6644736810000002
 40
1.0
 40
1.0
 40
1.0
 40
1.0
 10
15.0251977515
 20
12.3766372799
 30
0.0
 10
15.0249551327
 20
12.3765540367
 30
0.0
 10
15.0259531182
 20
12.3760484041
 30
0.0
 10
15.0263988427
 20
12.3757817339
 30
0.0
 10
15.0269095532
 20
12.375493317
 30
0.0
 10
15.027078579
 20
12.3752967158
 30
0.0
  0
SPLINE
  5
D02
330
21D
100
AcDbEntity
  8
0
  6
Continuous
 62
     7
100
AcDbSpline
210
0.0
220
0.0
230
1.0
 70
     8
 71
     3
 72
    15
 73
    11
 74
     0
 42
0.0000000001
 43
0.0000000001
 40
0.0
 40
0.0
 40
0.0
 40
0.0
 40
0.12493559
 40
0.2497094344
 40
0.3746575533
 40
0.4998591870000002
 40
0.6251519084
 40
0.7503015001000001
 40
0.8752011448999999
 40
1.0
 40
1.0
 40
1.0
 40
1.0
 10
16.3082915575
 20
12.8294755532
 30
0.0
 10
16.3059174932
 20
12.7710457559
 30
0.0
 10
16.28995326
 20
12.6544454436
 30
0.0
 10
16.2347349221
 20
12.4870624617
 30
0.0
 10
16.1507296322
 20
12.3319308904
 30
0.0
 10
16.0406613677
 20
12.1937722661
 30
0.0
 10
15.9079171655
 20
12.077067505
 30
0.0
 10
15.7566439499
 20
11.985858506
 30
0.0
 10
15.591705481
 20
11.9233829707
 30
0.0
 10
15.4759363364
 20
11.9024106158
 30
0.0
 10
15.417743964
 20
11.8973269172
 30
0.0
  0
SPLINE
  5
D03
330
21D
100
AcDbEntity
  8
0
  6
Continuous
 62
     7
100
AcDbSpline
210
0.0
220
0.0
230
1.0
 70
     8
 71
     3
 72
     9
 73
     5
 74
     0
 42
0.0000000001
 43
0.0000000001
 40
0.0
 40
0.0
 40
0.0
 40
0.0
 40
0.2480545065
 40
1.0
 40
1.0
 40
1.0
 40
1.0
 10
15.1394259446
 20
12.0190350799
 30
0.0
 10
15.1527331315
 20
12.0203513371
 30
0.0
 10
15.2062405253
 20
12.0270002396
 30
0.0
 10
15.25907035
 20
12.0389415932
 30
0.0
 10
15.2978964771
 20
12.0505902043
 30
0.0
  0
SPLINE
  5
D04
330
21D
100
AcDbEntity
  8
0
  6
Continuous
 62
     7
100
AcDbSpline
210
0.0
220
0.0
230
1.0
 70
     8
 71
     3
 72
    13
 73
     9
 74
     0
 42
0.0000000001
 43
0.0000000001
 40
0.0
 40
0.0
 40
0.0
 40
0.0
 40
0.2538794278
 40
0.5049595015000003
 40
0.6296204467000001
 40
0.7535945075
 40
0.8770076252999999
 40
1.0
 40
1.0
 40
1.0
 40
1.0
 10
15.2978964771
 20
12.0505902043
 30
0.0
 10
15.3820067128
 20
12.0758251001
 30
0.0
 10
15.5425654283
 20
12.1518884793
 30
0.0
 10
15.7062877949
 20
12.3004154738
 30
0.0
 10
15.8058170607
 20
12.4424108403
 30
0.0
 10
15.8632961177
 20
12.5581256169
 30
0.0
 10
15.9022752516
 20
12.680666532
 30
0.0
 10
15.9152387681
 20
12.7653274883
 30
0.0
 10
15.9183172031
 20
12.8077577119
 30
0.0
  0
SPLINE
  5
D05
330
21D
100
AcDbEntity
  8
0
  6
Continuous
 62
     7
100
AcDbSpline
210
0.0
220
0.0
230
1.0
 70
     8
 71
     3
 72
    15
 73
    11
 74
     0
 42
0.0000000001
 43
0.0000000001
 40
0.0
 40
0.0
 40
0.0
 40
0.0
 40
0.1338818416
 40
0.2651255488
 40
0.3927853515999999
 40
0.5171937986000003
 40
0.6392561350000002
 40
0.7599216369000003
 40
0.8799713731999998
 40
1.0
 40
1.0
 40
1.0
 40
1.0
 10
15.2442502672
 20
12.2355592387
 30
0.0
 10
15.2870320437
 20
12.2391258833
 30
0.0
 10
15.3715306927
 20
12.2502332868
 30
0.0
 10
15.4935523643
 20
12.2832834616
 30
0.0
 10
15.605885788
 20
12.3347185769
 30
0.0
 10
15.7046473304
 20
12.4040527066
 30
0.0
 10
15.7870898716
 20
12.489067836
 30
0.0
 10
15.8514387395
 20
12.5867901646
 30
0.0
 10
15.8965549471
 20
12.6939672105
 30
0.0
 10
15.9133267457
 20
12.7695943636
 30
0.0
 10
15.9183171885
 20
12.8077575135
 30
0.0
  0
SPLINE
  5
D06
330
21D
100
AcDbEntity
  8
0
  6
Continuous
 62
     7
100
AcDbSpline
210
0.0
220
0.0
230
1.0
 70
     8
 71
     3
 72
    15
 73
    11
 74
     0
 42
0.0000000001
 43
0.0000000001
 40
0.0
 40
0.0
 40
0.0
 40
0.0
 40
0.1217636157
 40
0.2447915698
 40
0.3691166017
 40
0.4945793234000001
 40
0.6208564462
 40
0.7475099023000002
 40
0.8740492831999999
 40
1.0
 40
1.0
 40
1.0
 40
1.0
 10
15.0270785812
 20
12.3752967146
 30
0.0
 10
15.0733348175
 20
12.3759141342
 30
0.0
 10
15.1664555497
 20
12.3866093159
 30
0.0
 10
15.3007284545
 20
12.4299178571
 30
0.0
 10
15.4254538245
 20
12.4988691529
 30
0.0
 10
15.5358978669
 20
12.590822399
 30
0.0
 10
15.6279704116
 20
12.7022951913
 30
0.0
 10
15.6982430744
 20
12.829121411
 30
0.0
 10
15.7440940074
 20
12.9664936816
 30
0.0
 10
15.75727913
 20
13.0621731804
 30
0.0
 10
15.759334178
 20
13.1099801488
 30
0.0
  0
SPLINE
  5
D07
330
21D
100
AcDbEntity
  8
0
  6
Continuous
 62
     7
100
AcDbSpline
210
0.0
220
0.0
230
1.0
 70
     8
 71
     3
 72
    15
 73
    11
 74
     0
 42
0.0000000001
 43
0.0000000001
 40
0.0
 40
0.0
 40
0.0
 40
0.0
 40
0.1249040118
 40
0.249848585
 40
0.3748330515
 40
0.4998510456
 40
0.6248914626
 40
0.7499399904000002
 40
0.8749810571999997
 40
1.0
 40
1.0
 40
1.0
 40
1.0
 10
14.9011041001
 20
12.4490344968
 30
0.0
 10
14.9438875005
 20
12.4489198881
 30
0.0
 10
15.0297293964
 20
12.4571670086
 30
0.0
 10
15.1534105016
 20
12.4944755235
 30
0.0
 10
15.2674911918
 20
12.5552774774
 30
0.0
 10
15.3674995633
 20
12.6372225282
 30
0.0
 10
15.4495905706
 20
12.7371389059
 30
0.0
 10
15.5105891653
 20
12.8511840331
 30
0.0
 10
15.5481401784
 20
12.9748882359
 30
0.0
 10
15.5565751758
 20
13.0607826254
 30
0.0
 10
15.5565593545
 20
13.1036055438
 30
0.0
  0
SPLINE
  5
D08
330
21D
100
AcDbEntity
  8
0
  6
Continuous
 62
     7
100
AcDbSpline
210
0.0
220
0.0
230
1.0
 70
     8
 71
     3
 72
    15
 73
    11
 74
     0
 42
0.0000000001
 43
0.0000000001
 40
0.0
 40
0.0
 40
0.0
 40
0.0
 40
0.1247988524
 40
0.2496984969
 40
0.3748480901
 40
0.5001408137
 40
0.6253424493999999
 40
0.7502905689000002
 40
0.8750644122
 40
1.0
 40
1.0
 40
1.0
 40
1.0
 10
15.4177438302
 20
17.40757149
 30
0.0
 10
15.4759361905
 20
17.4024877433
 30
0.0
 10
15.5917053058
 20
17.3815153227
 30
0.0
 10
15.7566437238
 20
17.3190397152
 30
0.0
 10
15.9079168986
 20
17.22783069
 30
0.0
 10
16.0406610837
 20
17.1111259394
 30
0.0
 10
16.1507293637
 20
16.9729673534
 30
0.0
 10
16.2347347045
 20
16.8178358335
 30
0.0
 10
16.2899531224
 20
16.6504529021
 30
0.0
 10
16.3059174313
 20
16.5338526159
 30
0.0
 10
16.308291534
 20
16.4754228279
 30
0.0
  0
SPLINE
  5
D09
330
21D
100
AcDbEntity
  8
0
  6
Continuous
 62
     7
100
AcDbSpline
210
0.0
220
0.0
230
1.0
 70
     8
 71
     3
 72
     9
 73
     5
 74
     0
 42
0.0000000001
 43
0.0000000001
 40
0.0
 40
0.0
 40
0.0
 40
0.0
 40
0.2489704599
 40
1.0
 40
1.0
 40
1.0
 40
1.0
 10
15.0505685194
 20
17.2910991384
 30
0.0
 10
15.0622217387
 20
17.291292635
 30
0.0
 10
15.1090413392
 20
17.2908688513
 30
0.0
 10
15.1558034602
 20
17.2856337857
 30
0.0
 10
15.1903629077
 20
17.2791779906
 30
0.0
  0
SPLINE
  5
D0A
330
21D
100
AcDbEntity
  8
0
  6
Continuous
 62
     7
100
AcDbSpline
210
0.0
220
0.0
230
1.0
 70
     8
 71
     3
 72
    13
 73
     9
 74
     0
 42
0.0000000001
 43
0.0000000001
 40
0.0
 40
0.0
 40
0.0
 40
0.0
 40
0.2540033377
 40
0.5049421458
 40
0.6295516436000002
 40
0.7535126298
 40
0.8769504488999999
 40
1.0
 40
1.0
 40
1.0
 40
1.0
 10
15.3151451816
 20
17.2489469497
 30
0.0
 10
15.3974226602
 20
17.2224381137
 30
0.0
 10
15.554033857
 20
17.1450975078
 30
0.0
 10
15.7134336101
 20
16.9973075698
 30
0.0
 10
15.8102542492
 20
16.8569338393
 30
0.0
 10
15.866185532
 20
16.7428067813
 30
0.0
 10
15.9041625963
 20
16.6221101152
 30
0.0
 10
15.9168511498
 20
16.5387862114
 30
0.0
 10
15.9198975342
 20
16.4970209136
 30
0.0
  0
SPLINE
  5
D0B
330
21D
100
AcDbEntity
  8
0
  6
Continuous
 62
     7
100
AcDbSpline
210
0.0
220
0.0
230
1.0
 70
     8
 71
     3
 72
    15
 73
    11
 74
     0
 42
0.0000000001
 43
0.0000000001
 40
0.0
 40
0.0
 40
0.0
 40
0.0
 40
0.1340544081
 40
0.2651211196
 40
0.3924676974
 40
0.5166261343000002
 40
0.6386039787
 40
0.7593609140000001
 40
0.8796431055999999
 40
1.0
 40
1.0
 40
1.0
 40
1.0
 10
15.2619632306
 20
17.0639554711
 30
0.0
 10
15.3039490348
 20
17.0598505768
 30
0.0
 10
15.3867402014
 20
17.0481306481
 30
0.0
 10
15.5061655281
 20
17.0148989691
 30
0.0
 10
15.615821907
 20
16.9636879471
 30
0.0
 10
15.7119997382
 20
16.8949381748
 30
0.0
 10
15.7921610005
 20
16.810901804
 30
0.0
 10
15.8547062643
 20
16.7145275805
 30
0.0
 10
15.898605089
 20
16.6089807173
 30
0.0
 10
15.9149878507
 20
16.5345768306
 30
0.0
 10
15.9198975342
 20
16.497020913
 30
0.0
  0
SPLINE
  5
D0C
330
21D
100
AcDbEntity
  8
0
  6
Continuous
 62
     7
100
AcDbSpline
210
0.0
220
0.0
230
1.0
 70
     8
 71
     3
 72
    15
 73
    11
 74
     0
 42
0.0000000001
 43
0.0000000001
 40
0.0
 40
0.0
 40
0.0
 40
0.0
 40
0.1217635648
 40
0.2447914977
 40
0.3691165334000001
 40
0.494579276
 40
0.6208564266
 40
0.7475099065000002
 40
0.8740492966999998
 40
1.0
 40
1.0
 40
1.0
 40
1.0
 10
15.0270785088
 20
16.9296017425
 30
0.0
 10
15.0733347154
 20
16.9289843045
 30
0.0
 10
15.1664553952
 20
16.9182890872
 30
0.0
 10
15.3007282285
 20
16.8749805125
 30
0.0
 10
15.4254535551
 20
16.806029203
 30
0.0
 10
15.5358975857
 20
16.7140759634
 30
0.0
 10
15.627970152
 20
16.6026031966
 30
0.0
 10
15.69824287
 20
16.4757770193
 30
0.0
 10
15.7440938901
 20
16.3384048047
 30
0.0
 10
15.7572790913
 20
16.2427253405
 30
0.0
 10
15.7593341811
 20
16.1949183894
 30
0.0
  0
SPLINE
  5
D0D
330
21D
100
AcDbEntity
  8
0
  6
Continuous
 62
     7
100
AcDbSpline
210
0.0
220
0.0
230
1.0
 70
     8
 71
     3
 72
    15
 73
    11
 74
     0
 42
0.0000000001
 43
0.0000000001
 40
0.0
 40
0.0
 40
0.0
 40
0.0
 40
0.1250248525
 40
0.2500475238
 40
0.3750656606
 40
0.5000766496
 40
0.625077674
 40
0.7500661064000002
 40
0.8750401415
 40
1.0
 40
1.0
 40
1.0
 40
1.0
 10
7.9993002298
 20
14.6524492349
 30
0.0
 10
7.999300158699997
 20
14.6218230554
 30
0.0
 10
7.9930958912
 20
14.5603923375
 30
0.0
 10
7.965549208599996
 20
14.4721184706
 30
0.0
 10
7.920874079699999
 20
14.3911165719
 30
0.0
 10
7.8608873383
 20
14.3207174725
 30
0.0
 10
7.788046631799999
 20
14.2637371276
 30
0.0
 10
7.7053136457
 20
14.2224249948
 30
0.0
 10
7.6160801275
 20
14.1983535847
 30
0.0
 10
7.5545076015
 20
14.1943843761
 30
0.0
 10
7.523915709899996
 20
14.1954446102
 30
0.0
  0
SPLINE
  5
D0E
330
21D
100
AcDbEntity
  8
0
  6
Continuous
 62
     7
100
AcDbSpline
210
0.0
220
0.0
230
1.0
 70
     8
 71
     3
 72
    15
 73
    11
 74
     0
 42
0.0000000001
 43
0.0000000001
 40
0.0
 40
0.0
 40
0.0
 40
0.0
 40
0.1250189411
 40
0.2500600098
 40
0.3751085419
 40
0.5001489635000002
 40
0.6251669609000003
 40
0.7501514277
 40
0.8750959969
 40
1.0
 40
1.0
 40
1.0
 40
1.0
 10
15.5565593543
 20
16.201292565
 30
0.0
 10
15.556575177
 20
16.2441155079
 30
0.0
 10
15.5481401758
 20
16.3300099481
 30
0.0
 10
15.5105891393
 20
16.4537142249
 30
0.0
 10
15.4495905049
 20
16.5677594212
 30
0.0
 10
15.3674994445
 20
16.6676758589
 30
0.0
 10
15.2674910098
 20
16.7496209569
 30
0.0
 10
15.1534102503
 20
16.8104229418
 30
0.0
 10
15.029729074
 20
16.8477314699
 30
0.0
 10
14.943887131
 20
16.8559785864
 30
0.0
 10
14.9011037086
 20
16.8558639722
 30
0.0
  0
SPLINE
  5
D0F
330
21D
100
AcDbEntity
  8
0
  6
Continuous
 62
     7
100
AcDbSpline
210
0.0
220
0.0
230
1.0
 70
     8
 71
     3
 72
    15
 73
    11
 74
     0
 42
0.0000000001
 43
0.0000000001
 40
0.0
 40
0.0
 40
0.0
 40
0.0
 40
0.1249598578
 40
0.249933893
 40
0.3749223255
 40
0.4999233492000001
 40
0.6249343381
 40
0.7499524749999999
 40
0.8749751462
 40
1.0
 40
1.0
 40
1.0
 40
1.0
 10
7.5239157094
 20
15.1094538596
 30
0.0
 10
7.5545076008
 20
15.1105140935
 30
0.0
 10
7.616080126799999
 20
15.1065448854
 30
0.0
 10
7.7053136449
 20
15.0824734753
 30
0.0
 10
7.7880466311
 20
15.0411613427
 30
0.0
 10
7.8608873374
 20
14.984180998
 30
0.0
 10
7.920874079299999
 20
14.91378189869999
 30
0.0
 10
7.965549206399997
 20
14.8327800001
 30
0.0
 10
7.993095896299997
 20
14.7445061329
 30
0.0
 10
7.999300146499997
 20
14.6830754147
 30
0.0
 10
7.9993002298
 20
14.6524492349
 30
0.0
  0
LINE
  5
D10
330
21D
100
AcDbEntity
  8
0
  6
Continuous
 62
     7
100
AcDbLine
 10
8.558597604899999
 20
16.3810950967
 30
0.0
 11
7.523917685299997
 21
16.3791638316
 31
0.0
  0
SPLINE
  5
D11
330
21D
100
AcDbEntity
  8
0
  6
Continuous
 62
     7
100
AcDbSpline
210
0.0
220
0.0
230
1.0
 70
     8
 71
     3
 72
    15
 73
    11
 74
     0
 42
0.0000000001
 43
0.0000000001
 40
0.0
 40
0.0
 40
0.0
 40
0.0
 40
0.0070017131
 40
0.0221971651
 40
0.0796646439
 40
0.1720683093
 40
0.2960816754
 40
0.4470251907
 40
0.6191442135000002
 40
1.0
 40
1.0
 40
1.0
 40
1.0
 10
6.4317328239
 20
14.6278429475
 30
0.0
 10
6.431790531399999
 20
14.6278429475
 30
0.0
 10
6.4319111109
 20
14.6280350851
 30
0.0
 10
6.432071492699997
 20
14.6286262145
 30
0.0
 10
6.432282769999997
 20
14.6300170839
 30
0.0
 10
6.4324790595
 20
14.6322412561
 30
0.0
 10
6.4326667212
 20
14.635273841
 30
0.0
 10
6.432818910599999
 20
14.6389519117
 30
0.0
 10
6.432977518899997
 20
14.6447530532
 30
0.0
 10
6.433020618099999
 20
14.6493102568
 30
0.0
 10
6.433020618099999
 20
14.6524492349
 30
0.0
  0
SPLINE
  5
D12
330
21D
100
AcDbEntity
  8
0
  6
Continuous
 62
     7
100
AcDbSpline
210
0.0
220
0.0
230
1.0
 70
     8
 71
     3
 72
    18
 73
    14
 74
     0
 42
0.0000000001
 43
0.0000000001
 40
0.0
 40
0.0
 40
0.0
 40
0.0
 40
0.1249896104
 40
0.2499170092
 40
0.3124482175
 40
0.3749756848
 40
0.4375007637
 40
0.5000254215
 40
0.5625517275
 40
0.6250813242000001
 40
0.7499948289000003
 40
0.8749738278
 40
1.0
 40
1.0
 40
1.0
 40
1.0
 10
15.8060785062
 20
17.9078026296
 30
0.0
 10
15.8722616738
 20
17.9069085667
 30
0.0
 10
16.004736615
 20
17.8955616616
 30
0.0
 10
16.1656276245
 20
17.8523102024
 30
0.0
 10
16.2866447658
 20
17.7980480875
 30
0.0
 10
16.3723033017
 20
17.7472929716
 30
0.0
 10
16.45133368339999
 20
17.6867191848
 30
0.0
 10
16.522445875
 20
17.617016752
 30
0.0
 10
16.5846661561
 20
17.5392763301
 30
0.0
 10
16.6550138636
 20
17.4268464638
 30
0.0
 10
16.7192011232
 20
17.2729914403
 30
0.0
 10
16.7610026215
 20
17.0780399789
 30
0.0
 10
16.7691551986
 20
16.9454250941
 30
0.0
 10
16.7691551913
 20
16.8792165263
 30
0.0
  0
SPLINE
  5
D13
330
21D
100
AcDbEntity
  8
0
  6
Continuous
 62
     7
100
AcDbSpline
210
0.0
220
0.0
230
1.0
 70
     8
 71
     3
 72
    15
 73
    11
 74
     0
 42
0.0000000001
 43
0.0000000001
 40
0.0
 40
0.0
 40
0.0
 40
0.0
 40
0.1250150365
 40
0.250020379
 40
0.3750193102
 40
0.5000145917000001
 40
0.6250083654000002
 40
0.7500025072
 40
0.8749990205999999
 40
1.0
 40
1.0
 40
1.0
 40
1.0
 10
5.9545846715
 20
16.7985070448
 30
0.0
 10
5.9545847432
 20
16.849303409
 30
0.0
 10
5.963527106699999
 20
16.9511375933
 30
0.0
 10
6.004314174099997
 20
17.0988144971
 30
0.0
 10
6.071721028099999
 20
17.2364717557
 30
0.0
 10
6.1637416632
 20
17.3590534668
 30
0.0
 10
6.2772431795
 20
17.4620734342
 30
0.0
 10
6.408182881599997
 20
17.5417835325
 30
0.0
 10
6.551730099299999
 20
17.595403038
 30
0.0
 10
6.652535306499997
 20
17.6126686104
 30
0.0
 10
6.703173576
 20
17.6166000282
 30
0.0
  0
SPLINE
  5
D14
330
21D
100
AcDbEntity
  8
0
  6
Continuous
 62
     7
100
AcDbSpline
210
0.0
220
0.0
230
1.0
 70
     8
 71
     3
 72
    15
 73
    11
 74
     0
 42
0.0000000001
 43
0.0000000001
 40
0.0
 40
0.0
 40
0.0
 40
0.0
 40
0.1250009792
 40
0.2499974923
 40
0.3749916339
 40
0.4999854075
 40
0.6249806891
 40
0.7499796204000001
 40
0.8749849632
 40
1.0
 40
1.0
 40
1.0
 40
1.0
 10
6.703173576
 20
11.6882984416
 30
0.0
 10
6.652535307
 20
11.6922298652
 30
0.0
 10
6.5517300997
 20
11.7094954305
 30
0.0
 10
6.4081828825
 20
11.7631149392
 30
0.0
 10
6.277243180299997
 20
11.8428250361
 30
0.0
 10
6.1637416635
 20
11.9458450029
 30
0.0
 10
6.071721027799997
 20
12.0684267134
 30
0.0
 10
6.004314172299999
 20
12.2060839719
 30
0.0
 10
5.9635271085
 20
12.3537608761
 30
0.0
 10
5.9545847365
 20
12.4555950607
 30
0.0
 10
5.9545846715
 20
12.506391425
 30
0.0
  0
SPLINE
  5
D15
330
21D
100
AcDbEntity
  8
0
  6
Continuous
 62
     7
100
AcDbSpline
210
0.0
220
0.0
230
1.0
 70
     8
 71
     3
 72
     9
 73
     5
 74
     0
 42
0.0000000001
 43
0.0000000001
 40
0.0
 40
0.0
 40
0.0
 40
0.0
 40
0.2639984324
 40
1.0
 40
1.0
 40
1.0
 40
1.0
 10
7.523915708799997
 20
14.1954446723
 30
0.0
 10
7.5243281108
 20
14.2070811753
 30
0.0
 10
7.526003796699999
 20
14.2511548133
 30
0.0
 10
7.528087468499996
 20
14.295214375
 30
0.0
 10
7.5299804796
 20
14.3276209215
 30
0.0
  0
SPLINE
  5
D16
330
21D
100
AcDbEntity
  8
0
  6
Continuous
 62
     7
100
AcDbSpline
210
0.0
220
0.0
230
1.0
 70
     8
 71
     3
 72
    18
 73
    14
 74
     0
 42
0.0000000001
 43
0.0000000001
 40
0.0
 40
0.0
 40
0.0
 40
0.0
 40
0.1250261701
 40
0.2500051718
 40
0.374918678
 40
0.4374482753000001
 40
0.4999745816
 40
0.5624992403000002
 40
0.6250243198
 40
0.6875517876
 40
0.7500829969
 40
0.8750103970999999
 40
1.0
 40
1.0
 40
1.0
 40
1.0
 10
16.7691551913
 20
12.4256819435
 30
0.0
 10
16.7691552976
 20
12.3594733766
 30
0.0
 10
16.7610025995
 20
12.2268584888
 30
0.0
 10
16.7192011252
 20
12.0319070313
 30
0.0
 10
16.6550138497
 20
11.8780520074
 30
0.0
 10
16.5846661454
 20
11.7656221382
 30
0.0
 10
16.5224458679
 20
11.6878817117
 30
0.0
 10
16.4513336798
 20
11.6181792736
 30
0.0
 10
16.3723033004
 20
11.5576054815
 30
0.0
 10
16.2866447641
 20
11.5068503626
 30
0.0
 10
16.1656276201
 20
11.4525882524
 30
0.0
 10
16.0047366076
 20
11.4093367792
 30
0.0
 10
15.8722616692
 20
11.3979899688
 30
0.0
 10
15.8060785062
 20
11.3970958402
 30
0.0
  0
SPLINE
  5
D17
330
21D
100
AcDbEntity
  8
0
  6
Continuous
 62
     7
100
AcDbSpline
210
0.0
220
0.0
230
1.0
 70
     8
 71
     3
 72
     9
 73
     5
 74
     0
 42
0.0000000001
 43
0.0000000001
 40
0.0
 40
0.0
 40
0.0
 40
0.0
 40
0.2639984149
 40
1.0
 40
1.0
 40
1.0
 40
1.0
 10
7.5239157095
 20
15.1094538596
 30
0.0
 10
7.5243281116
 20
15.0978173518
 30
0.0
 10
7.526003797699997
 20
15.0537436931
 30
0.0
 10
7.528087468899999
 20
15.0096841105
 30
0.0
 10
7.529980479199999
 20
14.977277548
 30
0.0
  0
SPLINE
  5
D18
330
21D
100
AcDbEntity
  8
0
  6
Continuous
 62
     7
100
AcDbSpline
210
0.0
220
0.0
230
1.0
 70
     8
 71
     3
 72
     8
 73
     4
 74
     0
 42
0.0000000001
 43
0.0000000001
 40
0.0
 40
0.0
 40
0.0
 40
0.0
 40
1.0
 40
1.0
 40
1.0
 40
1.0
 10
7.4298377327
 20
15.0965805973
 30
0.0
 10
7.4606800095
 20
15.1036921716
 30
0.0
 10
7.4922885835
 20
15.1082106109
 30
0.0
 10
7.5239157082
 20
15.1094537975
 30
0.0
  0
LINE
  5
D19
330
21D
100
AcDbEntity
  8
0
  6
Continuous
 62
     7
100
AcDbLine
 10
7.189281067
 20
16.3790617007
 30
0.0
 11
7.4298377327
 21
15.0965805973
 31
0.0
  0
SPLINE
  5
D1A
330
21D
100
AcDbEntity
  8
0
  6
Continuous
 62
     7
100
AcDbSpline
210
0.0
220
0.0
230
1.0
 70
     8
 71
     3
 72
     9
 73
     5
 74
     0
 42
0.0000000001
 43
0.0000000001
 40
0.0
 40
0.0
 40
0.0
 40
0.0
 40
0.4999833561
 40
1.0
 40
1.0
 40
1.0
 40
1.0
 10
7.523917665899999
 20
16.3791635236
 30
0.0
 10
7.4681463507
 20
16.3790998136
 30
0.0
 10
7.3566042819
 20
16.3782027343
 30
0.0
 10
7.2450507857
 20
16.3782894818
 30
0.0
 10
7.189281067
 20
16.3790617007
 30
0.0
  0
SPLINE
  5
D1B
330
21D
100
AcDbEntity
  8
0
  6
Continuous
 62
     7
100
AcDbSpline
210
0.0
220
0.0
230
1.0
 70
     8
 71
     3
 72
     9
 73
     5
 74
     0
 42
0.0000000001
 43
0.0000000001
 40
0.0
 40
0.0
 40
0.0
 40
0.0
 40
0.2504924355
 40
1.0
 40
1.0
 40
1.0
 40
1.0
 10
7.2745866686
 20
15.0296567214
 30
0.0
 10
7.2863154794
 20
15.0375928787
 30
0.0
 10
7.3347144244
 20
15.0669084785
 30
0.0
 10
7.3885614673
 20
15.0870020448
 30
0.0
 10
7.4298377327
 20
15.0965805973
 30
0.0
  0
LINE
  5
D1C
330
21D
100
AcDbEntity
  8
0
  6
Continuous
 62
     7
100
AcDbLine
 10
7.1014504819
 20
15.3953582584
 30
0.0
 11
7.2745866686
 21
15.0296567214
 31
0.0
  0
SPLINE
  5
D1D
330
21D
100
AcDbEntity
  8
0
  6
Continuous
 62
     7
100
AcDbSpline
210
0.0
220
0.0
230
1.0
 70
     8
 71
     3
 72
    19
 73
    15
 74
     0
 42
0.0000000001
 43
0.0000000001
 40
0.0
 40
0.0
 40
0.0
 40
0.0
 40
0.1249193235
 40
0.2498657198
 40
0.3748368693
 40
0.4998305965000001
 40
0.6248450187
 40
0.6873595401000001
 40
0.7498787652
 40
0.8124027079000001
 40
0.8749313089000001
 40
0.9374641106
 40
0.9687331356999999
 40
1.0
 40
1.0
 40
1.0
 40
1.0
 10
7.121692014099997
 20
16.3527458076
 30
0.0
 10
7.1213774638
 20
16.3128613323
 30
0.0
 10
7.120749336699999
 20
16.2330837292
 30
0.0
 10
7.1197791173
 20
16.1134053215
 30
0.0
 10
7.118736312699997
 20
15.9937037509
 30
0.0
 10
7.117554940999996
 20
15.8739817366
 30
0.0
 10
7.1163504351
 20
15.7742028862
 30
0.0
 10
7.115122324899996
 20
15.6943738845
 30
0.0
 10
7.114006234099996
 20
15.6344985839
 30
0.0
 10
7.112556034999997
 20
15.5746251606
 30
0.0
 10
7.110661040499999
 20
15.5147616089
 30
0.0
 10
7.1082848664
 20
15.4648933545
 30
0.0
 10
7.1052369085
 20
15.4250784482
 30
0.0
 10
7.1030407908
 20
15.4052140316
 30
0.0
 10
7.1014504819
 20
15.3953582584
 30
0.0
  0
SPLINE
  5
D1E
330
21D
100
AcDbEntity
  8
0
  6
Continuous
 62
     7
100
AcDbSpline
210
0.0
220
0.0
230
1.0
 70
     8
 71
     3
 72
     9
 73
     5
 74
     0
 42
0.0000000001
 43
0.0000000001
 40
0.0
 40
0.0
 40
0.0
 40
0.0
 40
0.5007898700000001
 40
1.0
 40
1.0
 40
1.0
 40
1.0
 10
7.139179092899999
 20
16.3785591164
 30
0.0
 10
7.134227092
 20
16.3763465077
 30
0.0
 10
7.1253110888
 20
16.3691675639
 30
0.0
 10
7.1217342899
 20
16.3581523646
 30
0.0
 10
7.121692014099997
 20
16.3527458076
 30
0.0
  0
LINE
  5
D1F
330
21D
100
AcDbEntity
  8
0
  6
Continuous
 62
     7
100
AcDbLine
 10
7.189281067
 20
16.3790617007
 30
0.0
 11
7.139179092899999
 21
16.3785591164
 31
0.0
  0
SPLINE
  5
D20
330
21D
100
AcDbEntity
  8
0
  6
Continuous
 62
     7
100
AcDbSpline
210
0.0
220
0.0
230
1.0
 70
     8
 71
     3
 72
    11
 73
     7
 74
     0
 42
0.0000000001
 43
0.0000000001
 40
0.0
 40
0.0
 40
0.0
 40
0.0
 40
0.2500048052
 40
0.4999929387
 40
0.7499860918000003
 40
1.0
 40
1.0
 40
1.0
 40
1.0
 10
7.097657548699999
 20
14.7932280885
 30
0.0
 10
7.105247612
 20
14.8170998289
 30
0.0
 10
7.124382260499999
 20
14.8636913755
 30
0.0
 10
7.164335377499997
 20
14.927745368
 30
0.0
 10
7.2145117783
 20
14.9841500789
 30
0.0
 10
7.253815012899999
 20
15.0156548265
 30
0.0
 10
7.2745866686
 20
15.0296567214
 30
0.0
  0
SPLINE
  5
D21
330
21D
100
AcDbEntity
  8
0
  6
Continuous
 62
     7
100
AcDbSpline
210
0.0
220
0.0
230
1.0
 70
     8
 71
     3
 72
     8
 73
     4
 74
     0
 42
0.0000000001
 43
0.0000000001
 40
0.0
 40
0.0
 40
0.0
 40
0.0
 40
1.0
 40
1.0
 40
1.0
 40
1.0
 10
7.1014504819
 20
15.3953582584
 30
0.0
 10
7.100083509199999
 20
15.1946488747
 30
0.0
 10
7.0992806874
 20
14.993935564
 30
0.0
 10
7.097657548699999
 20
14.7932280885
 30
0.0
  0
SPLINE
  5
D22
330
21D
100
AcDbEntity
  8
0
  6
Continuous
 62
     7
100
AcDbSpline
210
0.0
220
0.0
230
1.0
 70
     8
 71
     3
 72
    11
 73
     7
 74
     0
 42
0.0000000001
 43
0.0000000001
 40
0.0
 40
0.0
 40
0.0
 40
0.0
 40
0.2500138914
 40
0.5000070507
 40
0.7499951987000001
 40
1.0
 40
1.0
 40
1.0
 40
1.0
 10
7.2745826084
 20
14.2752444656
 30
0.0
 10
7.253811221799999
 20
14.2892464774
 30
0.0
 10
7.214508659299999
 20
14.3207515701
 30
0.0
 10
7.164333191599997
 20
14.3771564574
 30
0.0
 10
7.124380847
 20
14.4412103708
 30
0.0
 10
7.1052466273
 20
14.4878017505
 30
0.0
 10
7.097656753599999
 20
14.5116733869
 30
0.0
  0
LINE
  5
D23
330
21D
100
AcDbEntity
  8
0
  6
Continuous
 62
     7
100
AcDbLine
 10
7.101449612599997
 20
13.9095464867
 30
0.0
 11
7.2745826084
 21
14.2752444656
 31
0.0
  0
SPLINE
  5
D24
330
21D
100
AcDbEntity
  8
0
  6
Continuous
 62
     7
100
AcDbSpline
210
0.0
220
0.0
230
1.0
 70
     8
 71
     3
 72
     8
 73
     4
 74
     0
 42
0.0000000001
 43
0.0000000001
 40
0.0
 40
0.0
 40
0.0
 40
0.0
 40
1.0
 40
1.0
 40
1.0
 40
1.0
 10
7.097656753599999
 20
14.5116733869
 30
0.0
 10
7.099279347499997
 20
14.310966997
 30
0.0
 10
7.1000906632
 20
14.1102548348
 30
0.0
 10
7.101449612599997
 20
13.9095464867
 30
0.0
  0
SPLINE
  5
D25
330
21D
100
AcDbEntity
  8
0
  6
Continuous
 62
     7
100
AcDbSpline
210
0.0
220
0.0
230
1.0
 70
     8
 71
     3
 72
     9
 73
     5
 74
     0
 42
0.0000000001
 43
0.0000000001
 40
0.0
 40
0.0
 40
0.0
 40
0.0
 40
0.2505408035999999
 40
1.0
 40
1.0
 40
1.0
 40
1.0
 10
7.4298305611
 20
14.2083195238
 30
0.0
 10
7.416035146799999
 20
14.2115211036
 30
0.0
 10
7.361560566299997
 20
14.2266561835
 30
0.0
 10
7.309668865999999
 20
14.2515031218
 30
0.0
 10
7.2745826084
 20
14.2752444656
 30
0.0
  0
LINE
  5
D26
330
21D
100
AcDbEntity
  8
0
  6
Continuous
 62
     7
100
AcDbLine
 10
7.1892791507
 20
12.925836763
 30
0.0
 11
7.4298305611
 21
14.2083195238
 31
0.0
  0
LINE
  5
D27
330
21D
100
AcDbEntity
  8
0
  6
Continuous
 62
     7
100
AcDbLine
 10
7.1391791671
 20
12.9263393131
 30
0.0
 11
7.1892791507
 21
12.925836763
 31
0.0
  0
SPLINE
  5
D28
330
21D
100
AcDbEntity
  8
0
  6
Continuous
 62
     7
100
AcDbSpline
210
0.0
220
0.0
230
1.0
 70
     8
 71
     3
 72
     9
 73
     5
 74
     0
 42
0.0000000001
 43
0.0000000001
 40
0.0
 40
0.0
 40
0.0
 40
0.0
 40
0.4992099999000001
 40
1.0
 40
1.0
 40
1.0
 40
1.0
 10
7.121692057999999
 20
12.9521526337
 30
0.0
 10
7.1217354295
 20
12.9467460966
 30
0.0
 10
7.125311251499997
 20
12.9357319394
 30
0.0
 10
7.134226359199999
 20
12.9285500942
 30
0.0
 10
7.1391791671
 20
12.9263393131
 30
0.0
  0
SPLINE
  5
D29
330
21D
100
AcDbEntity
  8
0
  6
Continuous
 62
     7
100
AcDbSpline
210
0.0
220
0.0
230
1.0
 70
     8
 71
     3
 72
    19
 73
    15
 74
     0
 42
0.0000000001
 43
0.0000000001
 40
0.0
 40
0.0
 40
0.0
 40
0.0
 40
0.0312668565
 40
0.0625358814
 40
0.1250686853
 40
0.1875972868
 40
0.2501212298
 40
0.3126404549
 40
0.3751549787
 40
0.5001693990999999
 40
0.6251631296
 40
0.7501342789
 40
0.8750806754999999
 40
1.0
 40
1.0
 40
1.0
 40
1.0
 10
7.101449612599997
 20
13.9095464867
 30
0.0
 10
7.103040484299999
 20
13.8996907391
 30
0.0
 10
7.105237166499997
 20
13.8798262286
 30
0.0
 10
7.108285058799999
 20
13.8400110529
 30
0.0
 10
7.110661080999999
 20
13.7901424558
 30
0.0
 10
7.112556379199999
 20
13.7302785117
 30
0.0
 10
7.1140063137
 20
13.6704046786
 30
0.0
 10
7.115122160199997
 20
13.6105289724
 30
0.0
 10
7.116351070599999
 20
13.5306994467
 30
0.0
 10
7.117553696099996
 20
13.4309199026
 30
0.0
 10
7.1187370179
 20
13.3111971064
 30
0.0
 10
7.119779442
 20
13.1914947276
 30
0.0
 10
7.120749137499998
 20
13.0718155133
 30
0.0
 10
7.121377415
 20
12.992037376
 30
0.0
 10
7.121692057999999
 20
12.9521526337
 30
0.0
  0
SPLINE
  5
D2A
330
21D
100
AcDbEntity
  8
0
  6
Continuous
 62
     7
100
AcDbSpline
210
0.0
220
0.0
230
1.0
 70
     8
 71
     3
 72
     8
 73
     4
 74
     0
 42
0.0000000001
 43
0.0000000001
 40
0.0
 40
0.0
 40
0.0
 40
0.0
 40
1.0
 40
1.0
 40
1.0
 40
1.0
 10
7.523915708699997
 20
14.1954446723
 30
0.0
 10
7.4922861421
 20
14.1966879402
 30
0.0
 10
7.4606751176
 20
14.2012069621
 30
0.0
 10
7.4298305611
 20
14.2083195238
 30
0.0
  0
SPLINE
  5
D2B
330
21D
100
AcDbEntity
  8
0
  6
Continuous
 62
     7
100
AcDbSpline
210
0.0
220
0.0
230
1.0
 70
     8
 71
     3
 72
     9
 73
     5
 74
     0
 42
0.0000000001
 43
0.0000000001
 40
0.0
 40
0.0
 40
0.0
 40
0.0
 40
0.5000166894
 40
1.0
 40
1.0
 40
1.0
 40
1.0
 10
7.1892791507
 20
12.925836763
 30
0.0
 10
7.245049194899999
 20
12.9266089439
 30
0.0
 10
7.35660333
 20
12.9266957117
 30
0.0
 10
7.468146038999996
 20
12.9257986477
 30
0.0
 10
7.523917668999997
 20
12.9257349462
 30
0.0
  0
LINE
  5
D2C
330
21D
100
AcDbEntity
  8
0
  6
Continuous
 62
     7
100
AcDbLine
 10
7.093010526
 20
12.1997558333
 30
0.0
 11
7.0952163588
 21
12.2360401326
 31
0.0
  0
SPLINE
  5
D2D
330
21D
100
AcDbEntity
  8
0
  6
Continuous
 62
     7
100
AcDbSpline
210
0.0
220
0.0
230
1.0
 70
     8
 71
     3
 72
    13
 73
     9
 74
     0
 42
0.0000000001
 43
0.0000000001
 40
0.0
 40
0.0
 40
0.0
 40
0.0
 40
0.3927940853
 40
0.6953748671
 40
0.8096920240000001
 40
0.8983103897999999
 40
0.9611834109
 40
1.0
 40
1.0
 40
1.0
 40
1.0
 10
15.42576680099999
 20
11.8674944093
 30
0.0
 10
15.4250976277
 20
11.8715170722
 30
0.0
 10
15.4238209061
 20
11.8786218413
 30
0.0
 10
15.4220044861
 20
11.8868394384
 30
0.0
 10
15.4205534029
 20
11.8918795475
 30
0.0
 10
15.41962053
 20
11.8944905742
 30
0.0
 10
15.4187714281
 20
11.8962550663
 30
0.0
 10
15.418097664
 20
11.8971338052
 30
0.0
 10
15.4177439631
 20
11.8973269271
 30
0.0
  0
SPLINE
  5
D2E
330
21D
100
AcDbEntity
  8
0
  6
Continuous
 62
     7
100
AcDbSpline
210
0.0
220
0.0
230
1.0
 70
     8
 71
     3
 72
    11
 73
     7
 74
     0
 42
0.0000000001
 43
0.0000000001
 40
0.0
 40
0.0
 40
0.0
 40
0.0
 40
0.3670589748
 40
0.6602133816000002
 40
0.8726827098999997
 40
1.0
 40
1.0
 40
1.0
 40
1.0
 10
16.3341361597
 20
12.8261832416
 30
0.0
 10
16.3309566213
 20
12.8264509525
 30
0.0
 10
16.3252420803
 20
12.8269696641
 30
0.0
 10
16.3176946041
 20
12.8277836228
 30
0.0
 10
16.3122570257
 20
12.8285694043
 30
0.0
 10
16.3093381476
 20
12.8291156351
 30
0.0
 10
16.3082915556
 20
12.8294755533
 30
0.0
  0
SPLINE
  5
D2F
330
21D
100
AcDbEntity
  8
0
  6
Continuous
 62
     7
100
AcDbSpline
210
0.0
220
0.0
230
1.0
 70
     8
 71
     3
 72
    11
 73
     7
 74
     0
 42
0.0000000001
 43
0.0000000001
 40
0.0
 40
0.0
 40
0.0
 40
0.0
 40
0.367058885
 40
0.6602132562
 40
0.8726826087
 40
1.0
 40
1.0
 40
1.0
 40
1.0
 10
16.334136137
 20
16.4787151992
 30
0.0
 10
16.3309565981
 20
16.4784474834
 30
0.0
 10
16.3252420563
 20
16.4779287624
 30
0.0
 10
16.3176945787
 20
16.4771147888
 30
0.0
 10
16.3122569991
 20
16.4763289932
 30
0.0
 10
16.3093381199
 20
16.4757827521
 30
0.0
 10
16.3082915285
 20
16.4754228277
 30
0.0
  0
SPLINE
  5
D30
330
21D
100
AcDbEntity
  8
0
  6
Continuous
 62
     7
100
AcDbSpline
210
0.0
220
0.0
230
1.0
 70
     8
 71
     3
 72
    13
 73
     9
 74
     0
 42
0.0000000001
 43
0.0000000001
 40
0.0
 40
0.0
 40
0.0
 40
0.0
 40
0.3927939303
 40
0.6953746308
 40
0.8096917843000001
 40
0.898310179
 40
0.9611832720999997
 40
1.0
 40
1.0
 40
1.0
 40
1.0
 10
15.4257667356
 20
17.4374039877
 30
0.0
 10
15.4250975566
 20
17.4333813269
 30
0.0
 10
15.4238208242
 20
17.4262765613
 30
0.0
 10
15.4220043889
 20
17.4180589691
 30
0.0
 10
15.4205532935
 20
17.4130188634
 30
0.0
 10
15.4196204125
 20
17.4104078383
 30
0.0
 10
15.4187713032
 20
17.4086433464
 30
0.0
 10
15.418097533
 20
17.4077646092
 30
0.0
 10
15.4177438301
 20
17.407571488
 30
0.0
  0
SPLINE
  5
D31
330
21D
100
AcDbEntity
  8
0
  6
Continuous
 62
     7
100
AcDbSpline
210
0.0
220
0.0
230
1.0
 70
     8
 71
     3
 72
    13
 73
     9
 74
     0
 42
0.0000000001
 43
0.0000000001
 40
0.0
 40
0.0
 40
0.0
 40
0.0
 40
0.39930484
 40
0.7043337165000001
 40
0.8185351645
 40
0.9060609609999998
 40
0.9664542493
 40
1.0
 40
1.0
 40
1.0
 40
1.0
 10
6.384746265199997
 20
16.3555008502
 30
0.0
 10
6.388302960899999
 20
16.3552166332
 30
0.0
 10
6.394571991599997
 20
16.354673236
 30
0.0
 10
6.401849810499999
 20
16.3538972703
 30
0.0
 10
6.406329010399999
 20
16.3532635139
 30
0.0
 10
6.408647021699999
 20
16.3528670504
 30
0.0
 10
6.4102055463
 20
16.3524835058
 30
0.0
 10
6.4110293975
 20
16.3522139592
 30
0.0
 10
6.411261183799997
 20
16.35202389
 30
0.0
  0
SPLINE
  5
D32
330
21D
100
AcDbEntity
  8
0
  6
Continuous
 62
     7
100
AcDbSpline
210
0.0
220
0.0
230
1.0
 70
     8
 71
     3
 72
    13
 73
     9
 74
     0
 42
0.0000000001
 43
0.0000000001
 40
0.0
 40
0.0
 40
0.0
 40
0.0
 40
0.3993048434
 40
0.7043337212000002
 40
0.818535169
 40
0.9060609646999999
 40
0.9664542515
 40
1.0
 40
1.0
 40
1.0
 40
1.0
 10
6.3847462646
 20
12.9493976196
 30
0.0
 10
6.388302960199997
 20
12.9496818366
 30
0.0
 10
6.3945719909
 20
12.9502252338
 30
0.0
 10
6.4018498096
 20
12.9510011996
 30
0.0
 10
6.406329009299999
 20
12.9516349559
 30
0.0
 10
6.408647020599999
 20
12.9520314194
 30
0.0
 10
6.410205545
 20
12.952414964
 30
0.0
 10
6.4110293962
 20
12.9526845106
 30
0.0
 10
6.4112611824
 20
12.9528745797
 30
0.0
  0
SPLINE
  5
D33
330
21D
100
AcDbEntity
  8
0
  6
Continuous
 62
     7
100
AcDbSpline
210
0.0
220
0.0
230
1.0
 70
     8
 71
     3
 72
    14
 73
    10
 74
     0
 42
0.0000000001
 43
0.0000000001
 40
0.0
 40
0.0
 40
0.0
 40
0.0
 40
0.3996788108
 40
0.5660707759000001
 40
0.7076555463
 40
0.8228944155
 40
0.9105497929999998
 40
0.9697222801999998
 40
1.0
 40
1.0
 40
1.0
 40
1.0
 10
7.0696951807
 20
12.2019935215
 30
0.0
 10
7.070322221599997
 20
12.20680832
 30
0.0
 10
7.0712325597
 20
12.213625059
 30
0.0
 10
7.072450556799999
 20
12.2221347144
 30
0.0
 10
7.073216359099997
 20
12.2272200641
 30
0.0
 10
7.073893072799997
 20
12.2313466432
 30
0.0
 10
7.0744425687
 20
12.2344908576
 30
0.0
 10
7.0749182497
 20
12.2365742331
 30
0.0
 10
7.075171132899999
 20
12.237652282
 30
0.0
 10
7.0753555969
 20
12.2379705096
 30
0.0
  0
SPLINE
  5
D34
330
21D
100
AcDbEntity
  8
0
  6
Continuous
 62
     7
100
AcDbSpline
210
0.0
220
0.0
230
1.0
 70
     8
 71
     3
 72
    14
 73
    10
 74
     0
 42
0.0000000001
 43
0.0000000001
 40
0.0
 40
0.0
 40
0.0
 40
0.0
 40
0.3996787707
 40
0.5660707269
 40
0.7076554952
 40
0.8228943687999999
 40
0.9105497565999998
 40
0.9697222597999999
 40
1.0
 40
1.0
 40
1.0
 40
1.0
 10
7.069695180499999
 20
17.1029049497
 30
0.0
 10
7.070322221499997
 20
17.0980901502
 30
0.0
 10
7.0712325598
 20
17.0912734097
 30
0.0
 10
7.0724505571
 20
17.0827637523
 30
0.0
 10
7.0732163595
 20
17.0776784011
 30
0.0
 10
7.0738930734
 20
17.0735518206
 30
0.0
 10
7.0744425695
 20
17.0704076049
 30
0.0
 10
7.074918250599999
 20
17.0683242281
 30
0.0
 10
7.075171133999996
 20
17.0672461785
 30
0.0
 10
7.075355597899999
 20
17.0669279504
 30
0.0
  0
SPLINE
  5
D35
330
21D
100
AcDbEntity
  8
0
  6
Continuous
 62
     7
100
AcDbSpline
210
0.0
220
0.0
230
1.0
 70
     8
 71
     3
 72
    11
 73
     7
 74
     0
 42
0.0000000001
 43
0.0000000001
 40
0.0
 40
0.0
 40
0.0
 40
0.0
 40
0.400205143
 40
0.8237552701
 40
0.9444596062
 40
1.0
 40
1.0
 40
1.0
 40
1.0
 10
7.0930320135
 20
17.1051443839
 30
0.0
 10
7.093358940999999
 20
17.100305904
 30
0.0
 10
7.094031262499997
 20
17.0903460802
 30
0.0
 10
7.0947013658
 20
17.0789228681
 30
0.0
 10
7.0951666287
 20
17.0716674502
 30
0.0
 10
7.0951823097
 20
17.069531173
 30
0.0
 10
7.095209983999997
 20
17.0688587278
 30
0.0
  0
SPLINE
  5
D36
330
21D
100
AcDbEntity
  8
0
  6
Continuous
 62
     7
100
AcDbSpline
210
0.0
220
0.0
230
1.0
 70
     8
 71
     3
 72
    20
 73
    16
 74
     0
 42
0.0000000001
 43
0.0000000001
 40
0.0
 40
0.0
 40
0.0
 40
0.0
 40
0.004454758
 40
0.0108404329
 40
0.0298289897
 40
0.057249784
 40
0.0929783296
 40
0.1367502291
 40
0.1882064258
 40
0.24690957
 40
0.3123528839
 40
0.461125084
 40
0.6293318503
 40
0.8110816544
 40
1.0
 40
1.0
 40
1.0
 40
1.0
 10
6.637779885299996
 20
12.9792208884
 30
0.0
 10
6.638276209299999
 20
12.9786972865
 30
0.0
 10
6.6397776808
 20
12.9777249774
 30
0.0
 10
6.644224751399997
 20
12.9758441593
 30
0.0
 10
6.652552265599999
 20
12.9737292062
 30
0.0
 10
6.6656306558
 20
12.9713490443
 30
0.0
 10
6.6827987775
 20
12.9690170802
 30
0.0
 10
6.703884412599999
 20
12.9667415708
 30
0.0
 10
6.728720586499997
 20
12.9645642344
 30
0.0
 10
6.757085573999997
 20
12.9625046884
 30
0.0
 10
6.801205147999999
 20
12.9598313009
 30
0.0
 10
6.863078281099999
 20
12.9570163884
 30
0.0
 10
6.9438105903
 20
12.9544903865
 30
0.0
 10
7.0310675097
 20
12.9527958832
 30
0.0
 10
7.091096671099996
 20
12.9522666499
 30
0.0
 10
7.121692057999999
 20
12.9521526337
 30
0.0
  0
SPLINE
  5
D37
330
21D
100
AcDbEntity
  8
0
  6
Continuous
 62
     7
100
AcDbSpline
210
0.0
220
0.0
230
1.0
 70
     8
 71
     3
 72
    20
 73
    16
 74
     0
 42
0.0000000001
 43
0.0000000001
 40
0.0
 40
0.0
 40
0.0
 40
0.0
 40
0.0037151296
 40
0.0096045895
 40
0.0279007911
 40
0.054777504
 40
0.0900210669
 40
0.1333428472
 40
0.1843854227
 40
0.2427263567
 40
0.3078822231
 40
0.4564256957000001
 40
0.6250977063000001
 40
0.8083119704999999
 40
1.0
 40
1.0
 40
1.0
 40
1.0
 10
6.639628164299999
 20
13.9168522477
 30
0.0
 10
6.6401782761
 20
13.9166951943
 30
0.0
 10
6.641642297
 20
13.9164516578
 30
0.0
 10
6.645906426699999
 20
13.9159488529
 30
0.0
 10
6.653756784899996
 20
13.9154083824
 30
0.0
 10
6.6661218048
 20
13.9147776252
 30
0.0
 10
6.682348631799999
 20
13.9141657967
 30
0.0
 10
6.7022975336
 20
13.9135634936
 30
0.0
 10
6.725805725599999
 20
13.9129864714
 30
0.0
 10
6.752677401299997
 20
13.9124380396
 30
0.0
 10
6.794562750099997
 20
13.9117219593
 30
0.0
 10
6.8534392821
 20
13.9109597339
 30
0.0
 10
6.9304972634
 20
13.9102608249
 30
0.0
 10
7.014200777899999
 20
13.9097704957
 30
0.0
 10
7.0719316787
 20
13.9095961274
 30
0.0
 10
7.101449612599997
 20
13.9095464867
 30
0.0
  0
SPLINE
  5
D38
330
21D
100
AcDbEntity
  8
0
  6
Continuous
 62
     7
100
AcDbSpline
210
0.0
220
0.0
230
1.0
 70
     8
 71
     3
 72
     9
 73
     5
 74
     0
 42
0.0000000001
 43
0.0000000001
 40
0.0
 40
0.0
 40
0.0
 40
0.0
 40
0.250217844
 40
1.0
 40
1.0
 40
1.0
 40
1.0
 10
7.097656754099997
 20
14.5116733941
 30
0.0
 10
7.0949434108
 20
14.5231961122
 30
0.0
 10
7.085345587599999
 20
14.5695284841
 30
0.0
 10
7.0810231623
 20
14.6169769528
 30
0.0
 10
7.081022997799997
 20
14.6524493501
 30
0.0
  0
SPLINE
  5
D39
330
21D
100
AcDbEntity
  8
0
  6
Continuous
 62
     7
100
AcDbSpline
210
0.0
220
0.0
230
1.0
 70
     8
 71
     3
 72
     9
 73
     5
 74
     0
 42
0.0000000001
 43
0.0000000001
 40
0.0
 40
0.0
 40
0.0
 40
0.0
 40
0.2502048868
 40
1.0
 40
1.0
 40
1.0
 40
1.0
 10
7.081022997799997
 20
14.6524493501
 30
0.0
 10
7.081023055399999
 20
14.6642873744
 30
0.0
 10
7.0824370274
 20
14.7115944603
 30
0.0
 10
7.089526112
 20
14.758697259
 30
0.0
 10
7.0976575494
 20
14.7932280633
 30
0.0
  0
SPLINE
  5
D3A
330
21D
100
AcDbEntity
  8
0
  6
Continuous
 62
     7
100
AcDbSpline
210
0.0
220
0.0
230
1.0
 70
     8
 71
     3
 72
    20
 73
    16
 74
     0
 42
0.0000000001
 43
0.0000000001
 40
0.0
 40
0.0
 40
0.0
 40
0.0
 40
0.0044547623
 40
0.0108404394
 40
0.0298289971
 40
0.0572497899
 40
0.0929783324
 40
0.136750228
 40
0.1882064206
 40
0.2469095608
 40
0.3123528714
 40
0.4611250679000002
 40
0.6293318357
 40
0.8110816458
 40
1.0
 40
1.0
 40
1.0
 40
1.0
 10
6.637779895299996
 20
16.3256775814
 30
0.0
 10
6.638276218899997
 20
16.3262011846
 30
0.0
 10
6.6397776896
 20
16.3271734966
 30
0.0
 10
6.644224759
 20
16.3290543197
 30
0.0
 10
6.652552271499997
 20
16.3311692781
 30
0.0
 10
6.665630658899997
 20
16.3335494447
 30
0.0
 10
6.682798777
 20
16.3358814123
 30
0.0
 10
6.703884407999999
 20
16.3381569241
 30
0.0
 10
6.728720577399996
 20
16.3403342618
 30
0.0
 10
6.7570855602
 20
16.3423938077
 30
0.0
 10
6.8012051283
 20
16.3450671935
 30
0.0
 10
6.8630782547
 20
16.3478820986
 30
0.0
 10
6.943810557
 20
16.3504080975
 30
0.0
 10
7.0310674709
 20
16.3521025509
 30
0.0
 10
7.091096628599999
 20
16.3526318591
 30
0.0
 10
7.121692014099997
 20
16.3527458076
 30
0.0
  0
SPLINE
  5
D3B
330
21D
100
AcDbEntity
  8
0
  6
Continuous
 62
     7
100
AcDbSpline
210
0.0
220
0.0
230
1.0
 70
     8
 71
     3
 72
    21
 73
    17
 74
     0
 42
0.0000000001
 43
0.0000000001
 40
0.0
 40
0.0
 40
0.0
 40
0.0
 40
0.00961639
 40
0.0279699372
 40
0.0549273003
 40
0.090266845
 40
0.1336930718
 40
0.1848414282
 40
0.3085237225
 40
0.4571671503000001
 40
0.6257937524
 40
0.7158609674
 40
0.8087697259
 40
0.9037442680999999
 40
0.9517617753999999
 40
1.0
 40
1.0
 40
1.0
 40
1.0
 10
7.105447466
 20
16.8423128082
 30
0.0
 10
7.1051928427
 20
16.8408427721
 30
0.0
 10
7.1051040247
 20
16.8364824305
 30
0.0
 10
7.1049893407
 20
16.8279765749
 30
0.0
 10
7.1051774287
 20
16.8154569642
 30
0.0
 10
7.1055459797
 20
16.7990620173
 30
0.0
 10
7.1061741624
 20
16.7789149821
 30
0.0
 10
7.1074285438
 20
16.7450774096
 30
0.0
 10
7.109715810199997
 20
16.6949431247
 30
0.0
 10
7.1135272169
 20
16.6266372979
 30
0.0
 10
7.117831970399999
 20
16.5635854524
 30
0.0
 10
7.122301931299999
 20
16.5092184843
 30
0.0
 10
7.126410734099997
 20
16.466291771
 30
0.0
 10
7.1306053754
 20
16.4299270543
 30
0.0
 10
7.1349120346
 20
16.4005720761
 30
0.0
 10
7.137574123899997
 20
16.3858688605
 30
0.0
 10
7.139179092899999
 20
16.3785591163
 30
0.0
  0
SPLINE
  5
D3C
330
21D
100
AcDbEntity
  8
0
  6
Continuous
 62
     7
100
AcDbSpline
210
0.0
220
0.0
230
1.0
 70
     8
 71
     3
 72
    15
 73
    11
 74
     0
 42
0.0000000001
 43
0.0000000001
 40
0.0
 40
0.0
 40
0.0
 40
0.0
 40
0.1245311314
 40
0.2492481743
 40
0.3741367808
 40
0.4991648678000001
 40
0.6242958796
 40
0.7494963119
 40
0.8747384737999999
 40
1.0
 40
1.0
 40
1.0
 40
1.0
 10
7.529980479199999
 20
14.9772775484
 30
0.0
 10
7.5529477248
 20
14.9808393109
 30
0.0
 10
7.599857963799999
 20
14.9829470578
 30
0.0
 10
7.6691519546
 20
14.9707176774
 30
0.0
 10
7.734237009199999
 20
14.9436505057
 30
0.0
 10
7.7919415107
 20
14.9030562053
 30
0.0
 10
7.839585516299997
 20
14.850956362
 30
0.0
 10
7.875062297799996
 20
14.7898789782
 30
0.0
 10
7.896910200099997
 20
14.7227275906
 30
0.0
 10
7.901825867799997
 20
14.6758273356
 30
0.0
 10
7.9018260044
 20
14.6524492349
 30
0.0
  0
SPLINE
  5
D3D
330
21D
100
AcDbEntity
  8
0
  6
Continuous
 62
     7
100
AcDbSpline
210
0.0
220
0.0
230
1.0
 70
     8
 71
     3
 72
     9
 73
     5
 74
     0
 42
0.0000000001
 43
0.0000000001
 40
0.0
 40
0.0
 40
0.0
 40
0.0
 40
0.2503934469
 40
1.0
 40
1.0
 40
1.0
 40
1.0
 10
7.460032865599999
 20
14.9639906718
 30
0.0
 10
7.465777008899999
 20
14.965521969
 30
0.0
 10
7.4888926585
 20
14.9709937016
 30
0.0
 10
7.512393197899999
 20
14.9745541903
 30
0.0
 10
7.529980479199999
 20
14.9772775484
 30
0.0
  0
SPLINE
  5
D3E
330
21D
100
AcDbEntity
  8
0
  6
Continuous
 62
     7
100
AcDbSpline
210
0.0
220
0.0
230
1.0
 70
     8
 71
     3
 72
     9
 73
     5
 74
     0
 42
0.0000000001
 43
0.0000000001
 40
0.0
 40
0.0
 40
0.0
 40
0.0
 40
0.5000062989999999
 40
1.0
 40
1.0
 40
1.0
 40
1.0
 10
7.3473981172
 20
14.9164609312
 30
0.0
 10
7.364905103699999
 20
14.9269868906
 30
0.0
 10
7.4014327472
 20
14.9456481319
 30
0.0
 10
7.440295253999997
 20
14.9587279672
 30
0.0
 10
7.460032865599999
 20
14.9639906718
 30
0.0
  0
SPLINE
  5
D3F
330
21D
100
AcDbEntity
  8
0
  6
Continuous
 62
     7
100
AcDbSpline
210
0.0
220
0.0
230
1.0
 70
     8
 71
     3
 72
     9
 73
     5
 74
     0
 42
0.0000000001
 43
0.0000000001
 40
0.0
 40
0.0
 40
0.0
 40
0.0
 40
0.4996013572
 40
1.0
 40
1.0
 40
1.0
 40
1.0
 10
7.2043074625
 20
14.7552958578
 30
0.0
 10
7.2181863302
 20
14.7888887288
 30
0.0
 10
7.258715517999999
 20
14.8512865035
 30
0.0
 10
7.3161984523
 20
14.8977018062
 30
0.0
 10
7.3473981172
 20
14.9164609312
 30
0.0
  0
SPLINE
  5
D40
330
21D
100
AcDbEntity
  8
0
  6
Continuous
 62
     7
100
AcDbSpline
210
0.0
220
0.0
230
1.0
 70
     8
 71
     3
 72
     9
 73
     5
 74
     0
 42
0.0000000001
 43
0.0000000001
 40
0.0
 40
0.0
 40
0.0
 40
0.0
 40
0.5000232901000003
 40
1.0
 40
1.0
 40
1.0
 40
1.0
 10
7.1822288051
 20
14.6524492349
 30
0.0
 10
7.182229023799997
 20
14.6700687359
 30
0.0
 10
7.186370618999997
 20
14.7054087268
 30
0.0
 10
7.197580093099999
 20
14.7390129994
 30
0.0
 10
7.2043074625
 20
14.7552958578
 30
0.0
  0
SPLINE
  5
D41
330
21D
100
AcDbEntity
  8
0
  6
Continuous
 62
     7
100
AcDbSpline
210
0.0
220
0.0
230
1.0
 70
     8
 71
     3
 72
     9
 73
     5
 74
     0
 42
0.0000000001
 43
0.0000000001
 40
0.0
 40
0.0
 40
0.0
 40
0.0
 40
0.5003986861000001
 40
1.0
 40
1.0
 40
1.0
 40
1.0
 10
7.3473950959
 20
14.3884394386
 30
0.0
 10
7.316195711099996
 20
14.4071987019
 30
0.0
 10
7.2587131295
 20
14.453613866
 30
0.0
 10
7.2181845871
 20
14.5160117169
 30
0.0
 10
7.204306091399997
 20
14.5496045523
 30
0.0
  0
SPLINE
  5
D42
330
21D
100
AcDbEntity
  8
0
  6
Continuous
 62
     7
100
AcDbSpline
210
0.0
220
0.0
230
1.0
 70
     8
 71
     3
 72
     9
 73
     5
 74
     0
 42
0.0000000001
 43
0.0000000001
 40
0.0
 40
0.0
 40
0.0
 40
0.0
 40
0.4999937303000002
 40
1.0
 40
1.0
 40
1.0
 40
1.0
 10
7.4600277157
 20
14.3409092401
 30
0.0
 10
7.440290455599999
 20
14.34617211
 30
0.0
 10
7.401428625
 20
14.3592520846
 30
0.0
 10
7.364901751399997
 20
14.3779135098
 30
0.0
 10
7.3473950959
 20
14.3884394386
 30
0.0
  0
SPLINE
  5
D43
330
21D
100
AcDbEntity
  8
0
  6
Continuous
 62
     7
100
AcDbSpline
210
0.0
220
0.0
230
1.0
 70
     8
 71
     3
 72
     9
 73
     5
 74
     0
 42
0.0000000001
 43
0.0000000001
 40
0.0
 40
0.0
 40
0.0
 40
0.0
 40
0.2494738285
 40
1.0
 40
1.0
 40
1.0
 40
1.0
 10
7.5299804796
 20
14.3276209214
 30
0.0
 10
7.5241280224
 20
14.3285271477
 30
0.0
 10
7.500673748799997
 20
14.3321393964
 30
0.0
 10
7.477243012899999
 20
14.336319699
 30
0.0
 10
7.4600277157
 20
14.3409092401
 30
0.0
  0
SPLINE
  5
D44
330
21D
100
AcDbEntity
  8
0
  6
Continuous
 62
     7
100
AcDbSpline
210
0.0
220
0.0
230
1.0
 70
     8
 71
     3
 72
    15
 73
    11
 74
     0
 42
0.0000000001
 43
0.0000000001
 40
0.0
 40
0.0
 40
0.0
 40
0.0
 40
0.1252615246
 40
0.2505036866
 40
0.3757041187
 40
0.5008351304
 40
0.6258632184000003
 40
0.7507518249
 40
0.8754688678
 40
1.0
 40
1.0
 40
1.0
 40
1.0
 10
7.9018260044
 20
14.6524492349
 30
0.0
 10
7.901825883499999
 20
14.6290711346
 30
0.0
 10
7.8969101921
 20
14.5821708803
 30
0.0
 10
7.875062298799997
 20
14.5150194937
 30
0.0
 10
7.839585514199999
 20
14.4539421109
 30
0.0
 10
7.791941509099997
 20
14.4018422683
 30
0.0
 10
7.7342370078
 20
14.3612479683
 30
0.0
 10
7.669151954199999
 20
14.3341807948
 30
0.0
 10
7.599857964199999
 20
14.3219514141
 30
0.0
 10
7.5529477249
 20
14.3240591571
 30
0.0
 10
7.5299804796
 20
14.3276209214
 30
0.0
  0
SPLINE
  5
D45
330
21D
100
AcDbEntity
  8
0
  6
Continuous
 62
     7
100
AcDbSpline
210
0.0
220
0.0
230
1.0
 70
     8
 71
     3
 72
     9
 73
     5
 74
     0
 42
0.0000000001
 43
0.0000000001
 40
0.0
 40
0.0
 40
0.0
 40
0.0
 40
0.4999759927000003
 40
1.0
 40
1.0
 40
1.0
 40
1.0
 10
7.204306091399997
 20
14.5496045523
 30
0.0
 10
7.1975791033
 20
14.565887142
 30
0.0
 10
7.186370143799997
 20
14.599490797
 30
0.0
 10
7.182228949999998
 20
14.6348300773
 30
0.0
 10
7.1822288051
 20
14.6524492349
 30
0.0
  0
SPLINE
  5
D46
330
21D
100
AcDbEntity
  8
0
  6
Continuous
 62
     7
100
AcDbSpline
210
0.0
220
0.0
230
1.0
 70
     8
 71
     3
 72
    21
 73
    17
 74
     0
 42
0.0000000001
 43
0.0000000001
 40
0.0
 40
0.0
 40
0.0
 40
0.0
 40
0.0040122908
 40
0.0100886609
 40
0.0182871442
 40
0.02861806
 40
0.0556325694
 40
0.0909621511
 40
0.134333982
 40
0.185398237
 40
0.2437364151
 40
0.3088671296
 40
0.4572958201
 40
0.6257678718000001
 40
0.808693573
 40
1.0
 40
1.0
 40
1.0
 40
1.0
 10
8.5414511894
 20
16.8441895878
 30
0.0
 10
8.541796597799997
 20
16.8436741963
 30
0.0
 10
8.5423871388
 20
16.8422088146
 30
0.0
 10
8.543137723899999
 20
16.8394877276
 30
0.0
 10
8.543894443400001
 20
16.8357535332
 30
0.0
 10
8.545011915999996
 20
16.8288008179
 30
0.0
 10
8.5463156744
 20
16.8176336209
 30
0.0
 10
8.5477680505
 20
16.8013511721
 30
0.0
 10
8.5491786583
 20
16.7813335147
 30
0.0
 10
8.550536154299999
 20
16.7577483469
 30
0.0
 10
8.5518238399
 20
16.7307901453
 30
0.0
 10
8.553505343999997
 20
16.6887792098
 30
0.0
 10
8.555293887599999
 20
16.6297303677
 30
0.0
 10
8.5569320692
 20
16.5524574361
 30
0.0
 10
8.558078513799998
 20
16.4685447191
 30
0.0
 10
8.5584835977
 20
16.4106771194
 30
0.0
 10
8.5585976024
 20
16.3810950967
 30
0.0
  0
SPLINE
  5
D47
330
21D
100
AcDbEntity
  8
0
  6
Continuous
 62
     7
100
AcDbSpline
210
0.0
220
0.0
230
1.0
 70
     8
 71
     3
 72
    21
 73
    17
 74
     0
 42
0.0000000001
 43
0.0000000001
 40
0.0
 40
0.0
 40
0.0
 40
0.0
 40
0.00401263
 40
0.0100890543
 40
0.0182873155
 40
0.0286177471
 40
0.0556305657
 40
0.0909576225
 40
0.1343262818
 40
0.1853869443
 40
0.2437213715
 40
0.3088484728
 40
0.4572716738000003
 40
0.6257429672
 40
0.8086756982999999
 40
1.0
 40
1.0
 40
1.0
 40
1.0
 10
14.9011037089
 20
16.8558639717
 30
0.0
 10
14.9014490067
 20
16.8553487563
 30
0.0
 10
14.9020394045
 20
16.8538839724
 30
0.0
 10
14.9027898086
 20
16.8511640312
 30
0.0
 10
14.9035463488
 20
16.8474315367
 30
0.0
 10
14.9046635459
 20
16.84048214369999
 30
0.0
 10
14.9059670039
 20
16.82932039289999
 30
0.0
 10
14.9074190635
 20
16.8130459486
 30
0.0
 10
14.908829392
 20
16.7930381525
 30
0.0
 10
14.9101866537
 20
16.7694645289
 30
0.0
 10
14.9114741604
 20
16.7425193525
 30
0.0
 10
14.9131555143
 20
16.7005280567
 30
0.0
 10
14.9149440672
 20
16.641505541
 30
0.0
 10
14.9165825569
 20
16.5642649358
 30
0.0
 10
14.9177296394
 20
16.480383714
 30
0.0
 10
14.9181353472
 20
16.4225365536
 30
0.0
 10
14.9182497287
 20
16.3929641832
 30
0.0
  0
SPLINE
  5
D48
330
21D
100
AcDbEntity
  8
0
  6
Continuous
 62
     7
100
AcDbSpline
210
0.0
220
0.0
230
1.0
 70
     8
 71
     3
 72
    21
 73
    17
 74
     0
 42
0.0000000001
 43
0.0000000001
 40
0.0
 40
0.0
 40
0.0
 40
0.0
 40
0.0031662555
 40
0.0080639032
 40
0.0241733198
 40
0.0490961904
 40
0.0827779227
 40
0.1249787365
 40
0.1753490009
 40
0.2334517827
 40
0.2987735649
 40
0.37073192
 40
0.448682322
 40
0.6197091557
 40
0.8057119715
 40
1.0
 40
1.0
 40
1.0
 40
1.0
 10
15.556559354
 20
16.201292565
 30
0.0
 10
15.5564320874
 20
16.2017798567
 30
0.0
 10
15.5555176221
 20
16.2028077722
 30
0.0
 10
15.5521457289
 20
16.2046300694
 30
0.0
 10
15.5450462548
 20
16.2066618285
 30
0.0
 10
15.5334060539
 20
16.2089256972
 30
0.0
 10
15.5175093446
 20
16.211160278
 30
0.0
 10
15.4975495679
 20
16.21334318329999
 30
0.0
 10
15.4736707447
 20
16.2154323719
 30
0.0
 10
15.4460966085
 20
16.2174061477
 30
0.0
 10
15.4150716772
 20
16.2192418665
 30
0.0
 10
15.3808770905
 20
16.2209214495
 30
0.0
 10
15.3298694374
 20
16.2229942188
 30
0.0
 10
15.2607075858
 20
16.2250308602
 30
0.0
 10
15.1730252966
 20
16.2265934044
 30
0.0
 10
15.1125352216
 20
16.2270449222
 30
0.0
 10
15.0816311252
 20
16.2271238414
 30
0.0
  0
SPLINE
  5
D49
330
21D
100
AcDbEntity
  8
0
  6
Continuous
 62
     7
100
AcDbSpline
210
0.0
220
0.0
230
1.0
 70
     8
 71
     3
 72
    21
 73
    17
 74
     0
 42
0.0000000001
 43
0.0000000001
 40
0.0
 40
0.0
 40
0.0
 40
0.0
 40
0.0031662561
 40
0.0080639043
 40
0.0241733216
 40
0.0490961928
 40
0.0827779254
 40
0.1249787394
 40
0.175349004
 40
0.2334517857
 40
0.2987735679
 40
0.3707319228
 40
0.4486823245
 40
0.6197091576
 40
0.8057119724999999
 40
1.0
 40
1.0
 40
1.0
 40
1.0
 10
15.5565593543
 20
13.1036055437
 30
0.0
 10
15.5564320877
 20
13.103118252
 30
0.0
 10
15.5555176223
 20
13.1020903363
 30
0.0
 10
15.552145729
 20
13.1002680387
 30
0.0
 10
15.5450462548
 20
13.0982362791
 30
0.0
 10
15.5334060537
 20
13.0959724098
 30
0.0
 10
15.5175093443
 20
13.0937378285
 30
0.0
 10
15.4975495674
 20
13.0915549227
 30
0.0
 10
15.4736707442
 20
13.0894657336
 30
0.0
 10
15.446096608
 20
13.0874919573
 30
0.0
 10
15.4150716766
 20
13.0856562381
 30
0.0
 10
15.38087709
 20
13.0839766548
 30
0.0
 10
15.329869437
 20
13.081903885
 30
0.0
 10
15.2607075856
 20
13.079867243
 30
0.0
 10
15.1730252966
 20
13.0783046985
 30
0.0
 10
15.1125352217
 20
13.0778531806
 30
0.0
 10
15.0816311255
 20
13.0777742614
 30
0.0
  0
SPLINE
  5
D4A
330
21D
100
AcDbEntity
  8
0
  6
Continuous
 62
     7
100
AcDbSpline
210
0.0
220
0.0
230
1.0
 70
     8
 71
     3
 72
    21
 73
    17
 74
     0
 42
0.0000000001
 43
0.0000000001
 40
0.0
 40
0.0
 40
0.0
 40
0.0
 40
0.0040126295
 40
0.0100890533
 40
0.018287314
 40
0.0286177451
 40
0.0556305629
 40
0.0909576191
 40
0.134326278
 40
0.1853869401
 40
0.2437213672
 40
0.3088484684
 40
0.4572716699
 40
0.6257429643
 40
0.8086756967000001
 40
1.0
 40
1.0
 40
1.0
 40
1.0
 10
14.9011041001
 20
12.4490344977
 30
0.0
 10
14.9014493979
 20
12.449549713
 30
0.0
 10
14.9020397957
 20
12.4510144968
 30
0.0
 10
14.9027901998
 20
12.4537344377
 30
0.0
 10
14.90354674
 20
12.457466932
 30
0.0
 10
14.9046639371
 20
12.4644163247
 30
0.0
 10
14.9059673951
 20
12.4755780752
 30
0.0
 10
14.9074194547
 20
12.4918525192
 30
0.0
 10
14.9088297833
 20
12.511860315
 30
0.0
 10
14.9101870449
 20
12.5354339385
 30
0.0
 10
14.9114745517
 20
12.5623791148
 30
0.0
 10
14.9131559057
 20
12.6043704106
 30
0.0
 10
14.9149444586
 20
12.6633929265
 30
0.0
 10
14.9165829483
 20
12.7406335321
 30
0.0
 10
14.9177300308
 20
12.8245147544
 30
0.0
 10
14.9181357387
 20
12.8823619152
 30
0.0
 10
14.9182501203
 20
12.9119342859
 30
0.0
  0
SPLINE
  5
D4B
330
21D
100
AcDbEntity
  8
0
  6
Continuous
 62
     7
100
AcDbSpline
210
0.0
220
0.0
230
1.0
 70
     8
 71
     3
 72
    21
 73
    17
 74
     0
 42
0.0000000001
 43
0.0000000001
 40
0.0
 40
0.0
 40
0.0
 40
0.0
 40
0.0040122908
 40
0.0100886609
 40
0.0182871442
 40
0.02861806
 40
0.0556325694
 40
0.0909621511
 40
0.134333982
 40
0.185398237
 40
0.2437364151
 40
0.3088671296
 40
0.4572958201
 40
0.6257678718000001
 40
0.808693573
 40
1.0
 40
1.0
 40
1.0
 40
1.0
 10
8.5414511894
 20
12.460708882
 30
0.0
 10
8.541796597799997
 20
12.4612242735
 30
0.0
 10
8.5423871388
 20
12.4626896552
 30
0.0
 10
8.543137723899999
 20
12.4654107422
 30
0.0
 10
8.543894443400001
 20
12.4691449366
 30
0.0
 10
8.545011915999996
 20
12.4760976519
 30
0.0
 10
8.5463156744
 20
12.4872648489
 30
0.0
 10
8.5477680505
 20
12.5035472977
 30
0.0
 10
8.5491786583
 20
12.5235649551
 30
0.0
 10
8.550536154299999
 20
12.5471501229
 30
0.0
 10
8.5518238399
 20
12.5741083245
 30
0.0
 10
8.553505343999997
 20
12.61611926
 30
0.0
 10
8.555293887599999
 20
12.6751681021
 30
0.0
 10
8.5569320692
 20
12.7524410337
 30
0.0
 10
8.558078513799998
 20
12.8363537507
 30
0.0
 10
8.5584835977
 20
12.8942213504
 30
0.0
 10
8.5585976024
 20
12.9238033731
 30
0.0
  0
SPLINE
  5
D4C
330
21D
100
AcDbEntity
  8
0
  6
Continuous
 62
     7
100
AcDbSpline
210
0.0
220
0.0
230
1.0
 70
     8
 71
     3
 72
    21
 73
    17
 74
     0
 42
0.0000000001
 43
0.0000000001
 40
0.0
 40
0.0
 40
0.0
 40
0.0
 40
0.0040122121
 40
0.0100885505
 40
0.0182870486
 40
0.028618024
 40
0.055632776
 40
0.0909627445
 40
0.1343350756
 40
0.1853999072
 40
0.2437386951
 40
0.3088700036
 40
0.4572996157000003
 40
0.6257718338
 40
0.8086964392
 40
1.0
 40
1.0
 40
1.0
 40
1.0
 10
7.5067712019
 20
12.4626082014
 30
0.0
 10
7.507116629099996
 20
12.4631236171
 30
0.0
 10
7.507707193899999
 20
12.4645890896
 30
0.0
 10
7.5084578088
 20
12.4673103536
 30
0.0
 10
7.5092145578
 20
12.4710448168
 30
0.0
 10
7.5103320762
 20
12.4779980652
 30
0.0
 10
7.5116358845
 20
12.4891661431
 30
0.0
 10
7.513088313099999
 20
12.5054498926
 30
0.0
 10
7.514498967399996
 20
12.5254691587
 30
0.0
 10
7.5158565026
 20
12.549056215
 30
0.0
 10
7.5171442183
 20
12.5760165512
 30
0.0
 10
7.518825747999999
 20
12.6180307119
 30
0.0
 10
7.5206142911
 20
12.677083884
 30
0.0
 10
7.5222524232
 20
12.7543621385
 30
0.0
 10
7.5233987637
 20
12.838280049
 30
0.0
 10
7.523803745399999
 20
12.8961510215
 30
0.0
 10
7.5239176882
 20
12.9257346382
 30
0.0
  0
SPLINE
  5
D4D
330
21D
100
AcDbEntity
  8
0
  6
Continuous
 62
     7
100
AcDbSpline
210
0.0
220
0.0
230
1.0
 70
     8
 71
     3
 72
    18
 73
    14
 74
     0
 42
0.0000000001
 43
0.0000000001
 40
0.0
 40
0.0
 40
0.0
 40
0.0
 40
0.0095053382
 40
0.0277641762
 40
0.0546293016
 40
0.0898781845
 40
0.1332175833
 40
0.1842867198
 40
0.3078516447
 40
0.4564638617
 40
0.6251806933000001
 40
0.8083905951000001
 40
1.0
 40
1.0
 40
1.0
 40
1.0
 10
7.1920067123
 20
16.8422893587
 30
0.0
 10
7.191851319099996
 20
16.8408298319
 30
0.0
 10
7.1917117161
 20
16.8365397986
 30
0.0
 10
7.1914526127
 20
16.8281116659
 30
0.0
 10
7.191237390299997
 20
16.8157006932
 30
0.0
 10
7.191000652499997
 20
16.7994194922
 30
0.0
 10
7.1907786008
 20
16.7793992349
 30
0.0
 10
7.190470122299996
 20
16.7457421891
 30
0.0
 10
7.190134608999997
 20
16.695828794
 30
0.0
 10
7.1898057044
 20
16.6277485431
 30
0.0
 10
7.189545745399999
 20
16.5504577519
 30
0.0
 10
7.1893634523
 20
16.4665272943
 30
0.0
 10
7.189299152799997
 20
16.4086492414
 30
0.0
 10
7.189281067
 20
16.3790617007
 30
0.0
  0
SPLINE
  5
D4E
330
21D
100
AcDbEntity
  8
0
  6
Continuous
 62
     7
100
AcDbSpline
210
0.0
220
0.0
230
1.0
 70
     8
 71
     3
 72
    21
 73
    17
 74
     0
 42
0.0000000001
 43
0.0000000001
 40
0.0
 40
0.0
 40
0.0
 40
0.0
 40
0.0040122575
 40
0.0100886413
 40
0.0182871829
 40
0.0286181988
 40
0.0556330231
 40
0.0909630506
 40
0.1343354271
 40
0.1854002903
 40
0.2437390957
 40
0.3088704079
 40
0.4572999873
 40
0.6257721228000001
 40
0.8086966015999998
 40
1.0
 40
1.0
 40
1.0
 40
1.0
 10
7.5067711988
 20
16.8422902682
 30
0.0
 10
7.507116625
 20
16.8417748428
 30
0.0
 10
7.507707189299999
 20
16.8403093548
 30
0.0
 10
7.508457804199999
 20
16.837588067
 30
0.0
 10
7.5092145532
 20
16.833853581
 30
0.0
 10
7.5103320707
 20
16.8269003032
 30
0.0
 10
7.5116358782
 20
16.8157321913
 30
0.0
 10
7.513088306
 20
16.7994484036
 30
0.0
 10
7.514498959299999
 20
16.7794291032
 30
0.0
 10
7.5158564933
 20
16.7558420169
 30
0.0
 10
7.517144207799997
 20
16.7288816548
 30
0.0
 10
7.518825735499999
 20
16.6868674684
 30
0.0
 10
7.520614276199999
 20
16.6278142751
 30
0.0
 10
7.522252405599999
 20
16.5505360075
 30
0.0
 10
7.5233987436
 20
16.4666180999
 30
0.0
 10
7.5238037237
 20
16.4087471344
 30
0.0
 10
7.523917665799999
 20
16.3791635235
 30
0.0
  0
SPLINE
  5
D4F
330
21D
100
AcDbEntity
  8
0
  6
Continuous
 62
     7
100
AcDbSpline
210
0.0
220
0.0
230
1.0
 70
     8
 71
     3
 72
    21
 73
    17
 74
     0
 42
0.0000000001
 43
0.0000000001
 40
0.0
 40
0.0
 40
0.0
 40
0.0
 40
0.0096163909
 40
0.0279699378
 40
0.0549272994
 40
0.0902668415
 40
0.1336930649
 40
0.184841418
 40
0.3085237083
 40
0.4571671333
 40
0.62579373
 40
0.7158609420000001
 40
0.8087696929999999
 40
0.9037442659999999
 40
0.9517617749999999
 40
1.0
 40
1.0
 40
1.0
 40
1.0
 10
7.1054475669
 20
12.4625856625
 30
0.0
 10
7.1051929419
 20
12.4640556983
 30
0.0
 10
7.105104117599997
 20
12.4684160392
 30
0.0
 10
7.104989420399999
 20
12.4769218934
 30
0.0
 10
7.105177487299996
 20
12.4894415021
 30
0.0
 10
7.1055460107
 20
12.5058364464
 30
0.0
 10
7.1061741644
 20
12.5259834785
 30
0.0
 10
7.107428520599999
 20
12.559821046
 30
0.0
 10
7.109715863799999
 20
12.6099553203
 30
0.0
 10
7.113527486799999
 20
12.678261122
 30
0.0
 10
7.11783227
 20
12.7413129625
 30
0.0
 10
7.122302411299997
 20
12.7956798916
 30
0.0
 10
7.126409334899999
 20
12.8386068051
 30
0.0
 10
7.130606067899999
 20
12.8749712552
 30
0.0
 10
7.1349123239
 20
12.9043263314
 30
0.0
 10
7.137575403799997
 20
12.9190293052
 30
0.0
 10
7.1391791671
 20
12.9263393131
 30
0.0
  0
SPLINE
  5
D50
330
21D
100
AcDbEntity
  8
0
  6
Continuous
 62
     7
100
AcDbSpline
210
0.0
220
0.0
230
1.0
 70
     8
 71
     3
 72
    18
 73
    14
 74
     0
 42
0.0000000001
 43
0.0000000001
 40
0.0
 40
0.0
 40
0.0
 40
0.0
 40
0.009505339
 40
0.0277641773
 40
0.0546293029
 40
0.0898781858
 40
0.1332175845
 40
0.184286721
 40
0.3078516455
 40
0.4564638621000002
 40
0.6251806933000001
 40
0.808390595
 40
1.0
 40
1.0
 40
1.0
 40
1.0
 10
7.192004866599996
 20
12.4626091109
 30
0.0
 10
7.1918494694
 20
12.4640686374
 30
0.0
 10
7.191709862699997
 20
12.4683586709
 30
0.0
 10
7.191450752599997
 20
12.4767868034
 30
0.0
 10
7.1912355246
 20
12.489197776
 30
0.0
 10
7.1909987807
 20
12.5054789767
 30
0.0
 10
7.1907767232
 20
12.5254992337
 30
0.0
 10
7.190468236599997
 20
12.559156279
 30
0.0
 10
7.1901327147
 20
12.6090696734
 30
0.0
 10
7.1898038016
 20
12.6771499234
 30
0.0
 10
7.1895438359
 20
12.7544407136
 30
0.0
 10
7.189361538099999
 20
12.8383711703
 30
0.0
 10
7.189297237
 20
12.8962492225
 30
0.0
 10
7.1892791507
 20
12.925836763
 30
0.0
  0
ENDSEC
  0
SECTION
  2
OBJECTS
  0
DICTIONARY
  5
C
330
0
100
AcDbDictionary
281
     1
  3
ACAD_COLOR
350
F12
  3
ACAD_GROUP
350
D
  3
ACAD_LAYOUT
350
1A
  3
ACAD_MATERIAL
350
EE8
  3
ACAD_MLEADERSTYLE
350
F35
  3
ACAD_MLINESTYLE
350
17
  3
ACAD_PLOTSETTINGS
350
19
  3
ACAD_PLOTSTYLENAME
350
E
  3
ACAD_SCALELIST
350
F13
  3
ACAD_TABLESTYLE
350
EE1
  3
ACAD_VISUALSTYLE
350
F01
  3
ACDB_RECOMPOSE_DATA
350
FE4
  3
AcDbVariableDictionary
350
FDC
  3
AcmDictionary
350
F94
  3
AMG
350
F3B
  3
AMGSNAPSETTINGS
350
FD5
  0
DICTIONARY
  5
F12
102
{ACAD_REACTORS
330
C
102
}
330
C
100
AcDbDictionary
281
     1
  0
DICTIONARY
  5
D
102
{ACAD_REACTORS
330
C
102
}
330
C
100
AcDbDictionary
281
     1
  0
DICTIONARY
  5
1A
102
{ACAD_REACTORS
330
C
102
}
330
C
100
AcDbDictionary
281
     1
  3
Layout1
350
EE3
  3
Model
350
EE2
  0
DICTIONARY
  5
EE8
102
{ACAD_REACTORS
330
C
102
}
330
C
100
AcDbDictionary
281
     1
  3
ByBlock
350
EF1
  3
ByLayer
350
EE9
  3
Global
350
EF9
  0
DICTIONARY
  5
F35
102
{ACAD_REACTORS
330
C
102
}
330
C
100
AcDbDictionary
281
     1
  3
Standard
350
F36
  0
DICTIONARY
  5
17
102
{ACAD_REACTORS
330
C
102
}
330
C
100
AcDbDictionary
281
     1
  3
Standard
350
18
  0
DICTIONARY
  5
19
102
{ACAD_REACTORS
330
C
102
}
330
C
100
AcDbDictionary
281
     1
  0
ACDBDICTIONARYWDFLT
  5
E
102
{ACAD_REACTORS
330
C
102
}
330
C
100
AcDbDictionary
281
     1
  3
Normal
350
F
100
AcDbDictionaryWithDefault
340
F
  0
DICTIONARY
  5
F13
102
{ACAD_REACTORS
330
C
102
}
330
C
100
AcDbDictionary
281
     1
  3
A0
350
F14
  3
A1
350
F15
  3
A2
350
F16
  3
A3
350
F17
  3
A4
350
F18
  3
A5
350
F19
  3
A6
350
F1A
  3
A7
350
F1B
  3
A8
350
F1C
  3
A9
350
F1D
  3
B0
350
F1E
  3
B1
350
F1F
  3
B2
350
F20
  3
B3
350
F21
  3
B4
350
F22
  3
B5
350
F23
  3
B6
350
F24
  3
B7
350
F25
  3
B8
350
F26
  3
B9
350
F27
  3
C0
350
F28
  3
C1
350
F29
  3
C2
350
F2A
  3
C3
350
F2B
  3
C4
350
F2C
  3
C5
350
F2D
  3
C6
350
F2E
  3
C7
350
F2F
  3
C8
350
F30
  3
C9
350
F31
  3
D0
350
F32
  3
D1
350
F33
  3
D2
350
F34
  0
DICTIONARY
  5
EE1
330
C
100
AcDbDictionary
281
     1
  3
Standard
350
EE4
  3
Standard1
350
EE5
  0
DICTIONARY
  5
F01
102
{ACAD_REACTORS
330
C
102
}
330
C
100
AcDbDictionary
281
     1
  3
2dWireframe
350
F07
  3
3D Hidden
350
F09
  3
3dWireframe
350
F08
  3
Basic
350
F06
  3
Brighten
350
F0D
  3
ColorChange
350
F11
  3
Conceptual
350
F0A
  3
Dim
350
F0C
  3
Facepattern
350
F10
  3
Flat
350
F02
  3
FlatWithEdges
350
F03
  3
Gouraud
350
F04
  3
GouraudWithEdges
350
F05
  3
Linepattern
350
F0F
  3
Realistic
350
F0B
  3
Thicken
350
F0E
  0
XRECORD
  5
FE4
102
{ACAD_REACTORS
330
C
102
}
330
C
100
AcDbXrecord
280
     1
 90
        1
330
EE4
330
EE5
  0
DICTIONARY
  5
FDC
102
{ACAD_REACTORS
330
C
102
}
330
C
100
AcDbDictionary
281
     1
  3
CANNOSCALE
350
FDF
  3
CMLEADERSTYLE
350
FDE
  3
CTABLESTYLE
350
FDD
  0
DICTIONARY
  5
F94
102
{ACAD_REACTORS
330
C
102
}
330
C
100
AcDbDictionary
281
     1
  3
AcmStdDictionary
350
FA1
  0
DICTIONARY
  5
F3B
102
{ACAD_REACTORS
330
C
102
}
330
C
100
AcDbDictionary
281
     1
  0
DICTIONARY
  5
FD5
102
{ACAD_REACTORS
330
C
102
}
330
C
100
AcDbDictionary
281
     1
  0
LAYOUT
  5
EE3
102
{ACAD_REACTORS
330
1A
102
}
330
1A
100
AcDbPlotSettings
  1

  2
none_device
  4
ANSI_D_(34.00_x_22.00_Inches)
  6

 40
0.0
 41
0.0
 42
0.0
 43
0.0
 44
863.6000000000001
 45
558.8
 46
0.0
 47
0.0
 48
0.0
 49
0.0
140
0.0
141
0.0
142
1.0
143
1.0
 70
     0
 72
     0
 73
     0
 74
     0
  7

 75
     0
147
1.0
 76
     0
 77
     2
 78
   300
148
0.0
149
0.0
100
AcDbLayout
  1
Layout1
 70
     1
 71
     1
 10
0.0
 20
0.0
 11
12.0
 21
9.0
 12
0.0
 22
0.0
 32
0.0
 14
1.000000000000000E+20
 24
1.000000000000000E+20
 34
1.000000000000000E+20
 15
-1.000000000000000E+20
 25
-1.000000000000000E+20
 35
-1.000000000000000E+20
146
0.0
 13
0.0
 23
0.0
 33
0.0
 16
1.0
 26
0.0
 36
0.0
 17
0.0
 27
1.0
 37
0.0
 76
     0
330
21E
  0
LAYOUT
  5
EE2
102
{ACAD_REACTORS
330
1A
102
}
330
1A
100
AcDbPlotSettings
  1

  2
none_device
  4
ANSI_D_(34.00_x_22.00_Inches)
  6

 40
0.0
 41
0.0
 42
0.0
 43
0.0
 44
863.6000000000001
 45
558.8
 46
0.0
 47
0.0
 48
0.0
 49
0.0
140
0.0
141
0.0
142
1.0
143
1.0
 70
  1024
 72
     0
 73
     0
 74
     0
  7

 75
     0
147
1.0
 76
     0
 77
     2
 78
   300
148
0.0
149
0.0
100
AcDbLayout
  1
Model
 70
     0
 71
     0
 10
0.0
 20
0.0
 11
34.0
 21
22.0
 12
0.0
 22
0.0
 32
0.0
 14
0.0
 24
0.0
 34
0.0
 15
0.0
 25
0.0
 35
0.0
146
0.0
 13
0.0
 23
0.0
 33
0.0
 16
1.0
 26
0.0
 36
0.0
 17
0.0
 27
1.0
 37
0.0
 76
     0
330
21D
331
1F4
  0
MATERIAL
  5
EF1
102
{ACAD_XDICTIONARY
360
EF2
102
}
102
{ACAD_REACTORS
330
EE8
102
}
330
EE8
100
AcDbMaterial
  1
ByBlock
 72
     0
 43
0.0208333333333333
 43
0.0
 43
0.0
 43
0.0
 43
0.0
 43
0.0208333333333333
 43
0.0
 43
0.0
 43
0.0
 43
0.0
 43
1.0
 43
0.0
 43
0.0
 43
0.0
 43
0.0
 43
1.0
 77
     0
 47
0.0208333333333333
 47
0.0
 47
0.0
 47
0.0
 47
0.0
 47
0.0208333333333333
 47
0.0
 47
0.0
 47
0.0
 47
0.0
 47
1.0
 47
0.0
 47
0.0
 47
0.0
 47
0.0
 47
1.0
171
     0
 49
0.0208333333333333
 49
0.0
 49
0.0
 49
0.0
 49
0.0
 49
0.0208333333333333
 49
0.0
 49
0.0
 49
0.0
 49
0.0
 49
1.0
 49
0.0
 49
0.0
 49
0.0
 49
0.0
 49
1.0
175
     0
142
0.0208333333333333
142
0.0
142
0.0
142
0.0
142
0.0
142
0.0208333333333333
142
0.0
142
0.0
142
0.0
142
0.0
142
1.0
142
0.0
142
0.0
142
0.0
142
0.0
142
1.0
179
     0
144
0.0208333333333333
144
0.0
144
0.0
144
0.0
144
0.0
144
0.0208333333333333
144
0.0
144
0.0
144
0.0
144
0.0
144
1.0
144
0.0
144
0.0
144
0.0
144
0.0
144
1.0
147
0.0208333333333333
147
0.0
147
0.0
147
0.0
147
0.0
147
0.0208333333333333
147
0.0
147
0.0
147
0.0
147
0.0
147
1.0
147
0.0
147
0.0
147
0.0
147
0.0
147
1.0
  0
MATERIAL
  5
EE9
102
{ACAD_XDICTIONARY
360
EEA
102
}
102
{ACAD_REACTORS
330
EE8
102
}
330
EE8
100
AcDbMaterial
  1
ByLayer
 72
     0
 43
0.0208333333333333
 43
0.0
 43
0.0
 43
0.0
 43
0.0
 43
0.0208333333333333
 43
0.0
 43
0.0
 43
0.0
 43
0.0
 43
1.0
 43
0.0
 43
0.0
 43
0.0
 43
0.0
 43
1.0
 77
     0
 47
0.0208333333333333
 47
0.0
 47
0.0
 47
0.0
 47
0.0
 47
0.0208333333333333
 47
0.0
 47
0.0
 47
0.0
 47
0.0
 47
1.0
 47
0.0
 47
0.0
 47
0.0
 47
0.0
 47
1.0
171
     0
 49
0.0208333333333333
 49
0.0
 49
0.0
 49
0.0
 49
0.0
 49
0.0208333333333333
 49
0.0
 49
0.0
 49
0.0
 49
0.0
 49
1.0
 49
0.0
 49
0.0
 49
0.0
 49
0.0
 49
1.0
175
     0
142
0.0208333333333333
142
0.0
142
0.0
142
0.0
142
0.0
142
0.0208333333333333
142
0.0
142
0.0
142
0.0
142
0.0
142
1.0
142
0.0
142
0.0
142
0.0
142
0.0
142
1.0
179
     0
144
0.0208333333333333
144
0.0
144
0.0
144
0.0
144
0.0
144
0.0208333333333333
144
0.0
144
0.0
144
0.0
144
0.0
144
1.0
144
0.0
144
0.0
144
0.0
144
0.0
144
1.0
147
0.0208333333333333
147
0.0
147
0.0
147
0.0
147
0.0
147
0.0208333333333333
147
0.0
147
0.0
147
0.0
147
0.0
147
1.0
147
0.0
147
0.0
147
0.0
147
0.0
147
1.0
  0
MATERIAL
  5
EF9
102
{ACAD_XDICTIONARY
360
EFA
102
}
102
{ACAD_REACTORS
330
EE8
102
}
330
EE8
100
AcDbMaterial
  1
Global
 72
     0
 43
0.0208333333333333
 43
0.0
 43
0.0
 43
0.0
 43
0.0
 43
0.0208333333333333
 43
0.0
 43
0.0
 43
0.0
 43
0.0
 43
1.0
 43
0.0
 43
0.0
 43
0.0
 43
0.0
 43
1.0
 77
     0
 47
0.0208333333333333
 47
0.0
 47
0.0
 47
0.0
 47
0.0
 47
0.0208333333333333
 47
0.0
 47
0.0
 47
0.0
 47
0.0
 47
1.0
 47
0.0
 47
0.0
 47
0.0
 47
0.0
 47
1.0
171
     0
 49
0.0208333333333333
 49
0.0
 49
0.0
 49
0.0
 49
0.0
 49
0.0208333333333333
 49
0.0
 49
0.0
 49
0.0
 49
0.0
 49
1.0
 49
0.0
 49
0.0
 49
0.0
 49
0.0
 49
1.0
175
     0
142
0.0208333333333333
142
0.0
142
0.0
142
0.0
142
0.0
142
0.0208333333333333
142
0.0
142
0.0
142
0.0
142
0.0
142
1.0
142
0.0
142
0.0
142
0.0
142
0.0
142
1.0
179
     0
144
0.0208333333333333
144
0.0
144
0.0
144
0.0
144
0.0
144
0.0208333333333333
144
0.0
144
0.0
144
0.0
144
0.0
144
1.0
144
0.0
144
0.0
144
0.0
144
0.0
144
1.0
147
0.0208333333333333
147
0.0
147
0.0
147
0.0
147
0.0
147
0.0208333333333333
147
0.0
147
0.0
147
0.0
147
0.0
147
1.0
147
0.0
147
0.0
147
0.0
147
0.0
147
1.0
  0
MLEADERSTYLE
  5
F36
102
{ACAD_REACTORS
330
F35
102
}
330
F35
100
AcDbMLeaderStyle
170
     2
171
     1
172
     0
 90
        2
 40
0.0
 41
0.0
173
     1
 91
-1056964608
340
14
 92
       -2
290
     1
 42
0.09
291
     1
 43
0.36
  3
Standard
 44
0.18
300

342
11
174
     1
178
     6
175
     1
176
     0
 93
-1056964608
 45
0.18
292
     0
297
     0
 46
0.18
 94
-1056964608
 47
1.0
 49
1.0
140
1.0
293
     1
141
0.0
294
     1
177
     0
142
1.0
295
     0
296
     0
143
0.125
1001
ACAD_MLEADERVER
1070
     2
  0
MLINESTYLE
  5
18
102
{ACAD_REACTORS
330
17
102
}
330
17
100
AcDbMlineStyle
  2
STANDARD
 70
     0
  3

 62
   256
 51
90.0
 52
90.0
 71
     2
 49
0.5
 62
   256
  6
BYLAYER
 49
-0.5
 62
   256
  6
BYLAYER
  0
ACDBPLACEHOLDER
  5
F
102
{ACAD_REACTORS
330
E
102
}
330
E
  0
SCALE
  5
F14
102
{ACAD_REACTORS
330
F13
102
}
330
F13
100
AcDbScale
 70
     0
300
1:1
140
1.0
141
1.0
290
     1
  0
SCALE
  5
F15
102
{ACAD_REACTORS
330
F13
102
}
330
F13
100
AcDbScale
 70
     0
300
1:2
140
1.0
141
2.0
290
     0
  0
SCALE
  5
F16
102
{ACAD_REACTORS
330
F13
102
}
330
F13
100
AcDbScale
 70
     0
300
1:4
140
1.0
141
4.0
290
     0
  0
SCALE
  5
F17
102
{ACAD_REACTORS
330
F13
102
}
330
F13
100
AcDbScale
 70
     0
300
1:5
140
1.0
141
5.0
290
     0
  0
SCALE
  5
F18
102
{ACAD_REACTORS
330
F13
102
}
330
F13
100
AcDbScale
 70
     0
300
1:8
140
1.0
141
8.0
290
     0
  0
SCALE
  5
F19
102
{ACAD_REACTORS
330
F13
102
}
330
F13
100
AcDbScale
 70
     0
300
1:10
140
1.0
141
10.0
290
     0
  0
SCALE
  5
F1A
102
{ACAD_REACTORS
330
F13
102
}
330
F13
100
AcDbScale
 70
     0
300
1:16
140
1.0
141
16.0
290
     0
  0
SCALE
  5
F1B
102
{ACAD_REACTORS
330
F13
102
}
330
F13
100
AcDbScale
 70
     0
300
1:20
140
1.0
141
20.0
290
     0
  0
SCALE
  5
F1C
102
{ACAD_REACTORS
330
F13
102
}
330
F13
100
AcDbScale
 70
     0
300
1:30
140
1.0
141
30.0
290
     0
  0
SCALE
  5
F1D
102
{ACAD_REACTORS
330
F13
102
}
330
F13
100
AcDbScale
 70
     0
300
1:40
140
1.0
141
40.0
290
     0
  0
SCALE
  5
F1E
102
{ACAD_REACTORS
330
F13
102
}
330
F13
100
AcDbScale
 70
     0
300
1:50
140
1.0
141
50.0
290
     0
  0
SCALE
  5
F1F
102
{ACAD_REACTORS
330
F13
102
}
330
F13
100
AcDbScale
 70
     0
300
1:100
140
1.0
141
100.0
290
     0
  0
SCALE
  5
F20
102
{ACAD_REACTORS
330
F13
102
}
330
F13
100
AcDbScale
 70
     0
300
2:1
140
2.0
141
1.0
290
     0
  0
SCALE
  5
F21
102
{ACAD_REACTORS
330
F13
102
}
330
F13
100
AcDbScale
 70
     0
300
4:1
140
4.0
141
1.0
290
     0
  0
SCALE
  5
F22
102
{ACAD_REACTORS
330
F13
102
}
330
F13
100
AcDbScale
 70
     0
300
8:1
140
8.0
141
1.0
290
     0
  0
SCALE
  5
F23
102
{ACAD_REACTORS
330
F13
102
}
330
F13
100
AcDbScale
 70
     0
300
10:1
140
10.0
141
1.0
290
     0
  0
SCALE
  5
F24
102
{ACAD_REACTORS
330
F13
102
}
330
F13
100
AcDbScale
 70
     0
300
100:1
140
100.0
141
1.0
290
     0
  0
SCALE
  5
F25
102
{ACAD_REACTORS
330
F13
102
}
330
F13
100
AcDbScale
 70
     0
300
1/128" = 1'-0"
140
0.0078125
141
12.0
290
     0
  0
SCALE
  5
F26
102
{ACAD_REACTORS
330
F13
102
}
330
F13
100
AcDbScale
 70
     0
300
1/64" = 1'-0"
140
0.015625
141
12.0
290
     0
  0
SCALE
  5
F27
102
{ACAD_REACTORS
330
F13
102
}
330
F13
100
AcDbScale
 70
     0
300
1/32" = 1'-0"
140
0.03125
141
12.0
290
     0
  0
SCALE
  5
F28
102
{ACAD_REACTORS
330
F13
102
}
330
F13
100
AcDbScale
 70
     0
300
1/16" = 1'-0"
140
0.0625
141
12.0
290
     0
  0
SCALE
  5
F29
102
{ACAD_REACTORS
330
F13
102
}
330
F13
100
AcDbScale
 70
     0
300
3/32" = 1'-0"
140
0.09375
141
12.0
290
     0
  0
SCALE
  5
F2A
102
{ACAD_REACTORS
330
F13
102
}
330
F13
100
AcDbScale
 70
     0
300
1/8" = 1'-0"
140
0.125
141
12.0
290
     0
  0
SCALE
  5
F2B
102
{ACAD_REACTORS
330
F13
102
}
330
F13
100
AcDbScale
 70
     0
300
3/16" = 1'-0"
140
0.1875
141
12.0
290
     0
  0
SCALE
  5
F2C
102
{ACAD_REACTORS
330
F13
102
}
330
F13
100
AcDbScale
 70
     0
300
1/4" = 1'-0"
140
0.25
141
12.0
290
     0
  0
SCALE
  5
F2D
102
{ACAD_REACTORS
330
F13
102
}
330
F13
100
AcDbScale
 70
     0
300
3/8" = 1'-0"
140
0.375
141
12.0
290
     0
  0
SCALE
  5
F2E
102
{ACAD_REACTORS
330
F13
102
}
330
F13
100
AcDbScale
 70
     0
300
1/2" = 1'-0"
140
0.5
141
12.0
290
     0
  0
SCALE
  5
F2F
102
{ACAD_REACTORS
330
F13
102
}
330
F13
100
AcDbScale
 70
     0
300
3/4" = 1'-0"
140
0.75
141
12.0
290
     0
  0
SCALE
  5
F30
102
{ACAD_REACTORS
330
F13
102
}
330
F13
100
AcDbScale
 70
     0
300
1" = 1'-0"
140
1.0
141
12.0
290
     0
  0
SCALE
  5
F31
102
{ACAD_REACTORS
330
F13
102
}
330
F13
100
AcDbScale
 70
     0
300
1-1/2" = 1'-0"
140
1.5
141
12.0
290
     0
  0
SCALE
  5
F32
102
{ACAD_REACTORS
330
F13
102
}
330
F13
100
AcDbScale
 70
     0
300
3" = 1'-0"
140
3.0
141
12.0
290
     0
  0
SCALE
  5
F33
102
{ACAD_REACTORS
330
F13
102
}
330
F13
100
AcDbScale
 70
     0
300
6" = 1'-0"
140
6.0
141
12.0
290
     0
  0
SCALE
  5
F34
102
{ACAD_REACTORS
330
F13
102
}
330
F13
100
AcDbScale
 70
     0
300
1'-0" = 1'-0"
140
12.0
141
12.0
290
     0
  0
TABLESTYLE
  5
EE4
102
{ACAD_XDICTIONARY
360
FE0
102
}
102
{ACAD_REACTORS
330
EE1
102
}
330
EE1
100
AcDbTableStyle
  3
Standard
 70
     0
 71
     0
 40
0.06
 41
0.06
280
     1
281
     1
  7
STANDARD
140
0.18
170
     1
 62
     0
 63
     7
283
     0
 90
      512
 91
        0
  1

274
    -2
284
     1
 64
     0
275
    -2
285
     1
 65
     0
276
    -2
286
     1
 66
     0
277
    -2
287
     1
 67
     0
278
    -2
288
     1
 68
     0
279
    -2
289
     1
 69
     0
  7
STANDARD
140
0.18
170
     1
 62
     0
 63
     7
283
     0
 90
      512
 91
        0
  1

274
    -2
284
     1
 64
     0
275
    -2
285
     1
 65
     0
276
    -2
286
     1
 66
     0
277
    -2
287
     1
 67
     0
278
    -2
288
     1
 68
     0
279
    -2
289
     1
 69
     0
  7
STANDARD
140
0.18
170
     1
 62
     0
 63
     7
283
     0
 90
      512
 91
        0
  1

274
    -2
284
     1
 64
     0
275
    -2
285
     1
 65
     0
276
    -2
286
     1
 66
     0
277
    -2
287
     1
 67
     0
278
    -2
288
     1
 68
     0
279
    -2
289
     1
 69
     0
  0
TABLESTYLE
  5
EE5
102
{ACAD_XDICTIONARY
360
FE2
102
}
102
{ACAD_REACTORS
330
EE1
102
}
330
EE1
100
AcDbTableStyle
  3
Standard1
 70
     1
 71
     0
 40
0.06
 41
0.06
280
     1
281
     1
  7
STANDARD
140
0.18
170
     1
 62
     0
 63
     7
283
     0
 90
      512
 91
        0
  1

274
    -2
284
     1
 64
     0
275
    -2
285
     1
 65
     0
276
    -2
286
     1
 66
     0
277
    -2
287
     1
 67
     0
278
    -2
288
     1
 68
     0
279
    -2
289
     1
 69
     0
  7
STANDARD
140
0.18
170
     1
 62
     0
 63
     7
283
     0
 90
      512
 91
        0
  1

274
    -2
284
     1
 64
     0
275
    -2
285
     1
 65
     0
276
    -2
286
     1
 66
     0
277
    -2
287
     1
 67
     0
278
    -2
288
     1
 68
     0
279
    -2
289
     1
 69
     0
  7
STANDARD
140
0.18
170
     1
 62
     0
 63
     7
283
     0
 90
      512
 91
        0
  1

274
    -2
284
     1
 64
     0
275
    -2
285
     1
 65
     0
276
    -2
286
     1
 66
     0
277
    -2
287
     1
 67
     0
278
    -2
288
     1
 68
     0
279
    -2
289
     1
 69
     0
  0
VISUALSTYLE
  5
F07
102
{ACAD_REACTORS
330
F01
102
}
330
F01
100
AcDbVisualStyle
  2
2dWireframe
 70
     4
 71
     0
 72
     2
 73
     0
 90
        0
 40
-0.6
 41
-30.0
 62
     5
 63
     7
421
 16777215
 74
     1
 91
        4
 64
     7
 65
   257
 75
     1
175
     1
 42
1.0
 92
        0
 66
   257
 43
1.0
 76
     1
 77
     6
 78
     2
 67
     7
 79
     5
170
     0
171
     0
290
     0
174
     0
 93
        1
 44
0.0
173
     0
291
     0
 45
0.0
  0
VISUALSTYLE
  5
F09
102
{ACAD_REACTORS
330
F01
102
}
330
F01
100
AcDbVisualStyle
  2
3D Hidden
 70
     6
 71
     1
 72
     2
 73
     2
 90
        0
 40
-0.6
 41
-30.0
 62
     5
 63
     7
421
 16777215
 74
     2
 91
        2
 64
     7
 65
   257
 75
     2
175
     1
 42
40.0
 92
        0
 66
   257
 43
1.0
 76
     1
 77
     6
 78
     2
 67
     7
 79
     3
170
     0
171
     0
290
     0
174
     0
 93
        1
 44
0.0
173
     0
291
     0
 45
0.0
  0
VISUALSTYLE
  5
F08
102
{ACAD_REACTORS
330
F01
102
}
330
F01
100
AcDbVisualStyle
  2
3dWireframe
 70
     5
 71
     0
 72
     2
 73
     0
 90
        0
 40
-0.6
 41
-30.0
 62
     5
 63
     7
421
 16777215
 74
     1
 91
        4
 64
     7
 65
   257
 75
     1
175
     1
 42
1.0
 92
        0
 66
   257
 43
1.0
 76
     1
 77
     6
 78
     2
 67
     7
 79
     5
170
     0
171
     0
290
     0
174
     0
 93
        1
 44
0.0
173
     0
291
     0
 45
0.0
  0
VISUALSTYLE
  5
F06
102
{ACAD_REACTORS
330
F01
102
}
330
F01
100
AcDbVisualStyle
  2
Basic
 70
     7
 71
     1
 72
     0
 73
     1
 90
        0
 40
-0.6
 41
-30.0
 62
     5
 63
     7
421
 16777215
 74
     0
 91
        4
 64
     7
 65
   257
 75
     1
175
     1
 42
1.0
 92
        8
 66
     7
 43
1.0
 76
     1
 77
     6
 78
     2
 67
     7
 79
     5
170
     0
171
     0
290
     0
174
     0
 93
        1
 44
0.0
173
     0
291
     1
 45
0.0
  0
VISUALSTYLE
  5
F0D
102
{ACAD_REACTORS
330
F01
102
}
330
F01
100
AcDbVisualStyle
  2
Brighten
 70
    12
 71
     2
 72
     2
 73
     0
 90
        0
 40
-0.6
 41
-30.0
 62
     5
 63
     7
421
 16777215
 74
     1
 91
        4
 64
     7
 65
   257
 75
     1
175
     1
 42
1.0
 92
        8
 66
     7
 43
1.0
 76
     1
 77
     6
 78
     2
 67
     7
 79
     5
170
     0
171
     0
290
     0
174
     0
 93
        1
 44
50.0
173
     0
291
     1
 45
0.0
  0
VISUALSTYLE
  5
F11
102
{ACAD_REACTORS
330
F01
102
}
330
F01
100
AcDbVisualStyle
  2
ColorChange
 70
    16
 71
     2
 72
     2
 73
     3
 90
        0
 40
-0.6
 41
-30.0
 62
     5
 63
     8
421
  8421504
 74
     1
 91
        4
 64
     7
 65
   257
 75
     1
175
     1
 42
1.0
 92
        8
 66
     8
424
  8421504
 43
1.0
 76
     1
 77
     6
 78
     2
 67
     7
 79
     5
170
     0
171
     0
290
     0
174
     0
 93
        1
 44
0.0
173
     0
291
     1
 45
0.0
  0
VISUALSTYLE
  5
F0A
102
{ACAD_REACTORS
330
F01
102
}
330
F01
100
AcDbVisualStyle
  2
Conceptual
 70
     9
 71
     3
 72
     2
 73
     0
 90
        0
 40
-0.6
 41
-30.0
 62
     5
 63
     7
421
 16777215
 74
     2
 91
        2
 64
     7
 65
   257
 75
     1
175
     1
 42
40.0
 92
        8
 66
     7
 43
1.0
 76
     1
 77
     6
 78
     2
 67
     7
 79
     3
170
     0
171
     0
290
     0
174
     0
 93
        1
 44
0.0
173
     0
291
     0
 45
0.0
  0
VISUALSTYLE
  5
F0C
102
{ACAD_REACTORS
330
F01
102
}
330
F01
100
AcDbVisualStyle
  2
Dim
 70
    11
 71
     2
 72
     2
 73
     0
 90
        0
 40
-0.6
 41
-30.0
 62
     5
 63
     7
421
 16777215
 74
     1
 91
        4
 64
     7
 65
   257
 75
     1
175
     1
 42
1.0
 92
        8
 66
     7
 43
1.0
 76
     1
 77
     6
 78
     2
 67
     7
 79
     5
170
     0
171
     0
290
     0
174
     0
 93
        1
 44
-50.0
173
     0
291
     1
 45
0.0
  0
VISUALSTYLE
  5
F10
102
{ACAD_REACTORS
330
F01
102
}
330
F01
100
AcDbVisualStyle
  2
Facepattern
 70
    15
 71
     2
 72
     2
 73
     0
 90
        0
 40
-0.6
 41
-30.0
 62
     5
 63
     7
421
 16777215
 74
     1
 91
        4
 64
     7
 65
   257
 75
     1
175
     1
 42
1.0
 92
        8
 66
     7
 43
1.0
 76
     1
 77
     6
 78
     2
 67
     7
 79
     5
170
     0
171
     0
290
     0
174
     0
 93
        1
 44
0.0
173
     0
291
     1
 45
0.0
  0
VISUALSTYLE
  5
F02
102
{ACAD_REACTORS
330
F01
102
}
330
F01
100
AcDbVisualStyle
  2
Flat
 70
     0
 71
     2
 72
     1
 73
     1
 90
        2
 40
-0.6
 41
30.0
 62
     5
 63
     7
421
 16777215
 74
     0
 91
        4
 64
     7
 65
   257
 75
     1
175
     1
 42
1.0
 92
        8
 66
     7
 43
1.0
 76
     1
 77
     6
 78
     2
 67
     7
 79
     5
170
     0
171
     0
290
     0
174
     0
 93
       13
 44
0.0
173
     0
291
     1
 45
0.0
  0
VISUALSTYLE
  5
F03
102
{ACAD_REACTORS
330
F01
102
}
330
F01
100
AcDbVisualStyle
  2
FlatWithEdges
 70
     1
 71
     2
 72
     1
 73
     1
 90
        2
 40
-0.6
 41
30.0
 62
     5
 63
     7
421
 16777215
 74
     1
 91
        4
 64
     7
 65
   257
 75
     1
175
     1
 42
1.0
 92
        0
 66
   257
 43
1.0
 76
     1
 77
     6
 78
     2
 67
     7
 79
     5
170
     0
171
     0
290
     0
174
     0
 93
       13
 44
0.0
173
     0
291
     1
 45
0.0
  0
VISUALSTYLE
  5
F04
102
{ACAD_REACTORS
330
F01
102
}
330
F01
100
AcDbVisualStyle
  2
Gouraud
 70
     2
 71
     2
 72
     2
 73
     1
 90
        2
 40
-0.6
 41
30.0
 62
     5
 63
     7
421
 16777215
 74
     0
 91
        4
 64
     7
 65
   257
 75
     1
175
     1
 42
1.0
 92
        0
 66
     7
 43
1.0
 76
     1
 77
     6
 78
     2
 67
     7
 79
     5
170
     0
171
     0
290
     0
174
     0
 93
       13
 44
0.0
173
     0
291
     1
 45
0.0
  0
VISUALSTYLE
  5
F05
102
{ACAD_REACTORS
330
F01
102
}
330
F01
100
AcDbVisualStyle
  2
GouraudWithEdges
 70
     3
 71
     2
 72
     2
 73
     1
 90
        2
 40
-0.6
 41
30.0
 62
     5
 63
     7
421
 16777215
 74
     1
 91
        4
 64
     7
 65
   257
 75
     1
175
     1
 42
1.0
 92
        0
 66
   257
 43
1.0
 76
     1
 77
     6
 78
     2
 67
     7
 79
     5
170
     0
171
     0
290
     0
174
     0
 93
       13
 44
0.0
173
     0
291
     1
 45
0.0
  0
VISUALSTYLE
  5
F0F
102
{ACAD_REACTORS
330
F01
102
}
330
F01
100
AcDbVisualStyle
  2
Linepattern
 70
    14
 71
     2
 72
     2
 73
     0
 90
        0
 40
-0.6
 41
-30.0
 62
     5
 63
     7
421
 16777215
 74
     1
 91
        4
 64
     7
 65
   257
 75
     7
175
     7
 42
1.0
 92
        8
 66
     7
 43
1.0
 76
     1
 77
     6
 78
     2
 67
     7
 79
     5
170
     0
171
     0
290
     0
174
     0
 93
        1
 44
0.0
173
     0
291
     1
 45
0.0
  0
VISUALSTYLE
  5
F0B
102
{ACAD_REACTORS
330
F01
102
}
330
F01
100
AcDbVisualStyle
  2
Realistic
 70
     8
 71
     2
 72
     2
 73
     0
 90
        0
 40
-0.6
 41
-30.0
 62
     5
 63
     7
421
 16777215
 74
     1
 91
        0
 64
     7
 65
   257
 75
     1
175
     1
 42
1.0
 92
        8
 66
     8
424
  7895160
 43
1.0
 76
     1
 77
     6
 78
     2
 67
     7
 79
     5
170
     0
171
     0
290
     0
174
     0
 93
       13
 44
0.0
173
     0
291
     0
 45
0.0
  0
VISUALSTYLE
  5
F0E
102
{ACAD_REACTORS
330
F01
102
}
330
F01
100
AcDbVisualStyle
  2
Thicken
 70
    13
 71
     2
 72
     2
 73
     0
 90
        0
 40
-0.6
 41
-30.0
 62
     5
 63
     7
421
 16777215
 74
     1
 91
        4
 64
     7
 65
   257
 75
     1
175
     1
 42
1.0
 92
       12
 66
     7
 43
1.0
 76
     1
 77
     6
 78
     2
 67
     7
 79
     5
170
     0
171
     0
290
     0
174
     0
 93
        1
 44
0.0
173
     0
291
     1
 45
0.0
  0
DICTIONARYVAR
  5
FDF
102
{ACAD_REACTORS
330
FDC
102
}
330
FDC
100
DictionaryVariables
280
     0
  1
1:1
  0
DICTIONARYVAR
  5
FDE
102
{ACAD_REACTORS
330
FDC
102
}
330
FDC
100
DictionaryVariables
280
     0
  1
STANDARD
  0
DICTIONARYVAR
  5
FDD
102
{ACAD_REACTORS
330
FDC
102
}
330
FDC
100
DictionaryVariables
280
     0
  1
STANDARD
  0
DICTIONARY
  5
FA1
102
{ACAD_REACTORS
330
F94
102
}
330
F94
100
AcDbDictionary
281
     1
  0
DICTIONARY
  5
EF2
330
EF1
100
AcDbDictionary
280
     1
281
     1
  3
BUMPTILE
360
EF4
  3
DIFFUSETILE
360
EF3
  3
OPACITYTILE
360
EF7
  3
REFLECTIONTILE
360
EF6
  3
REFRACTIONTILE
360
EF8
  3
SPECULARTILE
360
EF5
  0
DICTIONARY
  5
EEA
330
EE9
100
AcDbDictionary
280
     1
281
     1
  3
BUMPTILE
360
EEC
  3
DIFFUSETILE
360
EEB
  3
OPACITYTILE
360
EEF
  3
REFLECTIONTILE
360
EEE
  3
REFRACTIONTILE
360
EF0
  3
SPECULARTILE
360
EED
  0
DICTIONARY
  5
EFA
330
EF9
100
AcDbDictionary
280
     1
281
     1
  3
BUMPTILE
360
EFC
  3
DIFFUSETILE
360
EFB
  3
OPACITYTILE
360
EFF
  3
REFLECTIONTILE
360
EFE
  3
REFRACTIONTILE
360
F00
  3
SPECULARTILE
360
EFD
  0
DICTIONARY
  5
FE0
330
EE4
100
AcDbDictionary
280
     1
281
     1
  3
ACAD_ROUNDTRIP_2008_TABLESTYLE_CELLSTYLEMAP
360
10E5
  0
DICTIONARY
  5
FE2
330
EE5
100
AcDbDictionary
280
     1
281
     1
  3
ACAD_ROUNDTRIP_2008_TABLESTYLE_CELLSTYLEMAP
360
10E6
  0
XRECORD
  5
EF4
102
{ACAD_REACTORS
330
EF2
102
}
330
EF2
100
AcDbXrecord
280
     1
270
     1
271
     1
  0
XRECORD
  5
EF3
102
{ACAD_REACTORS
330
EF2
102
}
330
EF2
100
AcDbXrecord
280
     1
270
     1
271
     1
  0
XRECORD
  5
EF7
102
{ACAD_REACTORS
330
EF2
102
}
330
EF2
100
AcDbXrecord
280
     1
270
     1
271
     1
  0
XRECORD
  5
EF6
102
{ACAD_REACTORS
330
EF2
102
}
330
EF2
100
AcDbXrecord
280
     1
270
     1
271
     1
  0
XRECORD
  5
EF8
102
{ACAD_REACTORS
330
EF2
102
}
330
EF2
100
AcDbXrecord
280
     1
270
     1
271
     1
  0
XRECORD
  5
EF5
102
{ACAD_REACTORS
330
EF2
102
}
330
EF2
100
AcDbXrecord
280
     1
270
     1
271
     1
  0
XRECORD
  5
EEC
102
{ACAD_REACTORS
330
EEA
102
}
330
EEA
100
AcDbXrecord
280
     1
270
     1
271
     1
  0
XRECORD
  5
EEB
102
{ACAD_REACTORS
330
EEA
102
}
330
EEA
100
AcDbXrecord
280
     1
270
     1
271
     1
  0
XRECORD
  5
EEF
102
{ACAD_REACTORS
330
EEA
102
}
330
EEA
100
AcDbXrecord
280
     1
270
     1
271
     1
  0
XRECORD
  5
EEE
102
{ACAD_REACTORS
330
EEA
102
}
330
EEA
100
AcDbXrecord
280
     1
270
     1
271
     1
  0
XRECORD
  5
EF0
102
{ACAD_REACTORS
330
EEA
102
}
330
EEA
100
AcDbXrecord
280
     1
270
     1
271
     1
  0
XRECORD
  5
EED
102
{ACAD_REACTORS
330
EEA
102
}
330
EEA
100
AcDbXrecord
280
     1
270
     1
271
     1
  0
XRECORD
  5
EFC
102
{ACAD_REACTORS
330
EFA
102
}
330
EFA
100
AcDbXrecord
280
     1
270
     1
271
     1
  0
XRECORD
  5
EFB
102
{ACAD_REACTORS
330
EFA
102
}
330
EFA
100
AcDbXrecord
280
     1
270
     1
271
     1
  0
XRECORD
  5
EFF
102
{ACAD_REACTORS
330
EFA
102
}
330
EFA
100
AcDbXrecord
280
     1
270
     1
271
     1
  0
XRECORD
  5
EFE
102
{ACAD_REACTORS
330
EFA
102
}
330
EFA
100
AcDbXrecord
280
     1
270
     1
271
     1
  0
XRECORD
  5
F00
102
{ACAD_REACTORS
330
EFA
102
}
330
EFA
100
AcDbXrecord
280
     1
270
     1
271
     1
  0
XRECORD
  5
EFD
102
{ACAD_REACTORS
330
EFA
102
}
330
EFA
100
AcDbXrecord
280
     1
270
     1
271
     1
  0
CELLSTYLEMAP
  5
10E5
102
{ACAD_REACTORS
330
FE0
102
}
330
FE0
100
AcDbCellStyleMap
 90
        3
300
CELLSTYLE
  1
TABLEFORMAT_BEGIN
 90
        5
170
     1
 91
        0
 92
    32768
 62
   257
 93
        1
300
CONTENTFORMAT
  1
CONTENTFORMAT_BEGIN
 90
        0
 91
        0
 92
      512
 93
        0
300

 40
0.0
140
1.0
 94
        1
 62
     0
340
11
144
0.18
309
CONTENTFORMAT_END
171
     1
301
MARGIN
  1
CELLMARGIN_BEGIN
 40
0.06
 40
0.06
 40
0.06
 40
0.06
 40
0.18
 40
0.18
309
CELLMARGIN_END
 94
        6
 95
        1
302
GRIDFORMAT
  1
GRIDFORMAT_BEGIN
 90
        0
 91
        1
 62
     0
 92
       -2
340
0
 93
        0
 40
0.045
309
GRIDFORMAT_END
 95
        2
302
GRIDFORMAT
  1
GRIDFORMAT_BEGIN
 90
        0
 91
        1
 62
     0
 92
       -2
340
0
 93
        0
 40
0.045
309
GRIDFORMAT_END
 95
        4
302
GRIDFORMAT
  1
GRIDFORMAT_BEGIN
 90
        0
 91
        1
 62
     0
 92
       -2
340
0
 93
        0
 40
0.045
309
GRIDFORMAT_END
 95
        8
302
GRIDFORMAT
  1
GRIDFORMAT_BEGIN
 90
        0
 91
        1
 62
     0
 92
       -2
340
0
 93
        0
 40
0.045
309
GRIDFORMAT_END
 95
       16
302
GRIDFORMAT
  1
GRIDFORMAT_BEGIN
 90
        0
 91
        1
 62
     0
 92
       -2
340
0
 93
        0
 40
0.045
309
GRIDFORMAT_END
 95
       32
302
GRIDFORMAT
  1
GRIDFORMAT_BEGIN
 90
        0
 91
        1
 62
     0
 92
       -2
340
0
 93
        0
 40
0.045
309
GRIDFORMAT_END
309
TABLEFORMAT_END
  1
CELLSTYLE_BEGIN
 90
        1
 91
        1
300
_TITLE
309
CELLSTYLE_END
300
CELLSTYLE
  1
TABLEFORMAT_BEGIN
 90
        5
170
     1
 91
        0
 92
        0
 62
   257
 93
        1
300
CONTENTFORMAT
  1
CONTENTFORMAT_BEGIN
 90
        0
 91
        0
 92
      512
 93
        0
300

 40
0.0
140
1.0
 94
        1
 62
     0
340
11
144
0.18
309
CONTENTFORMAT_END
171
     1
301
MARGIN
  1
CELLMARGIN_BEGIN
 40
0.06
 40
0.06
 40
0.06
 40
0.06
 40
0.18
 40
0.18
309
CELLMARGIN_END
 94
        6
 95
        1
302
GRIDFORMAT
  1
GRIDFORMAT_BEGIN
 90
        0
 91
        1
 62
     0
 92
       -2
340
0
 93
        0
 40
0.045
309
GRIDFORMAT_END
 95
        2
302
GRIDFORMAT
  1
GRIDFORMAT_BEGIN
 90
        0
 91
        1
 62
     0
 92
       -2
340
0
 93
        0
 40
0.045
309
GRIDFORMAT_END
 95
        4
302
GRIDFORMAT
  1
GRIDFORMAT_BEGIN
 90
        0
 91
        1
 62
     0
 92
       -2
340
0
 93
        0
 40
0.045
309
GRIDFORMAT_END
 95
        8
302
GRIDFORMAT
  1
GRIDFORMAT_BEGIN
 90
        0
 91
        1
 62
     0
 92
       -2
340
0
 93
        0
 40
0.045
309
GRIDFORMAT_END
 95
       16
302
GRIDFORMAT
  1
GRIDFORMAT_BEGIN
 90
        0
 91
        1
 62
     0
 92
       -2
340
0
 93
        0
 40
0.045
309
GRIDFORMAT_END
 95
       32
302
GRIDFORMAT
  1
GRIDFORMAT_BEGIN
 90
        0
 91
        1
 62
     0
 92
       -2
340
0
 93
        0
 40
0.045
309
GRIDFORMAT_END
309
TABLEFORMAT_END
  1
CELLSTYLE_BEGIN
 90
        2
 91
        1
300
_HEADER
309
CELLSTYLE_END
300
CELLSTYLE
  1
TABLEFORMAT_BEGIN
 90
        5
170
     1
 91
        0
 92
        0
 62
   257
 93
        1
300
CONTENTFORMAT
  1
CONTENTFORMAT_BEGIN
 90
        0
 91
        0
 92
      512
 93
        0
300

 40
0.0
140
1.0
 94
        1
 62
     0
340
11
144
0.18
309
CONTENTFORMAT_END
171
     1
301
MARGIN
  1
CELLMARGIN_BEGIN
 40
0.06
 40
0.06
 40
0.06
 40
0.06
 40
0.18
 40
0.18
309
CELLMARGIN_END
 94
        6
 95
        1
302
GRIDFORMAT
  1
GRIDFORMAT_BEGIN
 90
        0
 91
        1
 62
     0
 92
       -2
340
0
 93
        0
 40
0.045
309
GRIDFORMAT_END
 95
        2
302
GRIDFORMAT
  1
GRIDFORMAT_BEGIN
 90
        0
 91
        1
 62
     0
 92
       -2
340
0
 93
        0
 40
0.045
309
GRIDFORMAT_END
 95
        4
302
GRIDFORMAT
  1
GRIDFORMAT_BEGIN
 90
        0
 91
        1
 62
     0
 92
       -2
340
0
 93
        0
 40
0.045
309
GRIDFORMAT_END
 95
        8
302
GRIDFORMAT
  1
GRIDFORMAT_BEGIN
 90
        0
 91
        1
 62
     0
 92
       -2
340
0
 93
        0
 40
0.045
309
GRIDFORMAT_END
 95
       16
302
GRIDFORMAT
  1
GRIDFORMAT_BEGIN
 90
        0
 91
        1
 62
     0
 92
       -2
340
0
 93
        0
 40
0.045
309
GRIDFORMAT_END
 95
       32
302
GRIDFORMAT
  1
GRIDFORMAT_BEGIN
 90
        0
 91
        1
 62
     0
 92
       -2
340
0
 93
        0
 40
0.045
309
GRIDFORMAT_END
309
TABLEFORMAT_END
  1
CELLSTYLE_BEGIN
 90
        3
 91
        2
300
_DATA
309
CELLSTYLE_END
  0
CELLSTYLEMAP
  5
10E6
102
{ACAD_REACTORS
330
FE2
102
}
330
FE2
100
AcDbCellStyleMap
 90
        3
300
CELLSTYLE
  1
TABLEFORMAT_BEGIN
 90
        5
170
     1
 91
        0
 92
    32768
 62
   257
 93
        1
300
CONTENTFORMAT
  1
CONTENTFORMAT_BEGIN
 90
        0
 91
        0
 92
      512
 93
        0
300

 40
0.0
140
1.0
 94
        1
 62
     0
340
11
144
0.18
309
CONTENTFORMAT_END
171
     1
301
MARGIN
  1
CELLMARGIN_BEGIN
 40
0.06
 40
0.06
 40
0.06
 40
0.06
 40
0.18
 40
0.18
309
CELLMARGIN_END
 94
        6
 95
        1
302
GRIDFORMAT
  1
GRIDFORMAT_BEGIN
 90
        0
 91
        1
 62
     0
 92
       -2
340
0
 93
        0
 40
0.045
309
GRIDFORMAT_END
 95
        2
302
GRIDFORMAT
  1
GRIDFORMAT_BEGIN
 90
        0
 91
        1
 62
     0
 92
       -2
340
0
 93
        0
 40
0.045
309
GRIDFORMAT_END
 95
        4
302
GRIDFORMAT
  1
GRIDFORMAT_BEGIN
 90
        0
 91
        1
 62
     0
 92
       -2
340
0
 93
        0
 40
0.045
309
GRIDFORMAT_END
 95
        8
302
GRIDFORMAT
  1
GRIDFORMAT_BEGIN
 90
        0
 91
        1
 62
     0
 92
       -2
340
0
 93
        0
 40
0.045
309
GRIDFORMAT_END
 95
       16
302
GRIDFORMAT
  1
GRIDFORMAT_BEGIN
 90
        0
 91
        1
 62
     0
 92
       -2
340
0
 93
        0
 40
0.045
309
GRIDFORMAT_END
 95
       32
302
GRIDFORMAT
  1
GRIDFORMAT_BEGIN
 90
        0
 91
        1
 62
     0
 92
       -2
340
0
 93
        0
 40
0.045
309
GRIDFORMAT_END
309
TABLEFORMAT_END
  1
CELLSTYLE_BEGIN
 90
        1
 91
        1
300
_TITLE
309
CELLSTYLE_END
300
CELLSTYLE
  1
TABLEFORMAT_BEGIN
 90
        5
170
     1
 91
        0
 92
        0
 62
   257
 93
        1
300
CONTENTFORMAT
  1
CONTENTFORMAT_BEGIN
 90
        0
 91
        0
 92
      512
 93
        0
300

 40
0.0
140
1.0
 94
        1
 62
     0
340
11
144
0.18
309
CONTENTFORMAT_END
171
     1
301
MARGIN
  1
CELLMARGIN_BEGIN
 40
0.06
 40
0.06
 40
0.06
 40
0.06
 40
0.18
 40
0.18
309
CELLMARGIN_END
 94
        6
 95
        1
302
GRIDFORMAT
  1
GRIDFORMAT_BEGIN
 90
        0
 91
        1
 62
     0
 92
       -2
340
0
 93
        0
 40
0.045
309
GRIDFORMAT_END
 95
        2
302
GRIDFORMAT
  1
GRIDFORMAT_BEGIN
 90
        0
 91
        1
 62
     0
 92
       -2
340
0
 93
        0
 40
0.045
309
GRIDFORMAT_END
 95
        4
302
GRIDFORMAT
  1
GRIDFORMAT_BEGIN
 90
        0
 91
        1
 62
     0
 92
       -2
340
0
 93
        0
 40
0.045
309
GRIDFORMAT_END
 95
        8
302
GRIDFORMAT
  1
GRIDFORMAT_BEGIN
 90
        0
 91
        1
 62
     0
 92
       -2
340
0
 93
        0
 40
0.045
309
GRIDFORMAT_END
 95
       16
302
GRIDFORMAT
  1
GRIDFORMAT_BEGIN
 90
        0
 91
        1
 62
     0
 92
       -2
340
0
 93
        0
 40
0.045
309
GRIDFORMAT_END
 95
       32
302
GRIDFORMAT
  1
GRIDFORMAT_BEGIN
 90
        0
 91
        1
 62
     0
 92
       -2
340
0
 93
        0
 40
0.045
309
GRIDFORMAT_END
309
TABLEFORMAT_END
  1
CELLSTYLE_BEGIN
 90
        2
 91
        1
300
_HEADER
309
CELLSTYLE_END
300
CELLSTYLE
  1
TABLEFORMAT_BEGIN
 90
        5
170
     1
 91
        0
 92
        0
 62
   257
 93
        1
300
CONTENTFORMAT
  1
CONTENTFORMAT_BEGIN
 90
        0
 91
        0
 92
      512
 93
        0
300

 40
0.0
140
1.0
 94
        1
 62
     0
340
11
144
0.18
309
CONTENTFORMAT_END
171
     1
301
MARGIN
  1
CELLMARGIN_BEGIN
 40
0.06
 40
0.06
 40
0.06
 40
0.06
 40
0.18
 40
0.18
309
CELLMARGIN_END
 94
        6
 95
        1
302
GRIDFORMAT
  1
GRIDFORMAT_BEGIN
 90
        0
 91
        1
 62
     0
 92
       -2
340
0
 93
        0
 40
0.045
309
GRIDFORMAT_END
 95
        2
302
GRIDFORMAT
  1
GRIDFORMAT_BEGIN
 90
        0
 91
        1
 62
     0
 92
       -2
340
0
 93
        0
 40
0.045
309
GRIDFORMAT_END
 95
        4
302
GRIDFORMAT
  1
GRIDFORMAT_BEGIN
 90
        0
 91
        1
 62
     0
 92
       -2
340
0
 93
        0
 40
0.045
309
GRIDFORMAT_END
 95
        8
302
GRIDFORMAT
  1
GRIDFORMAT_BEGIN
 90
        0
 91
        1
 62
     0
 92
       -2
340
0
 93
        0
 40
0.045
309
GRIDFORMAT_END
 95
       16
302
GRIDFORMAT
  1
GRIDFORMAT_BEGIN
 90
        0
 91
        1
 62
     0
 92
       -2
340
0
 93
        0
 40
0.045
309
GRIDFORMAT_END
 95
       32
302
GRIDFORMAT
  1
GRIDFORMAT_BEGIN
 90
        0
 91
        1
 62
     0
 92
       -2
340
0
 93
        0
 40
0.045
309
GRIDFORMAT_END
309
TABLEFORMAT_END
  1
CELLSTYLE_BEGIN
 90
        3
 91
        2
300
_DATA
309
CELLSTYLE_END
  0
ENDSEC
  0
EOF
