  0
SECTION
  2
HEADER
  9
$ACADVER
  1
AC1021
  9
$ACADMAINTVER
 70
    50
  9
$DWGCODEPAGE
  3
ANSI_936
  9
$LASTSAVEDBY
  1
kocb568
  9
$INSBASE
 10
0.0
 20
0.0
 30
0.0
  9
$EXTMIN
 10
-5.043880668075683
 20
1.6547397427
 30
0.0
  9
$EXTMAX
 10
17.2188360791
 20
18.3433941168
 30
0.0
  9
$LIMMIN
 10
0.0
 20
0.0
  9
$LIMMAX
 10
34.0
 20
22.0
  9
$ORTHOMODE
 70
     1
  9
$REGENMODE
 70
     1
  9
$FILLMODE
 70
     1
  9
$QTEXTMODE
 70
     0
  9
$MIRRTEXT
 70
     0
  9
$LTSCALE
 40
1.87
  9
$ATTMODE
 70
     1
  9
$TEXTSIZE
 40
0.2
  9
$TRACEWID
 40
0.05
  9
$TEXTSTYLE
  7
STANDARD
  9
$CLAYER
  8
0
  9
$CELTYPE
  6
BYLAYER
  9
$CECOLOR
 62
   256
  9
$CELTSCALE
 40
1.0
  9
$DISPSILH
 70
     0
  9
$DIMSCALE
 40
1.0
  9
$DIMASZ
 40
0.12
  9
$DIMEXO
 40
0.05
  9
$DIMDLI
 40
0.5
  9
$DIMRND
 40
0.0
  9
$DIMDLE
 40
0.0
  9
$DIMEXE
 40
0.1
  9
$DIMTP
 40
0.1
  9
$DIMTM
 40
0.1
  9
$DIMTXT
 40
0.12
  9
$DIMCEN
 40
0.0
  9
$DIMTSZ
 40
0.0
  9
$DIMTOL
 70
     0
  9
$DIMLIM
 70
     0
  9
$DIMTIH
 70
     1
  9
$DIMTOH
 70
     1
  9
$DIMSE1
 70
     0
  9
$DIMSE2
 70
     0
  9
$DIMTAD
 70
     0
  9
$DIMZIN
 70
     7
  9
$DIMBLK
  1

  9
$DIMASO
 70
     1
  9
$DIMSHO
 70
     1
  9
$DIMPOST
  1

  9
$DIMAPOST
  1
mm
  9
$DIMALT
 70
     0
  9
$DIMALTD
 70
     2
  9
$DIMALTF
 40
25.4
  9
$DIMLFAC
 40
1.0
  9
$DIMTOFL
 70
     0
  9
$DIMTVP
 40
0.0
  9
$DIMTIX
 70
     0
  9
$DIMSOXD
 70
     0
  9
$DIMSAH
 70
     0
  9
$DIMBLK1
  1

  9
$DIMBLK2
  1

  9
$DIMSTYLE
  2
AM_ANSI
  9
$DIMCLRD
 70
   256
  9
$DIMCLRE
 70
   256
  9
$DIMCLRT
 70
   140
  9
$DIMTFAC
 40
0.71
  9
$DIMGAP
 40
0.06
  9
$DIMJUST
 70
     0
  9
$DIMSD1
 70
     0
  9
$DIMSD2
 70
     0
  9
$DIMTOLJ
 70
     1
  9
$DIMTZIN
 70
     7
  9
$DIMALTZ
 70
     0
  9
$DIMALTTZ
 70
     0
  9
$DIMUPT
 70
     0
  9
$DIMDEC
 70
     4
  9
$DIMTDEC
 70
     4
  9
$DIMALTU
 70
     2
  9
$DIMALTTD
 70
     4
  9
$DIMTXSTY
  7
STANDARD
  9
$DIMAUNIT
 70
     0
  9
$DIMADEC
 70
     0
  9
$DIMALTRND
 40
0.0
  9
$DIMAZIN
 70
     2
  9
$DIMDSEP
 70
    46
  9
$DIMATFIT
 70
     3
  9
$DIMFRAC
 70
     0
  9
$DIMLDRBLK
  1

  9
$DIMLUNIT
 70
     2
  9
$DIMLWD
 70
    -1
  9
$DIMLWE
 70
    -1
  9
$DIMTMOVE
 70
     0
  9
$DIMFXL
 40
1.0
  9
$DIMFXLON
 70
     0
  9
$DIMJOGANG
 40
0.7853981633974483
  9
$DIMTFILL
 70
     0
  9
$DIMTFILLCLR
 70
     0
  9
$DIMARCSYM
 70
     1
  9
$DIMLTYPE
  6
BYBLOCK
  9
$DIMLTEX1
  6
BYBLOCK
  9
$DIMLTEX2
  6
BYBLOCK
  9
$LUNITS
 70
     2
  9
$LUPREC
 70
     4
  9
$SKETCHINC
 40
0.1
  9
$FILLETRAD
 40
0.0
  9
$AUNITS
 70
     0
  9
$AUPREC
 70
     0
  9
$MENU
  1
.
  9
$ELEVATION
 40
0.0
  9
$PELEVATION
 40
0.0
  9
$THICKNESS
 40
0.0
  9
$LIMCHECK
 70
     0
  9
$CHAMFERA
 40
0.0
  9
$CHAMFERB
 40
0.0
  9
$CHAMFERC
 40
0.0
  9
$CHAMFERD
 40
0.0
  9
$SKPOLY
 70
     0
  9
$TDCREATE
 40
2455875.411755752
  9
$TDUCREATE
 40
2455875.078422419
  9
$TDUPDATE
 40
2455875.643947697
  9
$TDUUPDATE
 40
2455875.310614363
  9
$TDINDWG
 40
0.0010714815
  9
$TDUSRTIMER
 40
0.0010714815
  9
$USRTIMER
 70
     1
  9
$ANGBASE
 50
0.0
  9
$ANGDIR
 70
     0
  9
$PDMODE
 70
     3
  9
$PDSIZE
 40
0.3125
  9
$PLINEWID
 40
0.0
  9
$SPLFRAME
 70
     0
  9
$SPLINETYPE
 70
     6
  9
$SPLINESEGS
 70
     8
  9
$HANDSEED
  5
10E5
  9
$SURFTAB1
 70
     6
  9
$SURFTAB2
 70
     6
  9
$SURFTYPE
 70
     6
  9
$SURFU
 70
     6
  9
$SURFV
 70
     6
  9
$UCSBASE
  2

  9
$UCSNAME
  2

  9
$UCSORG
 10
0.0
 20
0.0
 30
0.0
  9
$UCSXDIR
 10
1.0
 20
0.0
 30
0.0
  9
$UCSYDIR
 10
0.0
 20
1.0
 30
0.0
  9
$UCSORTHOREF
  2

  9
$UCSORTHOVIEW
 70
     0
  9
$UCSORGTOP
 10
0.0
 20
0.0
 30
0.0
  9
$UCSORGBOTTOM
 10
0.0
 20
0.0
 30
0.0
  9
$UCSORGLEFT
 10
0.0
 20
0.0
 30
0.0
  9
$UCSORGRIGHT
 10
0.0
 20
0.0
 30
0.0
  9
$UCSORGFRONT
 10
0.0
 20
0.0
 30
0.0
  9
$UCSORGBACK
 10
0.0
 20
0.0
 30
0.0
  9
$PUCSBASE
  2

  9
$PUCSNAME
  2

  9
$PUCSORG
 10
0.0
 20
0.0
 30
0.0
  9
$PUCSXDIR
 10
1.0
 20
0.0
 30
0.0
  9
$PUCSYDIR
 10
0.0
 20
1.0
 30
0.0
  9
$PUCSORTHOREF
  2

  9
$PUCSORTHOVIEW
 70
     0
  9
$PUCSORGTOP
 10
0.0
 20
0.0
 30
0.0
  9
$PUCSORGBOTTOM
 10
0.0
 20
0.0
 30
0.0
  9
$PUCSORGLEFT
 10
0.0
 20
0.0
 30
0.0
  9
$PUCSORGRIGHT
 10
0.0
 20
0.0
 30
0.0
  9
$PUCSORGFRONT
 10
0.0
 20
0.0
 30
0.0
  9
$PUCSORGBACK
 10
0.0
 20
0.0
 30
0.0
  9
$USERI1
 70
     0
  9
$USERI2
 70
     0
  9
$USERI3
 70
     0
  9
$USERI4
 70
     0
  9
$USERI5
 70
     0
  9
$USERR1
 40
0.0
  9
$USERR2
 40
0.0
  9
$USERR3
 40
0.0
  9
$USERR4
 40
0.0
  9
$USERR5
 40
0.0
  9
$WORLDVIEW
 70
     1
  9
$SHADEDGE
 70
     3
  9
$SHADEDIF
 70
    70
  9
$TILEMODE
 70
     1
  9
$MAXACTVP
 70
    64
  9
$PINSBASE
 10
0.0
 20
0.0
 30
0.0
  9
$PLIMCHECK
 70
     0
  9
$PEXTMIN
 10
1.000000000000000E+20
 20
1.000000000000000E+20
 30
1.000000000000000E+20
  9
$PEXTMAX
 10
-1.000000000000000E+20
 20
-1.000000000000000E+20
 30
-1.000000000000000E+20
  9
$PLIMMIN
 10
0.0
 20
0.0
  9
$PLIMMAX
 10
12.0
 20
9.0
  9
$UNITMODE
 70
     0
  9
$VISRETAIN
 70
     1
  9
$PLINEGEN
 70
     0
  9
$PSLTSCALE
 70
     1
  9
$TREEDEPTH
 70
  3020
  9
$CMLSTYLE
  2
Standard
  9
$CMLJUST
 70
     0
  9
$CMLSCALE
 40
1.0
  9
$PROXYGRAPHICS
 70
     1
  9
$MEASUREMENT
 70
     0
  9
$CELWEIGHT
370
    -1
  9
$ENDCAPS
280
     0
  9
$JOINSTYLE
280
     0
  9
$LWDISPLAY
290
     0
  9
$INSUNITS
 70
     1
  9
$HYPERLINKBASE
  1

  9
$STYLESHEET
  1

  9
$XEDIT
290
     1
  9
$CEPSNTYPE
380
     0
  9
$PSTYLEMODE
290
     1
  9
$FINGERPRINTGUID
  2
{A1845D3E-C283-40D1-B346-F281CCE2456C}
  9
$VERSIONGUID
  2
{9421D28E-2854-460F-BF14-69F26298AAD3}
  9
$EXTNAMES
290
     1
  9
$PSVPSCALE
 40
0.0
  9
$OLESTARTUP
290
     0
  9
$SORTENTS
280
   127
  9
$INDEXCTL
280
     0
  9
$HIDETEXT
280
     1
  9
$XCLIPFRAME
290
     0
  9
$HALOGAP
280
     0
  9
$OBSCOLOR
 70
   257
  9
$OBSLTYPE
280
     0
  9
$INTERSECTIONDISPLAY
280
     0
  9
$INTERSECTIONCOLOR
 70
   257
  9
$DIMASSOC
280
     2
  9
$PROJECTNAME
  1

  9
$CAMERADISPLAY
290
     0
  9
$LENSLENGTH
 40
50.0
  9
$CAMERAHEIGHT
 40
0.0
  9
$STEPSPERSEC
 40
2.0
  9
$STEPSIZE
 40
6.0
  9
$3DDWFPREC
 40
2.0
  9
$PSOLWIDTH
 40
0.25
  9
$PSOLHEIGHT
 40
4.0
  9
$LOFTANG1
 40
1.570796326794896
  9
$LOFTANG2
 40
1.570796326794896
  9
$LOFTMAG1
 40
0.0
  9
$LOFTMAG2
 40
0.0
  9
$LOFTPARAM
 70
     7
  9
$LOFTNORMALS
280
     1
  9
$LATITUDE
 40
37.795
  9
$LONGITUDE
 40
-122.394
  9
$NORTHDIRECTION
 40
0.0
  9
$TIMEZONE
 70
 -8000
  9
$LIGHTGLYPHDISPLAY
280
     1
  9
$TILEMODELIGHTSYNCH
280
     1
  9
$CMATERIAL
347
EE9
  9
$SOLIDHIST
280
     1
  9
$SHOWHIST
280
     1
  9
$DWFFRAME
280
     2
  9
$DGNFRAME
280
     0
  9
$REALWORLDSCALE
290
     1
  9
$INTERFERECOLOR
 62
     1
  9
$INTERFEREOBJVS
345
F0B
  9
$INTERFEREVPVS
346
F08
  9
$CSHADOW
280
     0
  9
$SHADOWPLANELOCATION
 40
0.0
  0
ENDSEC
  0
SECTION
  2
CLASSES
  0
CLASS
  1
ACDBDICTIONARYWDFLT
  2
AcDbDictionaryWithDefault
  3
ObjectDBX Classes
 90
        0
 91
        1
280
     0
281
     0
  0
CLASS
  1
TABLESTYLE
  2
AcDbTableStyle
  3
ObjectDBX Classes
 90
     4095
 91
        2
280
     0
281
     0
  0
CLASS
  1
ACAD_TABLE
  2
AcDbTable
  3
ObjectDBX Classes
 90
     1025
 91
        0
280
     0
281
     1
  0
CLASS
  1
MATERIAL
  2
AcDbMaterial
  3
ObjectDBX Classes
 90
     1153
 91
        3
280
     0
281
     0
  0
CLASS
  1
VISUALSTYLE
  2
AcDbVisualStyle
  3
ObjectDBX Classes
 90
     4095
 91
       16
280
     0
281
     0
  0
CLASS
  1
SCALE
  2
AcDbScale
  3
ObjectDBX Classes
 90
     1153
 91
       33
280
     0
281
     0
  0
CLASS
  1
MLEADERSTYLE
  2
AcDbMLeaderStyle
  3
ACDB_MLEADERSTYLE_CLASS
 90
     4095
 91
        1
280
     0
281
     0
  0
CLASS
  1
AMGSETTINGSOBJ
  2
AmgSettingsObj
  3
"AcadM|Product Description: AutoCAD Mechanical|Company: Autodesk, Inc."
 90
     1024
 91
        2
280
     0
281
     0
  0
CLASS
  1
ACME_DOCUMENT
  2
AcMeDbDoc
  3
AcMeServices
 90
     1024
 91
        1
280
     0
281
     0
  0
CLASS
  1
ACMESCOPE
  2
AcMeScope
  3
AcMeServices
 90
     1024
 91
        1
280
     0
281
     0
  0
CLASS
  1
ACMECOMMANDHISTORY
  2
AcMeCommandHistory
  3
AcMeServices
 90
     1024
 91
        1
280
     0
281
     0
  0
CLASS
  1
ACIMSYSVARMAN
  2
AcImSysVarManager
  3
AcMeServices
 90
     1024
 91
        5
280
     0
281
     0
  0
CLASS
  1
ACIMINTSYSVAR
  2
AcImIntSysVar
  3
AcMeServices
 90
     1024
 91
       27
280
     0
281
     0
  0
CLASS
  1
ACMEDRAWINGMAN
  2
AcMeDrawingMan
  3
AcMeServices
 90
     1024
 91
        1
280
     0
281
     0
  0
CLASS
  1
ACMEVIEW
  2
AcMeView
  3
AcMeServices
 90
     1024
 91
        1
280
     0
281
     0
  0
CLASS
  1
ACDBENTITYCACHE
  2
AcMeEntityCache
  3
AcMeServices
 90
     1024
 91
        1
280
     0
281
     0
  0
CLASS
  1
GSMANAGER
  2
AcMeGSManager
  3
AcMeServices
 90
     1024
 91
        1
280
     0
281
     0
  0
CLASS
  1
AMDTINTERNALREACTOR
  2
AmdtInternalReactor
  3
AcMeServices
 90
     1024
 91
        2
280
     0
281
     0
  0
CLASS
  1
ACMESTATEMGR
  2
AcMeStateMgr
  3
AcMeServices
 90
     1024
 91
        1
280
     0
281
     0
  0
CLASS
  1
ACGREFMASTER
  2
AcGrefMaster
  3
AcAttribServices
 90
     1024
 91
        1
280
     0
281
     0
  0
CLASS
  1
AM_DRAWING_MGR
  2
AcDmDwgMgr
  3
AcMechDwgViewMgmt
 90
     1024
 91
        1
280
     0
281
     0
  0
CLASS
  1
AM_DWG_DOCUMENT
  2
AcDmDwgDocument
  3
AcMechDwgViewMgmt
 90
     1024
 91
        1
280
     0
281
     0
  0
CLASS
  1
AM_DWG_SHEET
  2
AcDmSheet
  3
AcMechDwgViewMgmt
 90
     1024
 91
        1
280
     0
281
     0
  0
CLASS
  1
AM_VIEWDIMPARMAP
  2
AcDmViewDimParMap
  3
AcMechDwgViewMgmt
 90
     1024
 91
        1
280
     0
281
     0
  0
CLASS
  1
ACIMREALSYSVAR
  2
AcImRealSysVar
  3
AcMeServices
 90
     1024
 91
        1
280
     0
281
     0
  0
CLASS
  1
AM_DWGMGR_NAME
  2
AcDmDwgMgrName
  3
AcMechDwgViewMgmt
 90
     1024
 91
        1
280
     0
281
     0
  0
CLASS
  1
ACME_DATABASE
  2
AcMeDbDatabase
  3
AcMeServices
 90
     1024
 91
        1
280
     0
281
     0
  0
CLASS
  1
ACRFINSADJUSTERMGR
  2
AcRfInsAdjusterMgr
  3
AcMeServices
 90
     1024
 91
        1
280
     0
281
     0
  0
CLASS
  1
ACGREFACADMASTER
  2
AcGrefacadMaster
  3
AcGrefServices
 90
     1024
 91
        1
280
     0
281
     0
  0
CLASS
  1
AMDTMENUSTATEMGR
  2
AmdtMenuStateMgr
  3
McadcomServices
 90
     1024
 91
        1
280
     0
281
     0
  0
CLASS
  1
AMDTMCOMMENUSTATE
  2
AmdtMcomMenuState
  3
McadcomServices
 90
     1024
 91
        1
280
     0
281
     0
  0
CLASS
  1
AMIMASTER
  2
AmiMaster
  3
AmiServices
 90
     1024
 91
        1
280
     0
281
     0
  0
CLASS
  1
MAPIAMMOUDLE
  2
MApiAmModule
  3
MApiAmServices
 90
     1024
 91
        1
280
     0
281
     0
  0
CLASS
  1
ACIMSTRSYSVAR
  2
AcImStrSysVar
  3
AcMeServices
 90
     1024
 91
        5
280
     0
281
     0
  0
CLASS
  1
AMDTADMENUSTATE
  2
AmdtAdMenuState
  3
DesignerServices
 90
     1024
 91
        1
280
     0
281
     0
  0
CLASS
  1
ADAPPL
  2
AcAdAppl
  3
DesignerServices
 90
     1024
 91
        1
280
     0
281
     0
  0
CLASS
  1
DEPMGR
  2
AcAdDepMgr
  3
DesignerServices
 90
     1024
 91
        1
280
     0
281
     0
  0
CLASS
  1
PARAMMGR
  2
AcAdParamMgr
  3
DesignerServices
 90
     1024
 91
        1
280
     0
281
     0
  0
CLASS
  1
PARAMSCOPE
  2
AcAdParamScope
  3
DesignerServices
 90
     1024
 91
        1
280
     0
281
     0
  0
CLASS
  1
NAMEDAPPL
  2
AcAdNamedAppl
  3
DesignerServices
 90
     1024
 91
        1
280
     0
281
     0
  0
CLASS
  1
AMDTDMMENUSTATE
  2
AmdtDmMenuState
  3
AcMechDwgViewMgmt
 90
     1024
 91
        1
280
     0
281
     0
  0
CLASS
  1
AMDTAMMENUSTATE
  2
AmdtAmMenuState
  3
DesignerAssemblies
 90
     1024
 91
        1
280
     0
281
     0
  0
CLASS
  1
ACAMPROJECT
  2
AcAmProject
  3
DesignerAssemblies
 90
     1024
 91
        1
280
     0
281
     0
  0
CLASS
  1
ACAMGRCOMPDEF
  2
AcAmGrCompDef
  3
DesignerAssemblies
 90
     1024
 91
        1
280
     0
281
     0
  0
CLASS
  1
ACCMCONTEXT
  2
AcCmContext
  3
DesignerAssemblies
 90
     1024
 91
        1
280
     0
281
     0
  0
CLASS
  1
ACAMCOMPDEF
  2
AcAmCompDef
  3
DesignerAssemblies
 90
     1024
 91
        1
280
     0
281
     0
  0
CLASS
  1
ACAMCOMPDEFMGR
  2
AcAmCompDefMgr
  3
DesignerAssemblies
 90
     1024
 91
        1
280
     0
281
     0
  0
CLASS
  1
AMCONTEXTMGR
  2
AcAmContextMgr
  3
DesignerAssemblies
 90
     1024
 91
        1
280
     0
281
     0
  0
CLASS
  1
ACAMCONTEXTMODELER
  2
AcAmContextModeler
  3
DesignerAssemblies
 90
     1024
 91
        1
280
     0
281
     0
  0
CLASS
  1
ACMDATADICTIONARY
  2
AcmDataDictionary
  3
"AcmSymBB|Product Description: AutoCAD Mechanical|Company: Autodesk, Inc."
 90
     1024
 91
        1
280
     0
281
     0
  0
CLASS
  1
CATALOGSTATE
  2
AcAmCatalogState
  3
DesignerAssemblies
 90
     1024
 91
        1
280
     0
281
     0
  0
CLASS
  1
ACAMGRCOMPDEFSET
  2
AcAmGrCompDefSet
  3
DesignerAssemblies
 90
     1024
 91
        1
280
     0
281
     0
  0
CLASS
  1
AMDTBROWSERDBTAB
  2
AmdtBrowserDbTab
  3
McadcomServices
 90
     1024
 91
        1
280
     0
281
     0
  0
CLASS
  1
CBROWSERAPPOBJECT
  2
CBrowserAppObject
  3
McadcomServices
 90
     1024
 91
        3
280
     0
281
     0
  0
CLASS
  1
DM_PLACEHOLDER
  2
AcDmSelsetPlaceholder
  3
AcMechDwgViewMgmt
 90
     1024
 91
        1
280
     0
281
     0
  0
CLASS
  1
EXACXREFPANELOBJECT
  2
ExAcXREFPanelObject
  3
EXAC_ESW
 90
     1025
 91
        1
280
     0
281
     0
  0
CLASS
  1
NPOCOLLECTION
  2
AcDbImpNonPersistentObjectsCollection
  3
ObjectDBX Classes
 90
     1153
 91
        1
280
     0
281
     0
  0
CLASS
  1
ACMSTANDARDANSI
  2
AcmStandardANSI
  3
"Amdt_StdImp|Product Description: AutoCAD Mechanical|Company: Autodesk, Inc."
 90
     1024
 91
        1
280
     0
281
     0
  0
CLASS
  1
ACMSURFSTANDARDANSI
  2
AcmSurfTextStdANSI
  3
"Amdt_StdImp|Product Description: AutoCAD Mechanical|Company: Autodesk, Inc."
 90
     1024
 91
        1
280
     0
281
     0
  0
CLASS
  1
ACMFCFSTANDARDANSI
  2
AcmFCFStdANSI
  3
"Amdt_StdImp|Product Description: AutoCAD Mechanical|Company: Autodesk, Inc."
 90
     1024
 91
        1
280
     0
281
     0
  0
CLASS
  1
ACMWELDSTANDARDANSI
  2
AcmWeldingStdANSI
  3
"Amdt_StdImp|Product Description: AutoCAD Mechanical|Company: Autodesk, Inc."
 90
     1024
 91
        1
280
     0
281
     0
  0
CLASS
  1
ACMIDSTANDARDANSI
  2
AcmIdStdANSI
  3
"Amdt_StdImp|Product Description: AutoCAD Mechanical|Company: Autodesk, Inc."
 90
     1024
 91
        1
280
     0
281
     0
  0
CLASS
  1
ACMDATUMSTANDARDANSI
  2
AcmDatumStdANSI
  3
"Amdt_StdImp|Product Description: AutoCAD Mechanical|Company: Autodesk, Inc."
 90
     1024
 91
        1
280
     0
281
     0
  0
CLASS
  1
ACMBOMSTANDARDANSI
  2
AcmBOMStdANSI
  3
"Amdt_StdImp|Product Description: AutoCAD Mechanical|Company: Autodesk, Inc."
 90
     1024
 91
        1
280
     0
281
     0
  0
CLASS
  1
ACMDETAILSTANDARDANSI
  2
AmdtDetailSymStdANSI
  3
"Amdt_StdImp|Product Description: AutoCAD Mechanical|Company: Autodesk, Inc."
 90
     1024
 91
        1
280
     0
281
     0
  0
CLASS
  1
ACMSECTIONSTANDARDANSI
  2
AmdtSectionSymStdANSI
  3
"Amdt_StdImp|Product Description: AutoCAD Mechanical|Company: Autodesk, Inc."
 90
     1024
 91
        1
280
     0
281
     0
  0
CLASS
  1
ACMCENTERLINESTANDARDANSI
  2
AmdtCenterLineStdANSI
  3
"Amdt_StdImp|Product Description: AutoCAD Mechanical|Company: Autodesk, Inc."
 90
     1024
 91
        1
280
     0
281
     0
  0
CLASS
  1
ACMTHREADLINESTANDARDANSI
  2
AmdtThreadLineStdANSI
  3
"Amdt_StdImp|Product Description: AutoCAD Mechanical|Company: Autodesk, Inc."
 90
     1024
 91
        1
280
     0
281
     0
  0
CLASS
  1
ACMNOTESTANDARDANSI
  2
AmdtNoteStdANSI
  3
"Amdt_StdImp|Product Description: AutoCAD Mechanical|Company: Autodesk, Inc."
 90
     1024
 91
        1
280
     0
281
     0
  0
CLASS
  1
ACMTAPERSTANDARDANSI
  2
AcmTaperStdANSI
  3
"Amdt_StdImp|Product Description: AutoCAD Mechanical|Company: Autodesk, Inc."
 90
     1024
 91
        1
280
     0
281
     0
  0
CLASS
  1
ACMANOOTATIONVIEWSTANDARDANSI
  2
AmdtAnViewStdANSI
  3
"Amdt_StdImp|Product Description: AutoCAD Mechanical|Company: Autodesk, Inc."
 90
     1024
 91
        1
280
     0
281
     0
  0
CLASS
  1
ACAMGLAYSTD
  2
AcAmgLayStd
  3
"AmgLay|Product Description: AutoCAD Mechanical|Company: Autodesk, Inc."
 90
     1024
 91
        1
280
     0
281
     0
  0
CLASS
  1
ACAMGDIMSTD
  2
AcAmgDimStd
  3
"AmgDim|Product Description: AutoCAD Mechanical|Company: Autodesk, Inc."
 90
     1024
 91
        1
280
     0
281
     0
  0
CLASS
  1
AMGOBJPROPCFG
  2
AmgObjPropCfg
  3
"AmgLay|Product Description: AutoCAD Mechanical|Company: Autodesk, Inc."
 90
     1025
 91
        1
280
     0
281
     0
  0
CLASS
  1
ACAMGHOLECHARTSTDANSI
  2
AcAmgHoleChartStdANSI
  3
AmgDim|Product Description: AutoCAD Mechanical|Company: Autodesk, Inc.
 90
     1024
 91
        1
280
     0
281
     0
  0
CLASS
  1
ACAMGTITLESTD
  2
AcAmgTitleStd
  3
"AmgTitle|Product Description: AutoCAD Mechanical|Company: Autodesk, Inc."
 90
     4095
 91
        1
280
     0
281
     0
  0
CLASS
  1
AMDTNOTETEMPLATEDB
  2
AmdtNoteTemplateDB
  3
AcmSymBB|Product Description: AutoCAD Mechanical|Company: Autodesk, Inc.
 90
     1024
 91
        6
280
     0
281
     0
  0
CLASS
  1
ACAMGFILTERDAT
  2
AcAmgFilterDat
  3
"AcadM|Product Description: AutoCAD Mechanical|Company: Autodesk, Inc."
 90
     1024
 91
        0
280
     0
281
     0
  0
CLASS
  1
DICTIONARYVAR
  2
AcDbDictionaryVar
  3
ObjectDBX Classes
 90
        0
 91
        3
280
     0
281
     0
  0
CLASS
  1
CELLSTYLEMAP
  2
AcDbCellStyleMap
  3
ObjectDBX Classes
 90
     1152
 91
        4
280
     0
281
     0
  0
ENDSEC
  0
SECTION
  2
TABLES
  0
TABLE
  2
VPORT
  5
8
330
0
100
AcDbSymbolTable
 70
     1
  0
VPORT
  5
1F4
330
8
100
AcDbSymbolTableRecord
100
AcDbViewportTableRecord
  2
*ACTIVE
 70
     0
 10
0.0
 20
0.0
 11
1.0
 21
1.0
 12
15.12171810680311
 22
7.339398530138417
 13
0.0
 23
0.0
 14
1.0
 24
1.0
 15
0.0
 25
0.0
 16
0.0
 26
0.0
 36
1.0
 17
0.0
 27
0.0
 37
0.0
 40
17.49495001372615
 41
1.605849582172701
 42
50.0
 43
0.0
 44
0.0
 50
0.0
 51
0.0
 71
     0
 72
   100
 73
     1
 74
     1
 75
     0
 76
     0
 77
     0
 78
     0
281
     0
 65
     0
110
0.0
120
0.0
130
0.0
111
1.0
121
0.0
131
0.0
112
0.0
122
1.0
132
0.0
 79
     0
146
0.0
348
F07
 60
     3
 61
     5
292
     1
282
     1
141
0.0
142
0.0
 63
   250
421
  3355443
  0
ENDTAB
  0
TABLE
  2
LTYPE
  5
5
330
0
100
AcDbSymbolTable
 70
    19
  0
LTYPE
  5
14
330
5
100
AcDbSymbolTableRecord
100
AcDbLinetypeTableRecord
  2
BYBLOCK
 70
     0
  3

 72
    65
 73
     0
 40
0.0
  0
LTYPE
  5
15
330
5
100
AcDbSymbolTableRecord
100
AcDbLinetypeTableRecord
  2
BYLAYER
 70
     0
  3

 72
    65
 73
     0
 40
0.0
  0
LTYPE
  5
16
330
5
100
AcDbSymbolTableRecord
100
AcDbLinetypeTableRecord
  2
CONTINUOUS
 70
     0
  3
Solid line
 72
    65
 73
     0
 40
0.0
  0
LTYPE
  5
1F5
330
5
100
AcDbSymbolTableRecord
100
AcDbLinetypeTableRecord
  2
CENTER
 70
     0
  3
____ _ ____ _ ____ _ ____ _ ____ _ ____ _ ____
 72
    65
 73
     4
 40
0.6
 49
0.375
 74
     0
 49
-0.075
 74
     0
 49
0.075
 74
     0
 49
-0.075
 74
     0
  0
LTYPE
  5
1F6
330
5
100
AcDbSymbolTableRecord
100
AcDbLinetypeTableRecord
  2
HIDDEN
 70
     0
  3
- - - - - - - - - - - - - - - - - - - -
 72
    65
 73
     2
 40
0.2
 49
0.1
 74
     0
 49
-0.1
 74
     0
  0
LTYPE
  5
1F7
330
5
100
AcDbSymbolTableRecord
100
AcDbLinetypeTableRecord
  2
PHANTOM
 70
     0
  3
_____ _ _ _____ _ _ _____ _ _ _____
 72
    65
 73
     6
 40
0.8
 49
0.45
 74
     0
 49
-0.05
 74
     0
 49
0.1
 74
     0
 49
-0.05
 74
     0
 49
0.1
 74
     0
 49
-0.05
 74
     0
  0
LTYPE
  5
1F8
330
5
100
AcDbSymbolTableRecord
100
AcDbLinetypeTableRecord
  2
DOT
 70
     0
  3
. . . . . . . . . . . . . . . . . . . .
 72
    65
 73
     2
 40
0.2
 49
0.1
 74
     0
 49
-0.1
 74
     0
  0
LTYPE
  5
1F9
330
5
100
AcDbSymbolTableRecord
100
AcDbLinetypeTableRecord
  2
DASHED
 70
     0
  3
- - - - - - - - - - - - - - - - - - - -
 72
    65
 73
     2
 40
0.2
 49
0.1
 74
     0
 49
-0.1
 74
     0
  0
LTYPE
  5
F6D
330
5
100
AcDbSymbolTableRecord
100
AcDbLinetypeTableRecord
  2
PHANTOM2
 70
     0
  3
Phantom (.5x) ___ _ _ ___ _ _ ___ _ _ ___ _ _
 72
    65
 73
     6
 40
1.25
 49
0.625
 74
     0
 49
-0.125
 74
     0
 49
0.125
 74
     0
 49
-0.125
 74
     0
 49
0.125
 74
     0
 49
-0.125
 74
     0
  0
LTYPE
  5
FB4
330
5
100
AcDbSymbolTableRecord
100
AcDbLinetypeTableRecord
  2
AM_ISO02W050
 70
     0
  3
__ __ __ __ __ __ __ __ __ __ __ __ __ __ __
 72
    65
 73
     2
 40
7.5
 49
6.0
 74
     0
 49
-1.5
 74
     0
  0
LTYPE
  5
FB5
330
5
100
AcDbSymbolTableRecord
100
AcDbLinetypeTableRecord
  2
AM_ISO08W050
 70
     0
  3
____ . ____ . ____ . ____ . ____ . ____ . ____
 72
    65
 73
     4
 40
18.0
 49
12.0
 74
     0
 49
-1.5
 74
     0
 49
3.0
 74
     0
 49
-1.5
 74
     0
  0
LTYPE
  5
FB6
330
5
100
AcDbSymbolTableRecord
100
AcDbLinetypeTableRecord
  2
AM_ISO09W050
 70
     0
  3
_____ . . _____ . . _____ . . ____ .. ____
 72
    65
 73
     6
 40
22.5
 49
12.0
 74
     0
 49
-1.5
 74
     0
 49
3.0
 74
     0
 49
-1.5
 74
     0
 49
3.0
 74
     0
 49
-1.5
 74
     0
  0
LTYPE
  5
FB7
330
5
100
AcDbSymbolTableRecord
100
AcDbLinetypeTableRecord
  2
Amconstr
 70
     0
  3
_______________________
 72
    65
 73
     2
 40
9999.0
 49
9999.0
 74
     0
 49
0.0
 74
     0
  0
LTYPE
  5
FB8
330
5
100
AcDbSymbolTableRecord
100
AcDbLinetypeTableRecord
  2
AM_ISO08W050x2
 70
     0
  3
__ . __ . __ . __ . __ . __
 72
    65
 73
     4
 40
9.0
 49
6.0
 74
     0
 49
-0.75
 74
     0
 49
1.5
 74
     0
 49
-0.75
 74
     0
  0
LTYPE
  5
FB9
330
5
100
AcDbSymbolTableRecord
100
AcDbLinetypeTableRecord
  2
AM_ISO02W050x2
 70
     0
  3
 _ _ _ _ _ _ _ _ _ _ _ _
 72
    65
 73
     2
 40
3.75
 49
3.0
 74
     0
 49
-0.75
 74
     0
  0
LTYPE
  5
FBC
330
5
100
AcDbSymbolTableRecord
100
AcDbLinetypeTableRecord
  2
Amzigzag
 70
     0
  3
/\/-/\/-/\/-/\/-/\/-/\/
 72
    65
 73
     2
 40
11.0001
 49
0.0001
 74
     4
 75
   136
340
FBB
 46
0.04
 50
0.0
 44
0.0
 45
0.0
 49
-11.0
 74
     0
  0
LTYPE
  5
FBD
330
5
100
AcDbSymbolTableRecord
100
AcDbLinetypeTableRecord
  2
CENTER2
 70
     0
  3
Center (.5x) ___ _ ___ _ ___ _ ___ _ ___ _ ___
 72
    65
 73
     4
 40
1.125
 49
0.75
 74
     0
 49
-0.125
 74
     0
 49
0.125
 74
     0
 49
-0.125
 74
     0
  0
LTYPE
  5
FBE
330
5
100
AcDbSymbolTableRecord
100
AcDbLinetypeTableRecord
  2
HIDDEN2
 70
     0
  3
Hidden (.5x) _ _ _ _ _ _ _ _ _ _ _ _ _ _ _ _ _
 72
    65
 73
     2
 40
0.1875
 49
0.125
 74
     0
 49
-0.0625
 74
     0
  0
LTYPE
  5
FBF
330
5
100
AcDbSymbolTableRecord
100
AcDbLinetypeTableRecord
  2
Amzigzag2
 70
     0
  3
/\/-/\/-/\/-/\/-/\/-/\/
 72
    65
 73
     2
 40
0.4401
 49
0.0001
 74
     4
 75
   136
340
FBB
 46
0.0016
 50
0.0
 44
0.0
 45
0.0
 49
-0.4400000000000003
 74
     0
  0
LTYPE
  5
FCD
330
5
100
AcDbSymbolTableRecord
100
AcDbLinetypeTableRecord
  2
ACANSTGB
 70
     0
  3
__ . . __ . .
 72
    65
 73
     6
 40
0.35433070866
 49
0.15748031496
 74
     0
 49
-0.03937007874
 74
     0
 49
0.03937007874
 74
     0
 49
-0.03937007874
 74
     0
 49
0.03937007874
 74
     0
 49
-0.03937007874
 74
     0
  0
LTYPE
  5
FCE
330
5
100
AcDbSymbolTableRecord
100
AcDbLinetypeTableRecord
  2
ACANSTGL
 70
     0
  3
_ _ _ _ _
 72
    65
 73
     2
 40
0.11811023622
 49
0.07874015748
 74
     0
 49
-0.03937007874
 74
     0
  0
ENDTAB
  0
TABLE
  2
LAYER
  5
2
330
0
100
AcDbSymbolTable
 70
    20
  0
LAYER
  5
10
330
2
100
AcDbSymbolTableRecord
100
AcDbLayerTableRecord
  2
0
 70
     0
 62
     7
  6
CONTINUOUS
370
    -3
390
F
347
EF9
  0
LAYER
  5
1FA
330
2
100
AcDbSymbolTableRecord
100
AcDbLayerTableRecord
  2
DEFAULT_1
 70
     0
 62
     7
  6
CENTER
370
    -3
390
F
347
EF9
  0
LAYER
  5
1FB
330
2
100
AcDbSymbolTableRecord
100
AcDbLayerTableRecord
  2
DEFAULT_2
 70
     0
 62
     8
  6
HIDDEN
370
    -3
390
F
347
EF9
  0
LAYER
  5
1FC
330
2
100
AcDbSymbolTableRecord
100
AcDbLayerTableRecord
  2
DEFAULT_3
 70
     0
 62
     7
  6
PHANTOM
370
    -3
390
F
347
EF9
  0
LAYER
  5
1FD
330
2
100
AcDbSymbolTableRecord
100
AcDbLayerTableRecord
  2
CURVE1
 70
     0
 62
     7
  6
CONTINUOUS
370
    -3
390
F
347
EF9
  0
LAYER
  5
1FE
330
2
100
AcDbSymbolTableRecord
100
AcDbLayerTableRecord
  2
DATUMS
 70
     0
 62
     7
  6
CONTINUOUS
370
    -3
390
F
347
EF9
  0
LAYER
  5
1FF
330
2
100
AcDbSymbolTableRecord
100
AcDbLayerTableRecord
  2
DATUM_AXIS
 70
     0
 62
     7
  6
CONTINUOUS
370
    -3
390
F
347
EF9
  0
LAYER
  5
200
330
2
100
AcDbSymbolTableRecord
100
AcDbLayerTableRecord
  2
DATUM_CSYS
 70
     0
 62
     7
  6
CONTINUOUS
370
    -3
390
F
347
EF9
  0
LAYER
  5
201
330
2
100
AcDbSymbolTableRecord
100
AcDbLayerTableRecord
  2
DATUM_PLANE
 70
     0
 62
     7
  6
CONTINUOUS
370
    -3
390
F
347
EF9
  0
LAYER
  5
202
330
2
100
AcDbSymbolTableRecord
100
AcDbLayerTableRecord
  2
DATUM_POINT
 70
     0
 62
     7
  6
CONTINUOUS
370
    -3
390
F
347
EF9
  0
LAYER
  5
203
330
2
100
AcDbSymbolTableRecord
100
AcDbLayerTableRecord
  2
LAY0001
 70
     0
 62
     7
  6
CONTINUOUS
370
    -3
390
F
347
EF9
  0
LAYER
  5
204
330
2
100
AcDbSymbolTableRecord
100
AcDbLayerTableRecord
  2
SURFACE
 70
     0
 62
     7
  6
CONTINUOUS
370
    -3
390
F
347
EF9
  0
LAYER
  5
205
330
2
100
AcDbSymbolTableRecord
100
AcDbLayerTableRecord
  2
SURFACE2
 70
     0
 62
     7
  6
CONTINUOUS
370
    -3
390
F
347
EF9
  0
LAYER
  5
206
330
2
100
AcDbSymbolTableRecord
100
AcDbLayerTableRecord
  2
_CURVE
 70
     0
 62
     7
  6
CONTINUOUS
370
    -3
390
F
347
EF9
  0
LAYER
  5
207
330
2
100
AcDbSymbolTableRecord
100
AcDbLayerTableRecord
  2
_SURFACE
 70
     0
 62
     7
  6
CONTINUOUS
370
    -3
390
F
347
EF9
  0
LAYER
  5
208
330
2
100
AcDbSymbolTableRecord
100
AcDbLayerTableRecord
  2
__REF_CURVE
 70
     0
 62
     7
  6
CONTINUOUS
370
    -3
390
F
347
EF9
  0
LAYER
  5
209
330
2
100
AcDbSymbolTableRecord
100
AcDbLayerTableRecord
  2
__REF_SURFACE
 70
     0
 62
     7
  6
CONTINUOUS
370
    -3
390
F
347
EF9
  0
LAYER
  5
20A
330
2
100
AcDbSymbolTableRecord
100
AcDbLayerTableRecord
  2
___COSMETIC_SKETCH
 70
     0
 62
     7
  6
CONTINUOUS
370
    -3
390
F
347
EF9
  0
LAYER
  5
20B
330
2
100
AcDbSymbolTableRecord
100
AcDbLayerTableRecord
  2
___NOTE
 70
     0
 62
     7
  6
CONTINUOUS
370
    -3
390
F
347
EF9
  0
LAYER
  5
20C
330
2
100
AcDbSymbolTableRecord
100
AcDbLayerTableRecord
  2
___SYMBOL
 70
     0
 62
     7
  6
CONTINUOUS
370
    -3
390
F
347
EF9
  0
ENDTAB
  0
TABLE
  2
STYLE
  5
3
330
0
100
AcDbSymbolTable
 70
    19
  0
STYLE
  5
11
330
3
100
AcDbSymbolTableRecord
100
AcDbTextStyleTableRecord
  2
STANDARD
 70
     0
 40
0.0
 41
0.8
 50
0.0
 71
     0
 42
0.2
  3
txt
  4

  0
STYLE
  5
20D
330
3
100
AcDbSymbolTableRecord
100
AcDbTextStyleTableRecord
  2
TEXTSTYLE_1
 70
     0
 40
0.0
 41
0.8
 50
0.0
 71
     0
 42
0.2
  3
gdt
  4

  0
STYLE
  5
20E
330
3
100
AcDbSymbolTableRecord
100
AcDbTextStyleTableRecord
  2
TEXTSTYLE_2
 70
     0
 40
0.0
 41
1.04
 50
0.0
 71
     0
 42
0.2
  3
txt
  4

  0
STYLE
  5
20F
330
3
100
AcDbSymbolTableRecord
100
AcDbTextStyleTableRecord
  2
TEXTSTYLE_3
 70
     0
 40
0.0
 41
0.9399999999999998
 50
0.0
 71
     0
 42
0.2
  3
txt
  4

  0
STYLE
  5
210
330
3
100
AcDbSymbolTableRecord
100
AcDbTextStyleTableRecord
  2
TEXTSTYLE_4
 70
     0
 40
0.0
 41
1.0
 50
0.0
 71
     0
 42
0.2
  3
txt
  4

  0
STYLE
  5
211
330
3
100
AcDbSymbolTableRecord
100
AcDbTextStyleTableRecord
  2
TEXTSTYLE_5
 70
     0
 40
0.0
 41
1.199999999999999
 50
0.0
 71
     0
 42
0.2
  3
txt
  4

  0
STYLE
  5
212
330
3
100
AcDbSymbolTableRecord
100
AcDbTextStyleTableRecord
  2
TEXTSTYLE_6
 70
     0
 40
0.0
 41
1.02
 50
0.0
 71
     0
 42
0.2
  3
txt
  4

  0
STYLE
  5
213
330
3
100
AcDbSymbolTableRecord
100
AcDbTextStyleTableRecord
  2
TEXTSTYLE_7
 70
     0
 40
0.0
 41
0.925
 50
0.0
 71
     0
 42
0.2
  3
txt
  4

  0
STYLE
  5
214
330
3
100
AcDbSymbolTableRecord
100
AcDbTextStyleTableRecord
  2
TEXTSTYLE_8
 70
     0
 40
0.0
 41
1.0500002909
 50
0.0
 71
     0
 42
0.2
  3
txt
  4

  0
STYLE
  5
215
330
3
100
AcDbSymbolTableRecord
100
AcDbTextStyleTableRecord
  2
TEXTSTYLE_9
 70
     0
 40
0.0
 41
1.09
 50
0.0
 71
     0
 42
0.2
  3
txt
  4

  0
STYLE
  5
216
330
3
100
AcDbSymbolTableRecord
100
AcDbTextStyleTableRecord
  2
TEXTSTYLE_10
 70
     0
 40
0.0
 41
0.9899995429
 50
0.0
 71
     0
 42
0.2
  3
txt
  4

  0
STYLE
  5
217
330
3
100
AcDbSymbolTableRecord
100
AcDbTextStyleTableRecord
  2
TEXTSTYLE_11
 70
     0
 40
0.0
 41
1.07
 50
0.0
 71
     0
 42
0.2
  3
txt
  4

  0
STYLE
  5
218
330
3
100
AcDbSymbolTableRecord
100
AcDbTextStyleTableRecord
  2
TEXTSTYLE_12
 70
     0
 40
0.0
 41
1.229999999999997
 50
0.0
 71
     0
 42
0.2
  3
txt
  4

  0
STYLE
  5
219
330
3
100
AcDbSymbolTableRecord
100
AcDbTextStyleTableRecord
  2
TEXTSTYLE_13
 70
     0
 40
0.0
 41
0.9700032
 50
0.0
 71
     0
 42
0.2
  3
txt
  4

  0
STYLE
  5
21A
330
3
100
AcDbSymbolTableRecord
100
AcDbTextStyleTableRecord
  2
TEXTSTYLE_14
 70
     0
 40
0.0
 41
1.379999999999999
 50
0.0
 71
     0
 42
0.2
  3
txt
  4

  0
STYLE
  5
21B
330
3
100
AcDbSymbolTableRecord
100
AcDbTextStyleTableRecord
  2
TEXTSTYLE_15
 70
     0
 40
0.0
 41
0.95
 50
0.0
 71
     0
 42
0.2
  3
txt
  4

  0
STYLE
  5
FBB
330
3
100
AcDbSymbolTableRecord
100
AcDbTextStyleTableRecord
  2

 70
     1
 40
0.0
 41
1.0
 50
0.0
 71
     0
 42
0.2
  3
genltshp.shx
  4

  0
STYLE
  5
FCB
330
3
100
AcDbSymbolTableRecord
100
AcDbTextStyleTableRecord
  2
ACANSTS
 70
     0
 40
1.0
 41
1.0
 50
0.0
 71
     0
 42
0.2
  3
romans.shx
  4
gbcbig.shx
  0
STYLE
  5
FCC
330
3
100
AcDbSymbolTableRecord
100
AcDbTextStyleTableRecord
  2
ACANSGDT
 70
     0
 40
0.0
 41
1.0
 50
0.0
 71
     0
 42
0.2
  3
amgdt.shx
  4

  0
ENDTAB
  0
TABLE
  2
VIEW
  5
6
330
0
100
AcDbSymbolTable
 70
     0
  0
ENDTAB
  0
TABLE
  2
UCS
  5
7
330
0
100
AcDbSymbolTable
 70
     0
  0
ENDTAB
  0
TABLE
  2
APPID
  5
9
330
0
100
AcDbSymbolTable
 70
     9
  0
APPID
  5
21C
330
9
100
AcDbSymbolTableRecord
100
AcDbRegAppTableRecord
  2
ACAD
 70
     0
  0
APPID
  5
F37
330
9
100
AcDbSymbolTableRecord
100
AcDbRegAppTableRecord
  2
ACAD_MLEADERVER
 70
     0
  0
APPID
  5
F40
330
9
100
AcDbSymbolTableRecord
100
AcDbRegAppTableRecord
  2
MCAD_NO_VIS
 70
     0
  0
APPID
  5
F41
330
9
100
AcDbSymbolTableRecord
100
AcDbRegAppTableRecord
  2
ACAD_TEMP_GRAPHIC
 70
     0
  0
APPID
  5
F6F
330
9
100
AcDbSymbolTableRecord
100
AcDbRegAppTableRecord
  2
AD_DRAW
 70
     0
  0
APPID
  5
F72
330
9
100
AcDbSymbolTableRecord
100
AcDbRegAppTableRecord
  2
ACATTRIBSERVICES
 70
     0
  0
APPID
  5
F93
330
9
100
AcDbSymbolTableRecord
100
AcDbRegAppTableRecord
  2
DESIGNERASSEMBLIES
 70
     0
  0
APPID
  5
F99
330
9
100
AcDbSymbolTableRecord
100
AcDbRegAppTableRecord
  2
ACADM_DIM_EDIT
 70
     0
  0
APPID
  5
F9A
330
9
100
AcDbSymbolTableRecord
100
AcDbRegAppTableRecord
  2
AMDT_DM_ADJ
 70
     0
  0
ENDTAB
  0
TABLE
  2
DIMSTYLE
  5
A
330
0
100
AcDbSymbolTable
 70
    16
100
AcDbDimStyleTable
 71
     1
340
FB2
  0
DIMSTYLE
105
23C
330
A
100
AcDbSymbolTableRecord
100
AcDbDimStyleTableRecord
  2
STANDARD
 70
     0
 41
0.1875
 47
0.01
 48
0.01
 71
     1
 78
     4
140
0.15625
271
     3
272
     3
284
     4
340
11
341
21F
342
21F
343
21F
344
21F
  0
DIMSTYLE
105
23D
330
A
100
AcDbSymbolTableRecord
100
AcDbDimStyleTableRecord
  2
DIMSTYLE_1
 70
     0
 41
0.1875
 47
3.0
 48
3.0
 71
     1
 78
     4
140
0.15625
144
4.0
271
     1
272
     1
284
     4
340
11
341
21F
342
21F
343
21F
344
21F
  0
DIMSTYLE
105
23E
330
A
100
AcDbSymbolTableRecord
100
AcDbDimStyleTableRecord
  2
DIMSTYLE_2
 70
     0
 41
0.1875
 47
0.01
 48
0.01
 78
     4
140
0.15625
144
4.0
271
     3
272
     3
284
     4
340
11
341
21F
342
21F
343
21F
344
21F
  0
DIMSTYLE
105
23F
330
A
100
AcDbSymbolTableRecord
100
AcDbDimStyleTableRecord
  2
DIMSTYLE_3
 70
     0
 41
0.1875
 47
0.1
 48
0.1
 78
     4
140
0.15625
144
4.0
271
     3
272
     3
284
     4
340
11
341
21F
342
21F
343
21F
344
21F
  0
DIMSTYLE
105
240
330
A
100
AcDbSymbolTableRecord
100
AcDbDimStyleTableRecord
  2
DIMSTYLE_4
 70
     0
 41
0.1875
 47
0.1
 48
0.1
 78
     4
140
0.15625
144
4.0
271
     1
272
     1
284
     4
340
11
341
21F
342
21F
343
21F
344
21F
  0
DIMSTYLE
105
241
330
A
100
AcDbSymbolTableRecord
100
AcDbDimStyleTableRecord
  2
DIMSTYLE_5
 70
     0
 41
0.1875
 47
0.001
 48
0.001
 78
     4
140
0.15625
144
4.0
271
     3
272
     3
284
     4
340
11
341
21F
342
21F
343
21F
344
21F
  0
DIMSTYLE
105
242
330
A
100
AcDbSymbolTableRecord
100
AcDbDimStyleTableRecord
  2
DIMSTYLE_6
 70
     0
 41
0.1875
 47
0.01
 48
0.01
 78
     4
140
0.15625
144
4.0
271
     3
272
     3
284
     4
340
11
341
21F
342
21F
343
21F
344
21F
  0
DIMSTYLE
105
243
330
A
100
AcDbSymbolTableRecord
100
AcDbDimStyleTableRecord
  2
DIMSTYLE_7
 70
     0
 41
0.1875
 47
3.0
 48
3.0
 71
     1
 78
     4
140
0.15625
144
4.0
271
     0
272
     0
284
     4
340
11
341
21F
342
21F
343
21F
344
21F
  0
DIMSTYLE
105
244
330
A
100
AcDbSymbolTableRecord
100
AcDbDimStyleTableRecord
  2
DIMSTYLE_8
 70
     0
 41
0.1875
 47
0.1
 48
0.1
 78
     4
140
0.15625
144
4.0
271
     1
272
     1
284
     4
340
11
341
21F
342
21F
343
21F
344
21F
  0
DIMSTYLE
105
245
330
A
100
AcDbSymbolTableRecord
100
AcDbDimStyleTableRecord
  2
DIMSTYLE_9
 70
     0
 41
0.1875
 78
     4
140
0.15625
144
4.0
271
     0
272
     0
284
     4
340
11
341
21F
342
21F
343
21F
344
21F
  0
DIMSTYLE
105
FB2
102
{ACAD_REACTORS
330
10CA
102
}
330
A
100
AcDbSymbolTableRecord
100
AcDbDimStyleTableRecord
  2
AM_ANSI
 70
     0
  4
mm
 41
0.12
 42
0.05
 43
0.5
 44
0.1
 47
0.1
 48
0.1
 78
     7
 79
     2
 90
     1
140
0.12
141
0.0
146
0.71
147
0.06
176
   256
177
   256
178
   140
274
     4
284
     7
340
11
345
14
346
14
347
14
371
    -1
372
    -1
  0
DIMSTYLE
105
FC0
330
A
100
AcDbSymbolTableRecord
100
AcDbDimStyleTableRecord
  2
AM_ANSI$3
 70
     0
  4
mm
 41
0.12
 42
0.05
 43
0.5
 44
0.1
 47
0.1
 48
0.1
 78
     7
 79
     2
 90
     1
140
0.12
141
0.0
146
0.71
147
0.06
176
   256
177
   256
178
   140
274
     4
284
     7
288
     1
289
     0
340
11
345
14
346
14
347
14
371
    -1
372
    -1
  0
DIMSTYLE
105
FC1
330
A
100
AcDbSymbolTableRecord
100
AcDbDimStyleTableRecord
  2
AM_ANSI$4
 70
     0
  4
mm
 41
0.12
 42
0.05
 43
0.5
 44
0.1
 47
0.1
 48
0.1
 78
     7
 79
     2
 90
     1
140
0.12
141
0.0
146
0.71
147
0.06
176
   256
177
   256
178
   140
274
     4
284
     7
340
11
345
14
346
14
347
14
371
    -1
372
    -1
  0
DIMSTYLE
105
FC2
330
A
100
AcDbSymbolTableRecord
100
AcDbDimStyleTableRecord
  2
AM_ANSI$7
 70
     0
  4
mm
 41
0.12
 42
0.05
 43
0.5
 44
0.1
 47
0.1
 48
0.1
 78
     7
 79
     2
 90
     1
140
0.12
141
0.0
146
0.71
147
0.06
176
   256
177
   256
178
   140
274
     4
284
     7
340
11
345
14
346
14
347
14
371
    -1
372
    -1
  0
DIMSTYLE
105
FC3
330
A
100
AcDbSymbolTableRecord
100
AcDbDimStyleTableRecord
  2
AM_ANSI$SF
 70
     0
  4
mm
 41
0.12
 42
0.05
 43
0.5
 44
0.1
 47
0.1
 48
0.1
 75
     1
 76
     1
 78
     7
 79
     2
 90
     1
140
0.12
141
0.0
146
0.71
147
0.06
176
   256
177
   256
178
   140
274
     4
284
     7
340
11
345
14
346
14
347
14
371
    -1
372
    -1
  0
DIMSTYLE
105
FC8
330
A
100
AcDbSymbolTableRecord
100
AcDbDimStyleTableRecord
  2
AM_ANSI$SH
 70
     0
  4
mm
 41
0.12
 42
0.05
 43
0.5
 44
0.1
 47
0.1
 48
0.1
 75
     1
 76
     1
 78
     7
 79
     2
 90
     1
140
0.12
141
0.0
146
0.71
147
0.06
173
     1
176
   256
177
   256
178
   140
274
     4
284
     7
340
11
343
FC4
345
14
346
14
347
14
371
    -1
372
    -1
  0
ENDTAB
  0
TABLE
  2
BLOCK_RECORD
  5
1
330
0
100
AcDbSymbolTable
 70
    29
  0
BLOCK_RECORD
  5
21D
330
1
100
AcDbSymbolTableRecord
100
AcDbBlockTableRecord
  2
*Model_Space
340
EE2
 70
     0
280
     1
281
     0
  0
BLOCK_RECORD
  5
21E
330
1
100
AcDbSymbolTableRecord
100
AcDbBlockTableRecord
  2
*Paper_Space
340
EE3
 70
     0
280
     1
281
     0
  0
BLOCK_RECORD
  5
21F
330
1
100
AcDbSymbolTableRecord
100
AcDbBlockTableRecord
  2
_FILLED
340
0
102
{BLKREFS
331
2D4
331
2D5
331
2DA
331
2DF
331
2E4
331
2E9
331
2EE
331
2F3
331
2F8
331
305
331
30A
331
311
331
312
331
319
331
31A
331
322
331
323
331
32A
331
32B
331
332
331
333
331
33A
331
33B
331
342
331
343
331
34A
331
34B
102
}
 70
     0
280
     1
281
     0
  0
BLOCK_RECORD
  5
220
330
1
100
AcDbSymbolTableRecord
100
AcDbBlockTableRecord
  2
*D1
340
0
 70
     0
280
     1
281
     0
  0
BLOCK_RECORD
  5
221
330
1
100
AcDbSymbolTableRecord
100
AcDbBlockTableRecord
  2
*D2
340
0
 70
     0
280
     1
281
     0
  0
BLOCK_RECORD
  5
222
330
1
100
AcDbSymbolTableRecord
100
AcDbBlockTableRecord
  2
*D3
340
0
 70
     0
280
     1
281
     0
  0
BLOCK_RECORD
  5
223
330
1
100
AcDbSymbolTableRecord
100
AcDbBlockTableRecord
  2
*D4
340
0
 70
     0
280
     1
281
     0
  0
BLOCK_RECORD
  5
224
330
1
100
AcDbSymbolTableRecord
100
AcDbBlockTableRecord
  2
*D5
340
0
 70
     0
280
     1
281
     0
  0
BLOCK_RECORD
  5
225
330
1
100
AcDbSymbolTableRecord
100
AcDbBlockTableRecord
  2
*D6
340
0
 70
     0
280
     1
281
     0
  0
BLOCK_RECORD
  5
226
330
1
100
AcDbSymbolTableRecord
100
AcDbBlockTableRecord
  2
*D7
340
0
 70
     0
280
     1
281
     0
  0
BLOCK_RECORD
  5
227
330
1
100
AcDbSymbolTableRecord
100
AcDbBlockTableRecord
  2
*D8
340
0
 70
     0
280
     1
281
     0
  0
BLOCK_RECORD
  5
228
330
1
100
AcDbSymbolTableRecord
100
AcDbBlockTableRecord
  2
*D9
340
0
 70
     0
280
     1
281
     0
  0
BLOCK_RECORD
  5
229
330
1
100
AcDbSymbolTableRecord
100
AcDbBlockTableRecord
  2
*D10
340
0
 70
     0
280
     1
281
     0
  0
BLOCK_RECORD
  5
22A
330
1
100
AcDbSymbolTableRecord
100
AcDbBlockTableRecord
  2
*D11
340
0
 70
     0
280
     1
281
     0
  0
BLOCK_RECORD
  5
22B
330
1
100
AcDbSymbolTableRecord
100
AcDbBlockTableRecord
  2
*D12
340
0
 70
     0
280
     1
281
     0
  0
BLOCK_RECORD
  5
22C
330
1
100
AcDbSymbolTableRecord
100
AcDbBlockTableRecord
  2
*D13
340
0
 70
     0
280
     1
281
     0
  0
BLOCK_RECORD
  5
22D
330
1
100
AcDbSymbolTableRecord
100
AcDbBlockTableRecord
  2
*D14
340
0
 70
     0
280
     1
281
     0
  0
BLOCK_RECORD
  5
22E
330
1
100
AcDbSymbolTableRecord
100
AcDbBlockTableRecord
  2
*D15
340
0
 70
     0
280
     1
281
     0
  0
BLOCK_RECORD
  5
22F
330
1
100
AcDbSymbolTableRecord
100
AcDbBlockTableRecord
  2
*D16
340
0
 70
     0
280
     1
281
     0
  0
BLOCK_RECORD
  5
230
330
1
100
AcDbSymbolTableRecord
100
AcDbBlockTableRecord
  2
*D17
340
0
 70
     0
280
     1
281
     0
  0
BLOCK_RECORD
  5
231
330
1
100
AcDbSymbolTableRecord
100
AcDbBlockTableRecord
  2
*D18
340
0
 70
     0
280
     1
281
     0
  0
BLOCK_RECORD
  5
232
330
1
100
AcDbSymbolTableRecord
100
AcDbBlockTableRecord
  2
*D19
340
0
 70
     0
280
     1
281
     0
  0
BLOCK_RECORD
  5
233
330
1
100
AcDbSymbolTableRecord
100
AcDbBlockTableRecord
  2
SYMBOL_4_BL6
340
0
 70
     0
280
     1
281
     0
  0
BLOCK_RECORD
  5
234
330
1
100
AcDbSymbolTableRecord
100
AcDbBlockTableRecord
  2
SYMBOL_2_BL5
340
0
 70
     0
280
     1
281
     0
  0
BLOCK_RECORD
  5
235
330
1
100
AcDbSymbolTableRecord
100
AcDbBlockTableRecord
  2
SYMBOL_11_BL4
340
0
 70
     0
280
     1
281
     0
  0
BLOCK_RECORD
  5
236
330
1
100
AcDbSymbolTableRecord
100
AcDbBlockTableRecord
  2
SYMBOL_10_BL3
340
0
 70
     0
280
     1
281
     0
  0
BLOCK_RECORD
  5
237
330
1
100
AcDbSymbolTableRecord
100
AcDbBlockTableRecord
  2
SYMBOL_8_BL2
340
0
 70
     0
280
     1
281
     0
  0
BLOCK_RECORD
  5
238
330
1
100
AcDbSymbolTableRecord
100
AcDbBlockTableRecord
  2
SYMBOL_6_BL1
340
0
 70
     0
280
     1
281
     0
  0
BLOCK_RECORD
  5
239
330
1
100
AcDbSymbolTableRecord
100
AcDbBlockTableRecord
  2
SYMBOL_0_BL0
340
0
 70
     0
280
     1
281
     0
  0
BLOCK_RECORD
  5
FC4
330
1
100
AcDbSymbolTableRecord
100
AcDbBlockTableRecord
  2
GENAXEH
340
0
 70
     0
280
     1
281
     0
  0
ENDTAB
  0
ENDSEC
  0
SECTION
  2
BLOCKS
  0
BLOCK
  5
20
330
21D
100
AcDbEntity
  8
0
100
AcDbBlockBegin
  2
*Model_Space
 70
     0
 10
0.0
 20
0.0
 30
0.0
  3
*Model_Space
  1

  0
ENDBLK
  5
21
330
21D
100
AcDbEntity
  8
0
100
AcDbBlockEnd
  0
BLOCK
  5
1C
330
21E
100
AcDbEntity
 67
     1
  8
0
100
AcDbBlockBegin
  2
*Paper_Space
 70
     0
 10
0.0
 20
0.0
 30
0.0
  3
*Paper_Space
  1

  0
ENDBLK
  5
1D
330
21E
100
AcDbEntity
 67
     1
  8
0
100
AcDbBlockEnd
  0
BLOCK
  5
2CC
330
21F
100
AcDbEntity
  8
0
100
AcDbBlockBegin
  2
_FILLED
 70
     0
 10
0.0
 20
0.0
 30
0.0
  3
_FILLED
  1

  0
SOLID
  5
2CD
330
21F
100
AcDbEntity
  8
0
  6
ByBlock
 62
     0
100
AcDbTrace
 10
0.0
 20
0.0
 30
0.0
 11
-1.0
 21
0.1666666667
 31
0.0
 12
-1.0
 22
-0.1666666667
 32
0.0
 13
-1.0
 23
-0.1666666667
 33
0.0
  0
ENDBLK
  5
2CE
330
21F
100
AcDbEntity
  8
0
  6
ByBlock
 62
     0
100
AcDbBlockEnd
  0
BLOCK
  5
2CF
330
220
100
AcDbEntity
  8
0
  6
Continuous
 62
     2
100
AcDbBlockBegin
  2
*D1
 70
     1
 10
0.0
 20
0.0
 30
0.0
  3
*D1
  1

  0
LINE
  5
2D0
330
220
100
AcDbEntity
  8
0
  6
Continuous
 62
     2
100
AcDbLine
 10
17.2188360791
 20
10.7703933253
 30
0.0
 11
17.2188360791
 21
9.057186064899999
 31
0.0
  0
LINE
  5
2D1
330
220
100
AcDbEntity
  8
0
  6
Continuous
 62
     2
100
AcDbLine
 10
5.506237653899997
 20
10.7552510572
 30
0.0
 11
5.506237653899997
 21
9.057186064899999
 31
0.0
  0
LINE
  5
2D2
330
220
100
AcDbEntity
  8
0
  6
Continuous
 62
     2
100
AcDbLine
 10
17.2188360791
 20
9.182186064899999
 30
0.0
 11
11.2627981025
 21
9.182186064899999
 31
0.0
  0
LINE
  5
2D3
330
220
100
AcDbEntity
  8
0
  6
Continuous
 62
     2
100
AcDbLine
 10
5.506237653899997
 20
9.182186064899999
 30
0.0
 11
10.2992564359
 21
9.182186064899999
 31
0.0
  0
INSERT
  5
2D4
330
220
100
AcDbEntity
  8
0
  6
Continuous
 62
     2
100
AcDbBlockReference
  2
_FILLED
 10
17.2188360791
 20
9.182186064899999
 30
0.0
 41
0.1875
 42
0.1875
 43
0.1875
  0
INSERT
  5
2D5
330
220
100
AcDbEntity
  8
0
  6
Continuous
 62
     2
100
AcDbBlockReference
  2
_FILLED
 10
5.506237653899997
 20
9.182186064899999
 30
0.0
 41
0.1875
 42
0.1875
 43
0.1875
 50
180.0
  0
ENDBLK
  5
2D6
330
220
100
AcDbEntity
  8
0
  6
ByBlock
 62
     0
100
AcDbBlockEnd
  0
BLOCK
  5
2D7
330
221
100
AcDbEntity
  8
0
  6
Continuous
 62
     2
100
AcDbBlockBegin
  2
*D2
 70
     1
 10
0.0
 20
0.0
 30
0.0
  3
*D2
  1

  0
LINE
  5
2D8
330
221
100
AcDbEntity
  8
0
  6
Continuous
 62
     2
100
AcDbLine
 10
12.7625948246
 20
17.8648771801
 30
0.0
 11
12.7950024492
 21
15.8876465121
 31
0.0
  0
LINE
  5
2D9
330
221
100
AcDbEntity
  8
0
  6
Continuous
 62
     2
100
AcDbLine
 10
12.7950024492
 20
15.8876465121
 30
0.0
 11
12.5059531513
 21
15.8876465121
 31
0.0
  0
INSERT
  5
2DA
330
221
100
AcDbEntity
  8
0
  6
Continuous
 62
     2
100
AcDbBlockReference
  2
_FILLED
 10
12.7625948246
 20
17.8648771801
 30
0.0
 41
0.1875
 42
0.1875
 43
0.1875
 50
90.93901733039999
  0
ENDBLK
  5
2DB
330
221
100
AcDbEntity
  8
0
  6
ByBlock
 62
     0
100
AcDbBlockEnd
  0
BLOCK
  5
2DC
330
222
100
AcDbEntity
  8
0
  6
Continuous
 62
     2
100
AcDbBlockBegin
  2
*D3
 70
     1
 10
0.0
 20
0.0
 30
0.0
  3
*D3
  1

  0
LINE
  5
2DD
330
222
100
AcDbEntity
  8
0
  6
Continuous
 62
     2
100
AcDbLine
 10
9.8562307364
 20
12.0433058398
 30
0.0
 11
9.7631241871
 21
10.3529160334
 31
0.0
  0
LINE
  5
2DE
330
222
100
AcDbEntity
  8
0
  6
Continuous
 62
     2
100
AcDbLine
 10
9.7631241871
 20
10.3529160334
 30
0.0
 11
9.5912491871
 21
10.3529160334
 31
0.0
  0
INSERT
  5
2DF
330
222
100
AcDbEntity
  8
0
  6
Continuous
 62
     2
100
AcDbBlockReference
  2
_FILLED
 10
9.8562307364
 20
12.0433058398
 30
0.0
 41
0.1875
 42
0.1875
 43
0.1875
 50
86.8473381769
  0
ENDBLK
  5
2E0
330
222
100
AcDbEntity
  8
0
  6
ByBlock
 62
     0
100
AcDbBlockEnd
  0
BLOCK
  5
2E1
330
223
100
AcDbEntity
  8
0
  6
Continuous
 62
     2
100
AcDbBlockBegin
  2
*D4
 70
     1
 10
0.0
 20
0.0
 30
0.0
  3
*D4
  1

  0
LINE
  5
2E2
330
223
100
AcDbEntity
  8
0
  6
Continuous
 62
     2
100
AcDbLine
 10
10.0484269019
 20
17.2719932626
 30
0.0
 11
10.1141693767
 21
16.0350586984
 31
0.0
  0
LINE
  5
2E3
330
223
100
AcDbEntity
  8
0
  6
Continuous
 62
     2
100
AcDbLine
 10
10.1141693767
 20
16.0350586984
 30
0.0
 11
10.2860443767
 21
16.0350586984
 31
0.0
  0
INSERT
  5
2E4
330
223
100
AcDbEntity
  8
0
  6
Continuous
 62
     2
100
AcDbBlockReference
  2
_FILLED
 10
10.0484269019
 20
17.2719932626
 30
0.0
 41
0.1875
 42
0.1875
 43
0.1875
 50
93.04238039469998
  0
ENDBLK
  5
2E5
330
223
100
AcDbEntity
  8
0
  6
ByBlock
 62
     0
100
AcDbBlockEnd
  0
BLOCK
  5
2E6
330
224
100
AcDbEntity
  8
0
  6
Continuous
 62
     2
100
AcDbBlockBegin
  2
*D5
 70
     1
 10
0.0
 20
0.0
 30
0.0
  3
*D5
  1

  0
LINE
  5
2E7
330
224
100
AcDbEntity
  8
0
  6
Continuous
 62
     2
100
AcDbLine
 10
6.550493147999999
 20
16.7636404757
 30
0.0
 11
5.006604923
 21
17.8786612509
 31
0.0
  0
LINE
  5
2E8
330
224
100
AcDbEntity
  8
0
  6
Continuous
 62
     2
100
AcDbLine
 10
5.006604923
 20
17.8786612509
 30
0.0
 11
4.834729923
 21
17.8786612509
 31
0.0
  0
INSERT
  5
2E9
330
224
100
AcDbEntity
  8
0
  6
Continuous
 62
     2
100
AcDbBlockReference
  2
_FILLED
 10
6.550493147999999
 20
16.7636404757
 30
0.0
 41
0.1875
 42
0.1875
 43
0.1875
 50
324.1625814204
  0
ENDBLK
  5
2EA
330
224
100
AcDbEntity
  8
0
  6
ByBlock
 62
     0
100
AcDbBlockEnd
  0
BLOCK
  5
2EB
330
225
100
AcDbEntity
  8
0
  6
Continuous
 62
     2
100
AcDbBlockBegin
  2
*D6
 70
     1
 10
0.0
 20
0.0
 30
0.0
  3
*D6
  1

  0
LINE
  5
2EC
330
225
100
AcDbEntity
  8
0
  6
Continuous
 62
     2
100
AcDbLine
 10
6.4899829583
 20
12.6404563781
 30
0.0
 11
4.867481730599998
 21
11.8163076985
 31
0.0
  0
LINE
  5
2ED
330
225
100
AcDbEntity
  8
0
  6
Continuous
 62
     2
100
AcDbLine
 10
4.867481730599998
 20
11.8163076985
 30
0.0
 11
4.695606730599998
 21
11.8163076985
 31
0.0
  0
INSERT
  5
2EE
330
225
100
AcDbEntity
  8
0
  6
Continuous
 62
     2
100
AcDbBlockReference
  2
_FILLED
 10
6.4899829583
 20
12.6404563781
 30
0.0
 41
0.1875
 42
0.1875
 43
0.1875
 50
26.9282693561
  0
ENDBLK
  5
2EF
330
225
100
AcDbEntity
  8
0
  6
ByBlock
 62
     0
100
AcDbBlockEnd
  0
BLOCK
  5
2F0
330
226
100
AcDbEntity
  8
0
  6
Continuous
 62
     2
100
AcDbBlockBegin
  2
*D7
 70
     1
 10
0.0
 20
0.0
 30
0.0
  3
*D7
  1

  0
LINE
  5
2F1
330
226
100
AcDbEntity
  8
0
  6
Continuous
 62
     2
100
AcDbLine
 10
6.1411536033
 20
12.0291082756
 30
0.0
 11
4.847218807099999
 21
11.0838581195
 31
0.0
  0
LINE
  5
2F2
330
226
100
AcDbEntity
  8
0
  6
Continuous
 62
     2
100
AcDbLine
 10
4.847218807099999
 20
11.0838581195
 30
0.0
 11
4.675343807099999
 21
11.0838581195
 31
0.0
  0
INSERT
  5
2F3
330
226
100
AcDbEntity
  8
0
  6
Continuous
 62
     2
100
AcDbBlockReference
  2
_FILLED
 10
6.1411536033
 20
12.0291082756
 30
0.0
 41
0.1875
 42
0.1875
 43
0.1875
 50
36.1490172941
  0
ENDBLK
  5
2F4
330
226
100
AcDbEntity
  8
0
  6
ByBlock
 62
     0
100
AcDbBlockEnd
  0
BLOCK
  5
2F5
330
227
100
AcDbEntity
  8
0
  6
Continuous
 62
     2
100
AcDbBlockBegin
  2
*D8
 70
     1
 10
0.0
 20
0.0
 30
0.0
  3
*D8
  1

  0
LINE
  5
2F6
330
227
100
AcDbEntity
  8
0
  6
Continuous
 62
     2
100
AcDbLine
 10
6.228171607999999
 20
17.3751422637
 30
0.0
 11
5.053222445899999
 21
18.6037243652
 31
0.0
  0
LINE
  5
2F7
330
227
100
AcDbEntity
  8
0
  6
Continuous
 62
     2
100
AcDbLine
 10
5.053222445899999
 20
18.6037243652
 30
0.0
 11
4.881347445899999
 21
18.6037243652
 31
0.0
  0
INSERT
  5
2F8
330
227
100
AcDbEntity
  8
0
  6
Continuous
 62
     2
100
AcDbBlockReference
  2
_FILLED
 10
6.228171607999999
 20
17.3751422637
 30
0.0
 41
0.1875
 42
0.1875
 43
0.1875
 50
313.7217011776
  0
ENDBLK
  5
2F9
330
227
100
AcDbEntity
  8
0
  6
ByBlock
 62
     0
100
AcDbBlockEnd
  0
BLOCK
  5
2FA
330
228
100
AcDbEntity
  8
0
  6
Continuous
 62
     2
100
AcDbBlockBegin
  2
*D9
 70
     1
 10
0.0
 20
0.0
 30
0.0
  3
*D9
  1

  0
LINE
  5
2FB
330
228
100
AcDbEntity
  8
0
  6
Continuous
 62
     2
100
AcDbLine
 10
28.1940751086
 20
16.9425177905
 30
0.0
 11
28.1940751086
 21
13.372871507
 31
0.0
  0
LINE
  5
2FC
330
228
100
AcDbEntity
  8
0
  6
Continuous
 62
     2
100
AcDbLine
 10
28.1908041113
 20
16.9426034446
 30
0.0
 11
28.0039832596
 21
13.3778492373
 31
0.0
  0
ARC
  5
2FD
330
228
100
AcDbEntity
  8
0
  6
Continuous
 62
     2
100
AcDbCircle
 10
28.1940751086
 20
17.0050177905
 30
0.0
 40
3.5071462835
100
AcDbArc
 50
270.0
 51
293.0248550326
  0
ARC
  5
2FE
330
228
100
AcDbEntity
  8
0
  6
Continuous
 62
     2
100
AcDbCircle
 10
28.1940751086
 20
17.0050177905
 30
0.0
 40
3.5071462835
100
AcDbArc
 50
258.8315669093
 51
267.0
  0
SOLID
  5
2FF
330
228
100
AcDbEntity
  8
0
  6
Continuous
 62
     2
100
AcDbTrace
 10
28.3806728747
 20
13.5341218337
 30
0.0
 11
28.1940751086
 21
13.497871507
 31
0.0
 12
28.3823433717
 22
13.4716441621
 32
0.0
 13
28.3823433717
 23
13.4716441621
 33
0.0
  0
SOLID
  5
300
330
228
100
AcDbEntity
  8
0
  6
Continuous
 62
     2
100
AcDbTrace
 10
27.821142373
 20
13.4863397275
 30
0.0
 11
28.0105252542
 21
13.5026779291
 31
0.0
 12
27.8260804093
 22
13.5486443485
 32
0.0
 13
27.8260804093
 23
13.5486443485
 33
0.0
  0
ENDBLK
  5
301
330
228
100
AcDbEntity
  8
0
  6
ByBlock
 62
     0
100
AcDbBlockEnd
  0
BLOCK
  5
302
330
229
100
AcDbEntity
  8
0
  6
Continuous
 62
     2
100
AcDbBlockBegin
  2
*D10
 70
     1
 10
0.0
 20
0.0
 30
0.0
  3
*D10
  1

  0
LINE
  5
303
330
229
100
AcDbEntity
  8
0
  6
Continuous
 62
     2
100
AcDbLine
 10
5.561010992099999
 20
11.0162776912
 30
0.0
 11
4.839762075299999
 21
10.2950287744
 31
0.0
  0
LINE
  5
304
330
229
100
AcDbEntity
  8
0
  6
Continuous
 62
     2
100
AcDbLine
 10
4.839762075299999
 20
10.2950287744
 30
0.0
 11
4.667887075299999
 21
10.2950287744
 31
0.0
  0
INSERT
  5
305
330
229
100
AcDbEntity
  8
0
  6
Continuous
 62
     2
100
AcDbBlockReference
  2
_FILLED
 10
5.561010992099999
 20
11.0162776912
 30
0.0
 41
0.1875
 42
0.1875
 43
0.1875
 50
45.0
  0
ENDBLK
  5
306
330
229
100
AcDbEntity
  8
0
  6
ByBlock
 62
     0
100
AcDbBlockEnd
  0
BLOCK
  5
307
330
22A
100
AcDbEntity
  8
0
  6
Continuous
 62
     2
100
AcDbBlockBegin
  2
*D11
 70
     1
 10
0.0
 20
0.0
 30
0.0
  3
*D11
  1

  0
LINE
  5
308
330
22A
100
AcDbEntity
  8
0
  6
Continuous
 62
     2
100
AcDbLine
 10
7.621979340299997
 20
14.4267546052
 30
0.0
 11
7.8702920325
 21
13.8550356069
 31
0.0
  0
LINE
  5
309
330
22A
100
AcDbEntity
  8
0
  6
Continuous
 62
     2
100
AcDbLine
 10
7.8702920325
 20
13.8550356069
 30
0.0
 11
8.015527993600001
 21
13.8550356069
 31
0.0
  0
INSERT
  5
30A
330
22A
100
AcDbEntity
  8
0
  6
Continuous
 62
     2
100
AcDbBlockReference
  2
_FILLED
 10
7.621979340299997
 20
14.4267546052
 30
0.0
 41
0.1875
 42
0.1875
 43
0.1875
 50
113.4765819887
  0
ENDBLK
  5
30B
330
22A
100
AcDbEntity
  8
0
  6
ByBlock
 62
     0
100
AcDbBlockEnd
  0
BLOCK
  5
30C
330
22B
100
AcDbEntity
  8
0
  6
Continuous
 62
     2
100
AcDbBlockBegin
  2
*D12
 70
     1
 10
0.0
 20
0.0
 30
0.0
  3
*D12
  1

  0
LINE
  5
30D
330
22B
100
AcDbEntity
  8
0
  6
Continuous
 62
     2
100
AcDbLine
 10
17.0943282051
 20
18.3433941168
 30
0.0
 11
18.4247133336
 21
18.3433941168
 31
0.0
  0
LINE
  5
30E
330
22B
100
AcDbEntity
  8
0
  6
Continuous
 62
     2
100
AcDbLine
 10
17.0943282051
 20
10.961504353
 30
0.0
 11
18.4247133336
 21
10.961504353
 31
0.0
  0
LINE
  5
30F
330
22B
100
AcDbEntity
  8
0
  6
Continuous
 62
     2
100
AcDbLine
 10
18.2997133336
 20
18.3433941168
 30
0.0
 11
18.2997133336
 21
14.7450082008
 31
0.0
  0
LINE
  5
310
330
22B
100
AcDbEntity
  8
0
  6
Continuous
 62
     2
100
AcDbLine
 10
18.2997133336
 20
10.961504353
 30
0.0
 11
18.2997133336
 21
14.4325082008
 31
0.0
  0
INSERT
  5
311
330
22B
100
AcDbEntity
  8
0
  6
Continuous
 62
     2
100
AcDbBlockReference
  2
_FILLED
 10
18.2997133336
 20
18.3433941168
 30
0.0
 41
0.1875
 42
0.1875
 43
0.1875
 50
90.0
  0
INSERT
  5
312
330
22B
100
AcDbEntity
  8
0
  6
Continuous
 62
     2
100
AcDbBlockReference
  2
_FILLED
 10
18.2997133336
 20
10.961504353
 30
0.0
 41
0.1875
 42
0.1875
 43
0.1875
 50
270.0
  0
ENDBLK
  5
313
330
22B
100
AcDbEntity
  8
0
  6
ByBlock
 62
     0
100
AcDbBlockEnd
  0
BLOCK
  5
314
330
22C
100
AcDbEntity
  8
0
  6
Continuous
 62
     2
100
AcDbBlockBegin
  2
*D13
 70
     1
 10
0.0
 20
0.0
 30
0.0
  3
*D13
  1

  0
LINE
  5
315
330
22C
100
AcDbEntity
  8
0
  6
Continuous
 62
     2
100
AcDbLine
 10
11.3625368665
 20
10.804657129
 30
0.0
 11
11.3625368665
 21
9.514123268099998
 31
0.0
  0
LINE
  5
316
330
22C
100
AcDbEntity
  8
0
  6
Continuous
 62
     2
100
AcDbLine
 10
5.506237653899997
 20
10.7893921915
 30
0.0
 11
5.506237653899997
 21
9.514123268099998
 31
0.0
  0
LINE
  5
317
330
22C
100
AcDbEntity
  8
0
  6
Continuous
 62
     2
100
AcDbLine
 10
11.3625368665
 20
9.639123268099998
 30
0.0
 11
8.437950601499997
 21
9.639123268099998
 31
0.0
  0
LINE
  5
318
330
22C
100
AcDbEntity
  8
0
  6
Continuous
 62
     2
100
AcDbLine
 10
5.506237653899997
 20
9.639123268099998
 30
0.0
 11
7.906700601499997
 21
9.639123268099998
 31
0.0
  0
INSERT
  5
319
330
22C
100
AcDbEntity
  8
0
  6
Continuous
 62
     2
100
AcDbBlockReference
  2
_FILLED
 10
11.3625368665
 20
9.639123268099998
 30
0.0
 41
0.1875
 42
0.1875
 43
0.1875
  0
INSERT
  5
31A
330
22C
100
AcDbEntity
  8
0
  6
Continuous
 62
     2
100
AcDbBlockReference
  2
_FILLED
 10
5.506237653899997
 20
9.639123268099998
 30
0.0
 41
0.1875
 42
0.1875
 43
0.1875
 50
180.0
  0
ENDBLK
  5
31B
330
22C
100
AcDbEntity
  8
0
  6
ByBlock
 62
     0
100
AcDbBlockEnd
  0
BLOCK
  5
31C
330
22D
100
AcDbEntity
  8
0
  6
Continuous
 62
     2
100
AcDbBlockBegin
  2
*D14
 70
     1
 10
0.0
 20
0.0
 30
0.0
  3
*D14
  1

  0
LINE
  5
31D
330
22D
100
AcDbEntity
  8
0
  6
Continuous
 62
     2
100
AcDbLine
 10
23.6111046406
 20
17.4430099165
 30
0.0
 11
23.9231916667
 21
17.4430099165
 31
0.0
  0
LINE
  5
31E
330
22D
100
AcDbEntity
  8
0
  6
Continuous
 62
     2
100
AcDbLine
 10
23.1572039949
 20
17.0049337769
 30
0.0
 11
23.9231916667
 21
17.0049337769
 31
0.0
  0
LINE
  5
31F
330
22D
100
AcDbEntity
  8
0
  6
Continuous
 62
     2
100
AcDbLine
 10
23.7981916667
 20
17.4430099165
 30
0.0
 11
23.7981916667
 21
17.8213627836
 31
0.0
  0
LINE
  5
320
330
22D
100
AcDbEntity
  8
0
  6
Continuous
 62
     2
100
AcDbLine
 10
23.7981916667
 20
17.8213627836
 30
0.0
 11
23.9700666667
 21
17.8213627836
 31
0.0
  0
LINE
  5
321
330
22D
100
AcDbEntity
  8
0
  6
Continuous
 62
     2
100
AcDbLine
 10
23.7981916667
 20
17.0049337769
 30
0.0
 11
23.7981916667
 21
16.5049337769
 31
0.0
  0
INSERT
  5
322
330
22D
100
AcDbEntity
  8
0
  6
Continuous
 62
     2
100
AcDbBlockReference
  2
_FILLED
 10
23.7981916667
 20
17.4430099165
 30
0.0
 41
0.1875
 42
0.1875
 43
0.1875
 50
270.0
  0
INSERT
  5
323
330
22D
100
AcDbEntity
  8
0
  6
Continuous
 62
     2
100
AcDbBlockReference
  2
_FILLED
 10
23.7981916667
 20
17.0049337769
 30
0.0
 41
0.1875
 42
0.1875
 43
0.1875
 50
90.0
  0
ENDBLK
  5
324
330
22D
100
AcDbEntity
  8
0
  6
ByBlock
 62
     0
100
AcDbBlockEnd
  0
BLOCK
  5
325
330
22E
100
AcDbEntity
  8
0
  6
Continuous
 62
     2
100
AcDbBlockBegin
  2
*D15
 70
     1
 10
0.0
 20
0.0
 30
0.0
  3
*D15
  1

  0
LINE
  5
326
330
22E
100
AcDbEntity
  8
0
  6
Continuous
 62
     2
100
AcDbLine
 10
23.0947039949
 20
17.0674337769
 30
0.0
 11
23.0947039949
 21
18.9191297811
 31
0.0
  0
LINE
  5
327
330
22E
100
AcDbEntity
  8
0
  6
Continuous
 62
     2
100
AcDbLine
 10
28.4560398723
 20
17.0674337797
 30
0.0
 11
28.4560398723
 21
18.9191297811
 31
0.0
  0
LINE
  5
328
330
22E
100
AcDbEntity
  8
0
  6
Continuous
 62
     2
100
AcDbLine
 10
23.0947039949
 20
18.7941297811
 30
0.0
 11
25.034263546
 21
18.7941297811
 31
0.0
  0
LINE
  5
329
330
22E
100
AcDbEntity
  8
0
  6
Continuous
 62
     2
100
AcDbLine
 10
28.4560398723
 20
18.7941297811
 30
0.0
 11
25.815513546
 21
18.7941297811
 31
0.0
  0
INSERT
  5
32A
330
22E
100
AcDbEntity
  8
0
  6
Continuous
 62
     2
100
AcDbBlockReference
  2
_FILLED
 10
23.0947039949
 20
18.7941297811
 30
0.0
 41
0.1875
 42
0.1875
 43
0.1875
 50
180.0
  0
INSERT
  5
32B
330
22E
100
AcDbEntity
  8
0
  6
Continuous
 62
     2
100
AcDbBlockReference
  2
_FILLED
 10
28.4560398723
 20
18.7941297811
 30
0.0
 41
0.1875
 42
0.1875
 43
0.1875
  0
ENDBLK
  5
32C
330
22E
100
AcDbEntity
  8
0
  6
ByBlock
 62
     0
100
AcDbBlockEnd
  0
BLOCK
  5
32D
330
22F
100
AcDbEntity
  8
0
  6
Continuous
 62
     2
100
AcDbBlockBegin
  2
*D16
 70
     1
 10
0.0
 20
0.0
 30
0.0
  3
*D16
  1

  0
LINE
  5
32E
330
22F
100
AcDbEntity
  8
0
  6
Continuous
 62
     2
100
AcDbLine
 10
22.5956641558
 20
17.5055099165
 30
0.0
 11
22.5956641558
 21
19.2926252621
 31
0.0
  0
LINE
  5
32F
330
22F
100
AcDbEntity
  8
0
  6
Continuous
 62
     2
100
AcDbLine
 10
28.95507970820001
 20
17.5055099165
 30
0.0
 11
28.95507970820001
 21
19.2926252621
 31
0.0
  0
LINE
  5
330
330
22F
100
AcDbEntity
  8
0
  6
Continuous
 62
     2
100
AcDbLine
 10
22.5956641558
 20
19.1676252621
 30
0.0
 11
25.338653876
 21
19.1676252621
 31
0.0
  0
LINE
  5
331
330
22F
100
AcDbEntity
  8
0
  6
Continuous
 62
     2
100
AcDbLine
 10
28.95507970820001
 20
19.1676252621
 30
0.0
 11
26.119903876
 21
19.1676252621
 31
0.0
  0
INSERT
  5
332
330
22F
100
AcDbEntity
  8
0
  6
Continuous
 62
     2
100
AcDbBlockReference
  2
_FILLED
 10
22.5956641558
 20
19.1676252621
 30
0.0
 41
0.1875
 42
0.1875
 43
0.1875
 50
180.0
  0
INSERT
  5
333
330
22F
100
AcDbEntity
  8
0
  6
Continuous
 62
     2
100
AcDbBlockReference
  2
_FILLED
 10
28.95507970820001
 20
19.1676252621
 30
0.0
 41
0.1875
 42
0.1875
 43
0.1875
  0
ENDBLK
  5
334
330
22F
100
AcDbEntity
  8
0
  6
ByBlock
 62
     0
100
AcDbBlockEnd
  0
BLOCK
  5
335
330
230
100
AcDbEntity
  8
0
  6
Continuous
 62
     2
100
AcDbBlockBegin
  2
*D17
 70
     1
 10
0.0
 20
0.0
 30
0.0
  3
*D17
  1

  0
LINE
  5
336
330
230
100
AcDbEntity
  8
0
  6
Continuous
 62
     2
100
AcDbLine
 10
23.2471171899
 20
15.6252725002
 30
0.0
 11
23.2471171899
 21
18.5804215289
 31
0.0
  0
LINE
  5
337
330
230
100
AcDbEntity
  8
0
  6
Continuous
 62
     2
100
AcDbLine
 10
28.3036265123
 20
15.6252745202
 30
0.0
 11
28.3036265123
 21
18.5804215289
 31
0.0
  0
LINE
  5
338
330
230
100
AcDbEntity
  8
0
  6
Continuous
 62
     2
100
AcDbLine
 10
23.2471171899
 20
18.4554215289
 30
0.0
 11
24.763397946
 21
18.4554215289
 31
0.0
  0
LINE
  5
339
330
230
100
AcDbEntity
  8
0
  6
Continuous
 62
     2
100
AcDbLine
 10
28.3036265123
 20
18.4554215289
 30
0.0
 11
25.544647946
 21
18.4554215289
 31
0.0
  0
INSERT
  5
33A
330
230
100
AcDbEntity
  8
0
  6
Continuous
 62
     2
100
AcDbBlockReference
  2
_FILLED
 10
23.2471171899
 20
18.4554215289
 30
0.0
 41
0.1875
 42
0.1875
 43
0.1875
 50
180.0
  0
INSERT
  5
33B
330
230
100
AcDbEntity
  8
0
  6
Continuous
 62
     2
100
AcDbBlockReference
  2
_FILLED
 10
28.3036265123
 20
18.4554215289
 30
0.0
 41
0.1875
 42
0.1875
 43
0.1875
  0
ENDBLK
  5
33C
330
230
100
AcDbEntity
  8
0
  6
ByBlock
 62
     0
100
AcDbBlockEnd
  0
BLOCK
  5
33D
330
231
100
AcDbEntity
  8
0
  6
Continuous
 62
     2
100
AcDbBlockBegin
  2
*D18
 70
     1
 10
0.0
 20
0.0
 30
0.0
  3
*D18
  1

  0
LINE
  5
33E
330
231
100
AcDbEntity
  8
0
  6
Continuous
 62
     2
100
AcDbLine
 10
23.4322536283
 20
15.6252725003
 30
0.0
 11
23.4322536283
 21
18.2106623295
 31
0.0
  0
LINE
  5
33F
330
231
100
AcDbEntity
  8
0
  6
Continuous
 62
     2
100
AcDbLine
 10
28.1184903416
 20
15.6252745202
 30
0.0
 11
28.1184903416
 21
18.2106623295
 31
0.0
  0
LINE
  5
340
330
231
100
AcDbEntity
  8
0
  6
Continuous
 62
     2
100
AcDbLine
 10
23.4322536283
 20
18.0856623295
 30
0.0
 11
24.4621180354
 21
18.0856623295
 31
0.0
  0
LINE
  5
341
330
231
100
AcDbEntity
  8
0
  6
Continuous
 62
     2
100
AcDbLine
 10
28.1184903416
 20
18.0856623295
 30
0.0
 11
25.2433680354
 21
18.0856623295
 31
0.0
  0
INSERT
  5
342
330
231
100
AcDbEntity
  8
0
  6
Continuous
 62
     2
100
AcDbBlockReference
  2
_FILLED
 10
23.4322536283
 20
18.0856623295
 30
0.0
 41
0.1875
 42
0.1875
 43
0.1875
 50
180.0
  0
INSERT
  5
343
330
231
100
AcDbEntity
  8
0
  6
Continuous
 62
     2
100
AcDbBlockReference
  2
_FILLED
 10
28.1184903416
 20
18.0856623295
 30
0.0
 41
0.1875
 42
0.1875
 43
0.1875
  0
ENDBLK
  5
344
330
231
100
AcDbEntity
  8
0
  6
ByBlock
 62
     0
100
AcDbBlockEnd
  0
BLOCK
  5
345
330
232
100
AcDbEntity
  8
0
  6
Continuous
 62
     2
100
AcDbBlockBegin
  2
*D19
 70
     1
 10
0.0
 20
0.0
 30
0.0
  3
*D19
  1

  0
LINE
  5
346
330
232
100
AcDbEntity
  8
0
  6
Continuous
 62
     2
100
AcDbLine
 10
27.9722909082
 20
12.7106231478
 30
0.0
 11
27.9722909082
 21
11.4535339648
 31
0.0
  0
LINE
  5
347
330
232
100
AcDbEntity
  8
0
  6
Continuous
 62
     2
100
AcDbLine
 10
23.5784529558
 20
12.7106231478
 30
0.0
 11
23.5784529558
 21
11.4535339648
 31
0.0
  0
LINE
  5
348
330
232
100
AcDbEntity
  8
0
  6
Continuous
 62
     2
100
AcDbLine
 10
27.9722909082
 20
11.5785339648
 30
0.0
 11
26.0605129776
 21
11.5785339648
 31
0.0
  0
LINE
  5
349
330
232
100
AcDbEntity
  8
0
  6
Continuous
 62
     2
100
AcDbLine
 10
23.5784529558
 20
11.5785339648
 30
0.0
 11
25.5292629776
 21
11.5785339648
 31
0.0
  0
INSERT
  5
34A
330
232
100
AcDbEntity
  8
0
  6
Continuous
 62
     2
100
AcDbBlockReference
  2
_FILLED
 10
27.9722909082
 20
11.5785339648
 30
0.0
 41
0.1875
 42
0.1875
 43
0.1875
  0
INSERT
  5
34B
330
232
100
AcDbEntity
  8
0
  6
Continuous
 62
     2
100
AcDbBlockReference
  2
_FILLED
 10
23.5784529558
 20
11.5785339648
 30
0.0
 41
0.1875
 42
0.1875
 43
0.1875
 50
180.0
  0
ENDBLK
  5
34C
330
232
100
AcDbEntity
  8
0
  6
ByBlock
 62
     0
100
AcDbBlockEnd
  0
BLOCK
  5
246
330
233
100
AcDbEntity
  8
___SYMBOL
  6
Continuous
 62
     2
100
AcDbBlockBegin
  2
SYMBOL_4_BL6
 70
     0
 10
18.8844190732
 20
14.5659489336
 30
0.0
  3
SYMBOL_4_BL6
  1

  0
LWPOLYLINE
  5
247
330
233
100
AcDbEntity
  8
___SYMBOL
  6
Continuous
 62
     2
100
AcDbPolyline
 90
       13
 70
     0
 43
0.015
 10
18.850364502
 20
14.7573112793
 10
18.8581755371
 20
14.7703310547
 10
18.8738017578
 20
14.7833529053
 10
18.8894259033
 20
14.7833529053
 10
18.905052124
 20
14.7703310547
 10
18.9128631592
 20
14.7573112793
 10
18.9128631592
 20
14.7312696533
 10
18.905052124
 20
14.7182478027
 10
18.8894259033
 20
14.7052280273
 10
18.8738017578
 20
14.6922061768
 10
18.8581755371
 20
14.6661645508
 10
18.850364502
 20
14.6271031494
 10
18.9128631592
 20
14.6271031494
  0
LINE
  5
248
330
233
100
AcDbEntity
  8
___SYMBOL
  6
Continuous
 62
     7
100
AcDbLine
 10
18.7494189875
 20
14.8359491049
 30
0.0
 11
18.7494189875
 21
14.2959487624
 31
0.0
  0
LINE
  5
249
330
233
100
AcDbEntity
  8
___SYMBOL
  6
Continuous
 62
     7
100
AcDbLine
 10
18.7494189875
 20
14.2959487624
 30
0.0
 11
19.0194191588
 21
14.2959487624
 31
0.0
  0
LINE
  5
24A
330
233
100
AcDbEntity
  8
___SYMBOL
  6
Continuous
 62
     7
100
AcDbLine
 10
18.7494189875
 20
14.5659489336
 30
0.0
 11
19.0194191588
 21
14.5659489336
 31
0.0
  0
LINE
  5
24B
330
233
100
AcDbEntity
  8
___SYMBOL
  6
Continuous
 62
     7
100
AcDbLine
 10
18.7494189875
 20
14.8359491049
 30
0.0
 11
19.0194191588
 21
14.8359491049
 31
0.0
  0
LINE
  5
24C
330
233
100
AcDbEntity
  8
___SYMBOL
  6
Continuous
 62
     7
100
AcDbLine
 10
19.0194191588
 20
14.2959487624
 30
0.0
 11
19.0194191588
 21
14.8359491049
 31
0.0
  0
ENDBLK
  5
24D
330
233
100
AcDbEntity
  8
0
  6
ByBlock
 62
     0
100
AcDbBlockEnd
  0
BLOCK
  5
24E
330
234
100
AcDbEntity
  8
___SYMBOL
  6
Continuous
 62
     2
100
AcDbBlockBegin
  2
SYMBOL_2_BL5
 70
     0
 10
11.3870367101
 20
9.1752039947
 30
0.0
  3
SYMBOL_2_BL5
  1

  0
LWPOLYLINE
  5
24F
330
234
100
AcDbEntity
  8
___SYMBOL
  6
Continuous
 62
     2
100
AcDbPolyline
 90
        2
 70
     0
 43
0.015
 10
11.384230957
 20
9.392607665999999
 10
11.384230957
 20
9.2363579102
  0
LINE
  5
250
330
234
100
AcDbEntity
  8
___SYMBOL
  6
Continuous
 62
     7
100
AcDbLine
 10
11.2520366245
 20
9.445204165899999
 30
0.0
 11
11.2520366245
 21
8.9052038234
 31
0.0
  0
LINE
  5
251
330
234
100
AcDbEntity
  8
___SYMBOL
  6
Continuous
 62
     7
100
AcDbLine
 10
11.2520366245
 20
8.9052038234
 30
0.0
 11
11.5220367957
 21
8.9052038234
 31
0.0
  0
LINE
  5
252
330
234
100
AcDbEntity
  8
___SYMBOL
  6
Continuous
 62
     7
100
AcDbLine
 10
11.2520366245
 20
9.1752039947
 30
0.0
 11
11.5220367957
 21
9.1752039947
 31
0.0
  0
LINE
  5
253
330
234
100
AcDbEntity
  8
___SYMBOL
  6
Continuous
 62
     7
100
AcDbLine
 10
11.2520366245
 20
9.445204165899999
 30
0.0
 11
11.5220367957
 21
9.445204165899999
 31
0.0
  0
LINE
  5
254
330
234
100
AcDbEntity
  8
___SYMBOL
  6
Continuous
 62
     7
100
AcDbLine
 10
11.5220367957
 20
8.9052038234
 30
0.0
 11
11.5220367957
 21
9.445204165899999
 31
0.0
  0
ENDBLK
  5
255
330
234
100
AcDbEntity
  8
0
  6
ByBlock
 62
     0
100
AcDbBlockEnd
  0
BLOCK
  5
256
330
235
100
AcDbEntity
  8
0
  6
Continuous
 62
     2
100
AcDbBlockBegin
  2
SYMBOL_11_BL4
 70
     0
 10
33.6875
 20
11.0
 30
0.0
  3
SYMBOL_11_BL4
  1

  0
LINE
  5
257
330
235
100
AcDbEntity
  8
0
  6
Continuous
 62
    30
420
 16744192
100
AcDbLine
 10
33.5
 20
11.0
 30
0.0
 11
33.6875
 21
10.90625
 31
0.0
  0
LINE
  5
258
330
235
100
AcDbEntity
  8
0
  6
Continuous
 62
    30
420
 16744192
100
AcDbLine
 10
33.5
 20
11.0
 30
0.0
 11
33.6875
 21
11.09375
 31
0.0
  0
LINE
  5
259
330
235
100
AcDbEntity
  8
0
  6
Continuous
 62
    30
420
 16744192
100
AcDbLine
 10
33.6875
 20
11.0234375
 30
0.0
 11
33.6875
 21
11.09375
 31
0.0
  0
LINE
  5
25A
330
235
100
AcDbEntity
  8
0
  6
Continuous
 62
    30
420
 16744192
100
AcDbLine
 10
33.875
 20
11.0234375
 30
0.0
 11
33.6875
 21
11.0234375
 31
0.0
  0
LINE
  5
25B
330
235
100
AcDbEntity
  8
0
  6
Continuous
 62
    30
420
 16744192
100
AcDbLine
 10
33.875
 20
11.0234375
 30
0.0
 11
33.875
 21
10.9765625
 31
0.0
  0
LINE
  5
25C
330
235
100
AcDbEntity
  8
0
  6
Continuous
 62
    30
420
 16744192
100
AcDbLine
 10
33.6875
 20
10.9765625
 30
0.0
 11
33.875
 21
10.9765625
 31
0.0
  0
LINE
  5
25D
330
235
100
AcDbEntity
  8
0
  6
Continuous
 62
    30
420
 16744192
100
AcDbLine
 10
33.6875
 20
10.90625
 30
0.0
 11
33.6875
 21
10.9765625
 31
0.0
  0
LWPOLYLINE
  5
25E
330
235
100
AcDbEntity
  8
0
  6
Continuous
 62
     7
100
AcDbPolyline
 90
        8
 70
     0
 43
0.0
 10
33.5
 20
11.0
 10
33.6875
 20
11.09375
 10
33.6875
 20
11.0234375
 10
33.875
 20
11.0234375
 10
33.875
 20
10.9765625
 10
33.6875
 20
10.9765625
 10
33.6875
 20
10.90625
 10
33.5
 20
11.0
  0
HATCH
  5
25F
330
235
100
AcDbEntity
  8
0
  6
Continuous
 62
     7
100
AcDbHatch
 10
0.0
 20
0.0
 30
0.0
210
0.0
220
0.0
230
1.0
  2
SOLID
 70
     1
 71
     1
 91
        1
 92
        1
 93
        7
 72
     1
 10
33.5
 20
11.0
 11
33.6875
 21
11.09375
 72
     1
 10
33.6875
 20
11.09375
 11
33.6875
 21
11.0234375
 72
     1
 10
33.6875
 20
11.0234375
 11
33.875
 21
11.0234375
 72
     1
 10
33.875
 20
11.0234375
 11
33.875
 21
10.9765625
 72
     1
 10
33.875
 20
10.9765625
 11
33.6875
 21
10.9765625
 72
     1
 10
33.6875
 20
10.9765625
 11
33.6875
 21
10.90625
 72
     1
 10
33.6875
 20
10.90625
 11
33.5
 21
11.0
 97
        1
330
25E
 75
     0
 76
     1
 98
        1
 10
0.0
 20
0.0
450
        0
451
        0
460
0.0
461
0.0
452
        0
462
0.0
453
        0
470

  0
ENDBLK
  5
260
330
235
100
AcDbEntity
  8
0
  6
ByBlock
 62
     0
100
AcDbBlockEnd
  0
BLOCK
  5
261
330
236
100
AcDbEntity
  8
0
  6
Continuous
 62
     2
100
AcDbBlockBegin
  2
SYMBOL_10_BL3
 70
     0
 10
0.3125
 20
11.0
 30
0.0
  3
SYMBOL_10_BL3
  1

  0
LINE
  5
262
330
236
100
AcDbEntity
  8
0
  6
Continuous
 62
    30
420
 16744192
100
AcDbLine
 10
0.5
 20
11.0
 30
0.0
 11
0.3125
 21
11.09375
 31
0.0
  0
LINE
  5
263
330
236
100
AcDbEntity
  8
0
  6
Continuous
 62
    30
420
 16744192
100
AcDbLine
 10
0.5
 20
11.0
 30
0.0
 11
0.3125
 21
10.90625
 31
0.0
  0
LINE
  5
264
330
236
100
AcDbEntity
  8
0
  6
Continuous
 62
    30
420
 16744192
100
AcDbLine
 10
0.3125
 20
10.9765625
 30
0.0
 11
0.3125
 21
10.90625
 31
0.0
  0
LINE
  5
265
330
236
100
AcDbEntity
  8
0
  6
Continuous
 62
    30
420
 16744192
100
AcDbLine
 10
0.125
 20
10.9765625
 30
0.0
 11
0.3125
 21
10.9765625
 31
0.0
  0
LINE
  5
266
330
236
100
AcDbEntity
  8
0
  6
Continuous
 62
    30
420
 16744192
100
AcDbLine
 10
0.125
 20
10.9765625
 30
0.0
 11
0.125
 21
11.0234375
 31
0.0
  0
LINE
  5
267
330
236
100
AcDbEntity
  8
0
  6
Continuous
 62
    30
420
 16744192
100
AcDbLine
 10
0.3125
 20
11.0234375
 30
0.0
 11
0.125
 21
11.0234375
 31
0.0
  0
LINE
  5
268
330
236
100
AcDbEntity
  8
0
  6
Continuous
 62
    30
420
 16744192
100
AcDbLine
 10
0.3125
 20
11.09375
 30
0.0
 11
0.3125
 21
11.0234375
 31
0.0
  0
LWPOLYLINE
  5
269
330
236
100
AcDbEntity
  8
0
  6
Continuous
 62
     7
100
AcDbPolyline
 90
        8
 70
     0
 43
0.0
 10
0.5
 20
11.0
 10
0.3125
 20
10.90625
 10
0.3125
 20
10.9765625
 10
0.125
 20
10.9765625
 10
0.125
 20
11.0234375
 10
0.3125
 20
11.0234375
 10
0.3125
 20
11.09375
 10
0.5
 20
11.0
  0
HATCH
  5
26A
330
236
100
AcDbEntity
  8
0
  6
Continuous
 62
     7
100
AcDbHatch
 10
0.0
 20
0.0
 30
0.0
210
0.0
220
0.0
230
1.0
  2
SOLID
 70
     1
 71
     1
 91
        1
 92
        1
 93
        7
 72
     1
 10
0.5
 20
11.0
 11
0.3125
 21
10.90625
 72
     1
 10
0.3125
 20
10.90625
 11
0.3125
 21
10.9765625
 72
     1
 10
0.3125
 20
10.9765625
 11
0.125
 21
10.9765625
 72
     1
 10
0.125
 20
10.9765625
 11
0.125
 21
11.0234375
 72
     1
 10
0.125
 20
11.0234375
 11
0.3125
 21
11.0234375
 72
     1
 10
0.3125
 20
11.0234375
 11
0.3125
 21
11.09375
 72
     1
 10
0.3125
 20
11.09375
 11
0.5
 21
11.0
 97
        1
330
269
 75
     0
 76
     1
 98
        1
 10
0.0
 20
0.0
450
        0
451
        0
460
0.0
461
0.0
452
        0
462
0.0
453
        0
470

  0
ENDBLK
  5
26B
330
236
100
AcDbEntity
  8
0
  6
ByBlock
 62
     0
100
AcDbBlockEnd
  0
BLOCK
  5
26C
330
237
100
AcDbEntity
  8
0
  6
Continuous
 62
     2
100
AcDbBlockBegin
  2
SYMBOL_8_BL2
 70
     0
 10
17.0
 20
21.6875
 30
0.0
  3
SYMBOL_8_BL2
  1

  0
LINE
  5
26D
330
237
100
AcDbEntity
  8
0
  6
Continuous
 62
    30
420
 16744192
100
AcDbLine
 10
17.0
 20
21.5
 30
0.0
 11
17.09375
 21
21.6875
 31
0.0
  0
LINE
  5
26E
330
237
100
AcDbEntity
  8
0
  6
Continuous
 62
    30
420
 16744192
100
AcDbLine
 10
17.0
 20
21.5
 30
0.0
 11
16.90625
 21
21.6875
 31
0.0
  0
LINE
  5
26F
330
237
100
AcDbEntity
  8
0
  6
Continuous
 62
    30
420
 16744192
100
AcDbLine
 10
16.9765625
 20
21.6875
 30
0.0
 11
16.90625
 21
21.6875
 31
0.0
  0
LINE
  5
270
330
237
100
AcDbEntity
  8
0
  6
Continuous
 62
    30
420
 16744192
100
AcDbLine
 10
16.9765625
 20
21.875
 30
0.0
 11
16.9765625
 21
21.6875
 31
0.0
  0
LINE
  5
271
330
237
100
AcDbEntity
  8
0
  6
Continuous
 62
    30
420
 16744192
100
AcDbLine
 10
16.9765625
 20
21.875
 30
0.0
 11
17.0234375
 21
21.875
 31
0.0
  0
LINE
  5
272
330
237
100
AcDbEntity
  8
0
  6
Continuous
 62
    30
420
 16744192
100
AcDbLine
 10
17.0234375
 20
21.6875
 30
0.0
 11
17.0234375
 21
21.875
 31
0.0
  0
LINE
  5
273
330
237
100
AcDbEntity
  8
0
  6
Continuous
 62
    30
420
 16744192
100
AcDbLine
 10
17.09375
 20
21.6875
 30
0.0
 11
17.0234375
 21
21.6875
 31
0.0
  0
LWPOLYLINE
  5
274
330
237
100
AcDbEntity
  8
0
  6
Continuous
 62
     7
100
AcDbPolyline
 90
        8
 70
     0
 43
0.0
 10
17.0
 20
21.5
 10
16.90625
 20
21.6875
 10
16.9765625
 20
21.6875
 10
16.9765625
 20
21.875
 10
17.0234375
 20
21.875
 10
17.0234375
 20
21.6875
 10
17.09375
 20
21.6875
 10
17.0
 20
21.5
  0
HATCH
  5
275
330
237
100
AcDbEntity
  8
0
  6
Continuous
 62
     7
100
AcDbHatch
 10
0.0
 20
0.0
 30
0.0
210
0.0
220
0.0
230
1.0
  2
SOLID
 70
     1
 71
     1
 91
        1
 92
        1
 93
        7
 72
     1
 10
17.0
 20
21.5
 11
16.90625
 21
21.6875
 72
     1
 10
16.90625
 20
21.6875
 11
16.9765625
 21
21.6875
 72
     1
 10
16.9765625
 20
21.6875
 11
16.9765625
 21
21.875
 72
     1
 10
16.9765625
 20
21.875
 11
17.0234375
 21
21.875
 72
     1
 10
17.0234375
 20
21.875
 11
17.0234375
 21
21.6875
 72
     1
 10
17.0234375
 20
21.6875
 11
17.09375
 21
21.6875
 72
     1
 10
17.09375
 20
21.6875
 11
17.0
 21
21.5
 97
        1
330
274
 75
     0
 76
     1
 98
        1
 10
0.0
 20
0.0
450
        0
451
        0
460
0.0
461
0.0
452
        0
462
0.0
453
        0
470

  0
ENDBLK
  5
276
330
237
100
AcDbEntity
  8
0
  6
ByBlock
 62
     0
100
AcDbBlockEnd
  0
BLOCK
  5
277
330
238
100
AcDbEntity
  8
0
  6
Continuous
 62
     2
100
AcDbBlockBegin
  2
SYMBOL_6_BL1
 70
     0
 10
17.0
 20
0.3125
 30
0.0
  3
SYMBOL_6_BL1
  1

  0
LINE
  5
278
330
238
100
AcDbEntity
  8
0
  6
Continuous
 62
    30
420
 16744192
100
AcDbLine
 10
17.0
 20
0.5
 30
0.0
 11
16.90625
 21
0.3125
 31
0.0
  0
LINE
  5
279
330
238
100
AcDbEntity
  8
0
  6
Continuous
 62
    30
420
 16744192
100
AcDbLine
 10
17.0
 20
0.5
 30
0.0
 11
17.09375
 21
0.3125
 31
0.0
  0
LINE
  5
27A
330
238
100
AcDbEntity
  8
0
  6
Continuous
 62
    30
420
 16744192
100
AcDbLine
 10
17.0234375
 20
0.3125
 30
0.0
 11
17.09375
 21
0.3125
 31
0.0
  0
LINE
  5
27B
330
238
100
AcDbEntity
  8
0
  6
Continuous
 62
    30
420
 16744192
100
AcDbLine
 10
17.0234375
 20
0.125
 30
0.0
 11
17.0234375
 21
0.3125
 31
0.0
  0
LINE
  5
27C
330
238
100
AcDbEntity
  8
0
  6
Continuous
 62
    30
420
 16744192
100
AcDbLine
 10
17.0234375
 20
0.125
 30
0.0
 11
16.9765625
 21
0.125
 31
0.0
  0
LINE
  5
27D
330
238
100
AcDbEntity
  8
0
  6
Continuous
 62
    30
420
 16744192
100
AcDbLine
 10
16.9765625
 20
0.3125
 30
0.0
 11
16.9765625
 21
0.125
 31
0.0
  0
LINE
  5
27E
330
238
100
AcDbEntity
  8
0
  6
Continuous
 62
    30
420
 16744192
100
AcDbLine
 10
16.90625
 20
0.3125
 30
0.0
 11
16.9765625
 21
0.3125
 31
0.0
  0
LWPOLYLINE
  5
27F
330
238
100
AcDbEntity
  8
0
  6
Continuous
 62
     7
100
AcDbPolyline
 90
        8
 70
     0
 43
0.0
 10
17.0
 20
0.5
 10
17.09375
 20
0.3125
 10
17.0234375
 20
0.3125
 10
17.0234375
 20
0.125
 10
16.9765625
 20
0.125
 10
16.9765625
 20
0.3125
 10
16.90625
 20
0.3125
 10
17.0
 20
0.5
  0
HATCH
  5
280
330
238
100
AcDbEntity
  8
0
  6
Continuous
 62
     7
100
AcDbHatch
 10
0.0
 20
0.0
 30
0.0
210
0.0
220
0.0
230
1.0
  2
SOLID
 70
     1
 71
     1
 91
        1
 92
        1
 93
        7
 72
     1
 10
17.0
 20
0.5
 11
17.09375
 21
0.3125
 72
     1
 10
17.09375
 20
0.3125
 11
17.0234375
 21
0.3125
 72
     1
 10
17.0234375
 20
0.3125
 11
17.0234375
 21
0.125
 72
     1
 10
17.0234375
 20
0.125
 11
16.9765625
 21
0.125
 72
     1
 10
16.9765625
 20
0.125
 11
16.9765625
 21
0.3125
 72
     1
 10
16.9765625
 20
0.3125
 11
16.90625
 21
0.3125
 72
     1
 10
16.90625
 20
0.3125
 11
17.0
 21
0.5
 97
        1
330
27F
 75
     0
 76
     1
 98
        1
 10
0.0
 20
0.0
450
        0
451
        0
460
0.0
461
0.0
452
        0
462
0.0
453
        0
470

  0
ENDBLK
  5
281
330
238
100
AcDbEntity
  8
0
  6
ByBlock
 62
     0
100
AcDbBlockEnd
  0
BLOCK
  5
282
330
239
100
AcDbEntity
  8
0
  6
Continuous
 62
     2
100
AcDbBlockBegin
  2
SYMBOL_0_BL0
 70
     0
 10
30.1873715
 20
2.174145999999999
 30
0.0
  3
SYMBOL_0_BL0
  1

  0
ARC
  5
283
330
239
100
AcDbEntity
  8
0
  6
Continuous
 62
     2
100
AcDbCircle
 10
30.753184
 20
2.22961475
 30
0.0
 40
0.03065625
100
AcDbArc
 50
270.0
 51
90.0
  0
LINE
  5
284
330
239
100
AcDbEntity
  8
0
  6
Continuous
 62
     2
100
AcDbLine
 10
29.503184
 20
2.033520999999999
 30
0.0
 11
29.503184
 21
2.314770999999999
 31
0.0
  0
LINE
  5
285
330
239
100
AcDbEntity
  8
0
  6
Continuous
 62
     2
100
AcDbLine
 10
29.503184
 20
2.314770999999999
 30
0.0
 11
29.570184
 21
2.314770999999999
 31
0.0
  0
LINE
  5
286
330
239
100
AcDbEntity
  8
0
  6
Continuous
 62
     2
100
AcDbLine
 10
29.503184
 20
2.033520999999999
 30
0.0
 11
29.570184
 21
2.033520999999999
 31
0.0
  0
LINE
  5
287
330
239
100
AcDbEntity
  8
0
  6
Continuous
 62
     2
100
AcDbLine
 10
29.753184
 20
2.314770999999999
 30
0.0
 11
29.628184
 21
2.189770999999999
 31
0.0
  0
LINE
  5
288
330
239
100
AcDbEntity
  8
0
  6
Continuous
 62
     2
100
AcDbLine
 10
29.628184
 20
2.189770999999999
 30
0.0
 11
29.753184
 21
2.033520999999999
 31
0.0
  0
CIRCLE
  5
289
330
239
100
AcDbEntity
  8
0
  6
Continuous
 62
     2
100
AcDbCircle
 10
29.862559
 20
2.174145999999999
 30
0.0
 40
0.073625
  0
LINE
  5
28A
330
239
100
AcDbEntity
  8
0
  6
Continuous
 62
     2
100
AcDbLine
 10
29.6673821352
 20
2.033520999999999
 30
0.0
 11
29.753184
 21
2.033520999999999
 31
0.0
  0
CIRCLE
  5
28B
330
239
100
AcDbEntity
  8
0
  6
Continuous
 62
     2
100
AcDbCircle
 10
29.862559
 20
2.174145999999999
 30
0.0
 40
0.140625
  0
LINE
  5
28C
330
239
100
AcDbEntity
  8
0
  6
Continuous
 62
     2
100
AcDbLine
 10
29.570184
 20
2.033520999999999
 30
0.0
 11
29.570184
 21
2.155018668999999
 31
0.0
  0
LINE
  5
28D
330
239
100
AcDbEntity
  8
0
  6
Continuous
 62
     2
100
AcDbLine
 10
29.6584316913
 20
2.314770999999999
 30
0.0
 11
29.570184
 21
2.2265233087
 31
0.0
  0
LINE
  5
28E
330
239
100
AcDbEntity
  8
0
  6
Continuous
 62
     2
100
AcDbLine
 10
29.570184
 20
2.155018668999999
 30
0.0
 11
29.6673821352
 21
2.033520999999999
 31
0.0
  0
LINE
  5
28F
330
239
100
AcDbEntity
  8
0
  6
Continuous
 62
     2
100
AcDbLine
 10
29.6584316913
 20
2.314770999999999
 30
0.0
 11
29.753184
 21
2.314770999999999
 31
0.0
  0
LINE
  5
290
330
239
100
AcDbEntity
  8
0
  6
Continuous
 62
     2
100
AcDbLine
 10
29.570184
 20
2.314770999999999
 30
0.0
 11
29.570184
 21
2.2265233087
 31
0.0
  0
LINE
  5
291
330
239
100
AcDbEntity
  8
0
  6
Continuous
 62
     2
100
AcDbLine
 10
30.034434
 20
2.314770999999999
 30
0.0
 11
30.034434
 21
2.033520999999999
 31
0.0
  0
LINE
  5
292
330
239
100
AcDbEntity
  8
0
  6
Continuous
 62
     2
100
AcDbLine
 10
30.101434
 20
2.033520999999999
 30
0.0
 11
30.101434
 21
2.156270999999998
 31
0.0
  0
LINE
  5
293
330
239
100
AcDbEntity
  8
0
  6
Continuous
 62
     2
100
AcDbLine
 10
30.101434
 20
2.223270999999999
 30
0.0
 11
30.101434
 21
2.314770999999999
 31
0.0
  0
LINE
  5
294
330
239
100
AcDbEntity
  8
0
  6
Continuous
 62
     2
100
AcDbLine
 10
30.179559
 20
2.033520999999999
 30
0.0
 11
30.179559
 21
2.156270999999998
 31
0.0
  0
LINE
  5
295
330
239
100
AcDbEntity
  8
0
  6
Continuous
 62
     2
100
AcDbLine
 10
30.179559
 20
2.223270999999999
 30
0.0
 11
30.179559
 21
2.314770999999999
 31
0.0
  0
LINE
  5
296
330
239
100
AcDbEntity
  8
0
  6
Continuous
 62
     2
100
AcDbLine
 10
30.246559
 20
2.314770999999999
 30
0.0
 11
30.246559
 21
2.033520999999999
 31
0.0
  0
LINE
  5
297
330
239
100
AcDbEntity
  8
0
  6
Continuous
 62
     2
100
AcDbLine
 10
30.101434
 20
2.223270999999999
 30
0.0
 11
30.179559
 21
2.223270999999999
 31
0.0
  0
LINE
  5
298
330
239
100
AcDbEntity
  8
0
  6
Continuous
 62
     2
100
AcDbLine
 10
30.101434
 20
2.156270999999998
 30
0.0
 11
30.179559
 21
2.156270999999998
 31
0.0
  0
LINE
  5
299
330
239
100
AcDbEntity
  8
0
  6
Continuous
 62
     2
100
AcDbLine
 10
30.179559
 20
2.033520999999999
 30
0.0
 11
30.246559
 21
2.033520999999999
 31
0.0
  0
LINE
  5
29A
330
239
100
AcDbEntity
  8
0
  6
Continuous
 62
     2
100
AcDbLine
 10
30.034434
 20
2.033520999999999
 30
0.0
 11
30.101434
 21
2.033520999999999
 31
0.0
  0
LINE
  5
29B
330
239
100
AcDbEntity
  8
0
  6
Continuous
 62
     2
100
AcDbLine
 10
30.179559
 20
2.314770999999999
 30
0.0
 11
30.246559
 21
2.314770999999999
 31
0.0
  0
LINE
  5
29C
330
239
100
AcDbEntity
  8
0
  6
Continuous
 62
     2
100
AcDbLine
 10
30.034434
 20
2.314770999999999
 30
0.0
 11
30.101434
 21
2.314770999999999
 31
0.0
  0
LINE
  5
29D
330
239
100
AcDbEntity
  8
0
  6
Continuous
 62
     2
100
AcDbLine
 10
30.277809
 20
2.314770999999999
 30
0.0
 11
30.277809
 21
2.033520999999999
 31
0.0
  0
LINE
  5
29E
330
239
100
AcDbEntity
  8
0
  6
Continuous
 62
     2
100
AcDbLine
 10
30.434059
 20
2.100521
 30
0.0
 11
30.434059
 21
2.033520999999999
 31
0.0
  0
LINE
  5
29F
330
239
100
AcDbEntity
  8
0
  6
Continuous
 62
     2
100
AcDbLine
 10
30.277809
 20
2.033520999999999
 30
0.0
 11
30.434059
 21
2.033520999999999
 31
0.0
  0
LINE
  5
2A0
330
239
100
AcDbEntity
  8
0
  6
Continuous
 62
     2
100
AcDbLine
 10
30.344809
 20
2.100521
 30
0.0
 11
30.344809
 21
2.314770999999999
 31
0.0
  0
LINE
  5
2A1
330
239
100
AcDbEntity
  8
0
  6
Continuous
 62
     2
100
AcDbLine
 10
30.344809
 20
2.100521
 30
0.0
 11
30.434059
 21
2.100521
 31
0.0
  0
LINE
  5
2A2
330
239
100
AcDbEntity
  8
0
  6
Continuous
 62
     2
100
AcDbLine
 10
30.277809
 20
2.314770999999999
 30
0.0
 11
30.344809
 21
2.314770999999999
 31
0.0
  0
LINE
  5
2A3
330
239
100
AcDbEntity
  8
0
  6
Continuous
 62
     2
100
AcDbLine
 10
30.465309
 20
2.033520999999999
 30
0.0
 11
30.621559
 21
2.033520999999999
 31
0.0
  0
LINE
  5
2A4
330
239
100
AcDbEntity
  8
0
  6
Continuous
 62
     2
100
AcDbLine
 10
30.621559
 20
2.100521
 30
0.0
 11
30.621559
 21
2.033520999999999
 31
0.0
  0
LINE
  5
2A5
330
239
100
AcDbEntity
  8
0
  6
Continuous
 62
     2
100
AcDbLine
 10
30.532309
 20
2.100521
 30
0.0
 11
30.621559
 21
2.100521
 31
0.0
  0
LINE
  5
2A6
330
239
100
AcDbEntity
  8
0
  6
Continuous
 62
     2
100
AcDbLine
 10
30.532309
 20
2.148458499999998
 30
0.0
 11
30.532309
 21
2.100521
 31
0.0
  0
LINE
  5
2A7
330
239
100
AcDbEntity
  8
0
  6
Continuous
 62
     2
100
AcDbLine
 10
30.532309
 20
2.247770999999999
 30
0.0
 11
30.621559
 21
2.247770999999999
 31
0.0
  0
LINE
  5
2A8
330
239
100
AcDbEntity
  8
0
  6
Continuous
 62
     2
100
AcDbLine
 10
30.465309
 20
2.314770999999999
 30
0.0
 11
30.465309
 21
2.033520999999999
 31
0.0
  0
LINE
  5
2A9
330
239
100
AcDbEntity
  8
0
  6
Continuous
 62
     2
100
AcDbLine
 10
30.621559
 20
2.247770999999999
 30
0.0
 11
30.621559
 21
2.314770999999999
 31
0.0
  0
LINE
  5
2AA
330
239
100
AcDbEntity
  8
0
  6
Continuous
 62
     2
100
AcDbLine
 10
30.465309
 20
2.314770999999999
 30
0.0
 11
30.621559
 21
2.314770999999999
 31
0.0
  0
LINE
  5
2AB
330
239
100
AcDbEntity
  8
0
  6
Continuous
 62
     2
100
AcDbLine
 10
30.532309
 20
2.199833499999999
 30
0.0
 11
30.621559
 21
2.199833499999999
 31
0.0
  0
LINE
  5
2AC
330
239
100
AcDbEntity
  8
0
  6
Continuous
 62
     2
100
AcDbLine
 10
30.621559
 20
2.199833499999999
 30
0.0
 11
30.621559
 21
2.148458499999998
 31
0.0
  0
LINE
  5
2AD
330
239
100
AcDbEntity
  8
0
  6
Continuous
 62
     2
100
AcDbLine
 10
30.532309
 20
2.148458499999998
 30
0.0
 11
30.621559
 21
2.148458499999998
 31
0.0
  0
LINE
  5
2AE
330
239
100
AcDbEntity
  8
0
  6
Continuous
 62
     2
100
AcDbLine
 10
30.532309
 20
2.199833499999999
 30
0.0
 11
30.532309
 21
2.247770999999999
 31
0.0
  0
LINE
  5
2AF
330
239
100
AcDbEntity
  8
0
  6
Continuous
 62
     2
100
AcDbLine
 10
30.652809
 20
2.033520999999999
 30
0.0
 11
30.652809
 21
2.314770999999999
 31
0.0
  0
LINE
  5
2B0
330
239
100
AcDbEntity
  8
0
  6
Continuous
 62
     2
100
AcDbLine
 10
30.719809
 20
2.142895999999999
 30
0.0
 11
30.719809
 21
2.033520999999999
 31
0.0
  0
ARC
  5
2B1
330
239
100
AcDbEntity
  8
0
  6
Continuous
 62
     2
100
AcDbCircle
 10
30.7543715
 20
2.228833499999999
 30
0.0
 40
0.0859375
100
AcDbArc
 50
304.1679402531
 51
90.0
  0
LINE
  5
2B2
330
239
100
AcDbEntity
  8
0
  6
Continuous
 62
     2
100
AcDbLine
 10
30.7543715
 20
2.314770999999999
 30
0.0
 11
30.652809
 21
2.314770999999999
 31
0.0
  0
LINE
  5
2B3
330
239
100
AcDbEntity
  8
0
  6
Continuous
 62
     2
100
AcDbLine
 10
30.753184
 20
2.260270999999999
 30
0.0
 11
30.719809
 21
2.260270999999999
 31
0.0
  0
LINE
  5
2B4
330
239
100
AcDbEntity
  8
0
  6
Continuous
 62
     2
100
AcDbLine
 10
30.8026357616
 20
2.1577292458
 30
0.0
 11
30.871559
 21
2.033520999999999
 31
0.0
  0
LINE
  5
2B5
330
239
100
AcDbEntity
  8
0
  6
Continuous
 62
     2
100
AcDbLine
 10
30.7949350526
 20
2.033520999999999
 30
0.0
 11
30.7342427922
 21
2.142895999999999
 31
0.0
  0
LINE
  5
2B6
330
239
100
AcDbEntity
  8
0
  6
Continuous
 62
     2
100
AcDbLine
 10
30.652809
 20
2.033520999999999
 30
0.0
 11
30.719809
 21
2.033520999999999
 31
0.0
  0
LINE
  5
2B7
330
239
100
AcDbEntity
  8
0
  6
Continuous
 62
     2
100
AcDbLine
 10
30.7949350526
 20
2.033520999999999
 30
0.0
 11
30.871559
 21
2.033520999999999
 31
0.0
  0
LINE
  5
2B8
330
239
100
AcDbEntity
  8
0
  6
Continuous
 62
     2
100
AcDbLine
 10
30.753184
 20
2.198958499999998
 30
0.0
 11
30.719809
 21
2.198958499999998
 31
0.0
  0
LINE
  5
2B9
330
239
100
AcDbEntity
  8
0
  6
Continuous
 62
     2
100
AcDbLine
 10
30.719809
 20
2.260270999999999
 30
0.0
 11
30.719809
 21
2.198958499999998
 31
0.0
  0
LINE
  5
2BA
330
239
100
AcDbEntity
  8
0
  6
Continuous
 62
     2
100
AcDbLine
 10
30.719809
 20
2.142895999999999
 30
0.0
 11
30.7342427922
 21
2.142895999999999
 31
0.0
  0
LWPOLYLINE
  5
2BB
330
239
100
AcDbEntity
  8
0
  6
Continuous
 62
     2
100
AcDbPolyline
 90
       14
 70
     0
 43
0.0
 10
30.871559
 20
2.033520999999999
 10
30.7949350526
 20
2.033520999999999
 10
30.7342427922
 20
2.142895999999999
 10
30.719809
 20
2.142895999999999
 10
30.719809
 20
2.033520999999999
 10
30.652809
 20
2.033520999999999
 10
30.652809
 20
2.260270999999999
 10
30.719809
 20
2.260270999999999
 10
30.719809
 20
2.198958499999998
 10
30.753184
 20
2.198958499999998
 10
30.833650134
 20
2.198958499999998
 10
30.8247683179
 20
2.1795431162
 10
30.8026357616
 20
2.1577292458
 10
30.871559
 20
2.033520999999999
  0
HATCH
  5
2BC
330
239
100
AcDbEntity
  8
0
  6
Continuous
 62
     2
100
AcDbHatch
 10
0.0
 20
0.0
 30
0.0
210
0.0
220
0.0
230
1.0
  2
SOLID
 70
     1
 71
     1
 91
        1
 92
        1
 93
       13
 72
     1
 10
30.871559
 20
2.033520999999999
 11
30.7949350526
 21
2.033520999999999
 72
     1
 10
30.7949350526
 20
2.033520999999999
 11
30.7342427922
 21
2.142895999999999
 72
     1
 10
30.7342427922
 20
2.142895999999999
 11
30.719809
 21
2.142895999999999
 72
     1
 10
30.719809
 20
2.142895999999999
 11
30.719809
 21
2.033520999999999
 72
     1
 10
30.719809
 20
2.033520999999999
 11
30.652809
 21
2.033520999999999
 72
     1
 10
30.652809
 20
2.033520999999999
 11
30.652809
 21
2.260270999999999
 72
     1
 10
30.652809
 20
2.260270999999999
 11
30.719809
 21
2.260270999999999
 72
     1
 10
30.719809
 20
2.260270999999999
 11
30.719809
 21
2.198958499999998
 72
     1
 10
30.719809
 20
2.198958499999998
 11
30.753184
 21
2.198958499999998
 72
     1
 10
30.753184
 20
2.198958499999998
 11
30.833650134
 21
2.198958499999998
 72
     1
 10
30.833650134
 20
2.198958499999998
 11
30.8247683179
 21
2.1795431162
 72
     1
 10
30.8247683179
 20
2.1795431162
 11
30.8026357616
 21
2.1577292458
 72
     1
 10
30.8026357616
 20
2.1577292458
 11
30.871559
 21
2.033520999999999
 97
        1
330
2BB
 75
     0
 76
     1
 98
        1
 10
0.0
 20
0.0
450
        0
451
        0
460
0.0
461
0.0
452
        0
462
0.0
453
        0
470

  0
LWPOLYLINE
  5
2BD
330
239
100
AcDbEntity
  8
0
  6
Continuous
 62
     2
100
AcDbPolyline
 90
       18
 70
     0
 43
0.0
 10
30.652809
 20
2.260270999999999
 10
30.652809
 20
2.314770999999999
 10
30.7543715
 20
2.314770999999999
 10
30.7849349823
 20
2.309152410999999
 10
30.811501987
 20
2.2930313299
 10
30.8305986155
 20
2.268515747599999
 10
30.8397277946
 20
2.238811318999998
 10
30.8376957941
 20
2.207802191799999
 10
30.833650134
 20
2.198958499999998
 10
30.753184
 20
2.198958499999998
 10
30.768512125
 20
2.203065658699999
 10
30.7797330913
 20
2.214286625
 10
30.78384025
 20
2.22961475
 10
30.7797330913
 20
2.244942875
 10
30.768512125
 20
2.256163841299998
 10
30.753184
 20
2.260270999999999
 10
30.719809
 20
2.260270999999999
 10
30.652809
 20
2.260270999999999
  0
HATCH
  5
2BE
330
239
100
AcDbEntity
  8
0
  6
Continuous
 62
     2
100
AcDbHatch
 10
0.0
 20
0.0
 30
0.0
210
0.0
220
0.0
230
1.0
  2
SOLID
 70
     1
 71
     1
 91
        1
 92
        1
 93
       17
 72
     1
 10
30.652809
 20
2.260270999999999
 11
30.652809
 21
2.314770999999999
 72
     1
 10
30.652809
 20
2.314770999999999
 11
30.7543715
 21
2.314770999999999
 72
     1
 10
30.7543715
 20
2.314770999999999
 11
30.7849349823
 21
2.309152410999999
 72
     1
 10
30.7849349823
 20
2.309152410999999
 11
30.811501987
 21
2.2930313299
 72
     1
 10
30.811501987
 20
2.2930313299
 11
30.8305986155
 21
2.268515747599999
 72
     1
 10
30.8305986155
 20
2.268515747599999
 11
30.8397277946
 21
2.238811318999998
 72
     1
 10
30.8397277946
 20
2.238811318999998
 11
30.8376957941
 21
2.207802191799999
 72
     1
 10
30.8376957941
 20
2.207802191799999
 11
30.833650134
 21
2.198958499999998
 72
     1
 10
30.833650134
 20
2.198958499999998
 11
30.753184
 21
2.198958499999998
 72
     1
 10
30.753184
 20
2.198958499999998
 11
30.768512125
 21
2.203065658699999
 72
     1
 10
30.768512125
 20
2.203065658699999
 11
30.7797330913
 21
2.214286625
 72
     1
 10
30.7797330913
 20
2.214286625
 11
30.78384025
 21
2.22961475
 72
     1
 10
30.78384025
 20
2.22961475
 11
30.7797330913
 21
2.244942875
 72
     1
 10
30.7797330913
 20
2.244942875
 11
30.768512125
 21
2.256163841299998
 72
     1
 10
30.768512125
 20
2.256163841299998
 11
30.753184
 21
2.260270999999999
 72
     1
 10
30.753184
 20
2.260270999999999
 11
30.719809
 21
2.260270999999999
 72
     1
 10
30.719809
 20
2.260270999999999
 11
30.652809
 21
2.260270999999999
 97
        1
330
2BD
 75
     0
 76
     1
 98
        1
 10
0.0
 20
0.0
450
        0
451
        0
460
0.0
461
0.0
452
        0
462
0.0
453
        0
470

  0
LWPOLYLINE
  5
2BF
330
239
100
AcDbEntity
  8
0
  6
Continuous
 62
     2
100
AcDbPolyline
 90
       12
 70
     0
 43
0.0
 10
29.570184
 20
2.033520999999999
 10
29.503184
 20
2.033520999999999
 10
29.503184
 20
2.314770999999999
 10
29.570184
 20
2.314770999999999
 10
29.570184
 20
2.2265233087
 10
29.6584316913
 20
2.314770999999999
 10
29.753184
 20
2.314770999999999
 10
29.628184
 20
2.189770999999999
 10
29.753184
 20
2.033520999999999
 10
29.6673821352
 20
2.033520999999999
 10
29.570184
 20
2.155018668999999
 10
29.570184
 20
2.033520999999999
  0
HATCH
  5
2C0
330
239
100
AcDbEntity
  8
0
  6
Continuous
 62
     2
100
AcDbHatch
 10
0.0
 20
0.0
 30
0.0
210
0.0
220
0.0
230
1.0
  2
SOLID
 70
     1
 71
     1
 91
        1
 92
        1
 93
       11
 72
     1
 10
29.570184
 20
2.033520999999999
 11
29.503184
 21
2.033520999999999
 72
     1
 10
29.503184
 20
2.033520999999999
 11
29.503184
 21
2.314770999999999
 72
     1
 10
29.503184
 20
2.314770999999999
 11
29.570184
 21
2.314770999999999
 72
     1
 10
29.570184
 20
2.314770999999999
 11
29.570184
 21
2.2265233087
 72
     1
 10
29.570184
 20
2.2265233087
 11
29.6584316913
 21
2.314770999999999
 72
     1
 10
29.6584316913
 20
2.314770999999999
 11
29.753184
 21
2.314770999999999
 72
     1
 10
29.753184
 20
2.314770999999999
 11
29.628184
 21
2.189770999999999
 72
     1
 10
29.628184
 20
2.189770999999999
 11
29.753184
 21
2.033520999999999
 72
     1
 10
29.753184
 20
2.033520999999999
 11
29.6673821352
 21
2.033520999999999
 72
     1
 10
29.6673821352
 20
2.033520999999999
 11
29.570184
 21
2.155018668999999
 72
     1
 10
29.570184
 20
2.155018668999999
 11
29.570184
 21
2.033520999999999
 97
        1
330
2BF
 75
     0
 76
     1
 98
        1
 10
0.0
 20
0.0
450
        0
451
        0
460
0.0
461
0.0
452
        0
462
0.0
453
        0
470

  0
LWPOLYLINE
  5
2C1
330
239
100
AcDbEntity
  8
0
  6
Continuous
 62
     2
100
AcDbPolyline
 90
       23
 70
     0
 43
0.0
 10
29.862559
 20
2.033520999999999
 10
29.8191034852
 20
2.0404036774
 10
29.7799016989
 20
2.0603779852
 10
29.7487909852
 20
2.091488698899997
 10
29.7288166774
 20
2.1306904852
 10
29.721934
 20
2.174145999999999
 10
29.7288166774
 20
2.217601514799997
 10
29.7440287706
 20
2.2474569287
 10
29.869352258
 20
2.2474569287
 10
29.8424105624
 20
2.244960413
 10
29.8181900249
 20
2.2329000184
 10
29.7999617634
 20
2.212904567999999
 10
29.7901876055
 20
2.187674558199999
 10
29.7901876055
 20
2.160617441799999
 10
29.7999617634
 20
2.135387431999999
 10
29.8181900249
 20
2.115391981599997
 10
29.8424105624
 20
2.103331587
 10
29.869352258
 20
2.1008350713
 10
29.9810892294
 20
2.1008350713
 10
29.9763270148
 20
2.091488698899997
 10
29.9452163011
 20
2.0603779852
 10
29.9060145148
 20
2.0404036774
 10
29.862559
 20
2.033520999999999
  0
HATCH
  5
2C2
330
239
100
AcDbEntity
  8
0
  6
Continuous
 62
     2
100
AcDbHatch
 10
0.0
 20
0.0
 30
0.0
210
0.0
220
0.0
230
1.0
  2
SOLID
 70
     1
 71
     1
 91
        1
 92
        1
 93
       22
 72
     1
 10
29.862559
 20
2.033520999999999
 11
29.8191034852
 21
2.0404036774
 72
     1
 10
29.8191034852
 20
2.0404036774
 11
29.7799016989
 21
2.0603779852
 72
     1
 10
29.7799016989
 20
2.0603779852
 11
29.7487909852
 21
2.091488698899997
 72
     1
 10
29.7487909852
 20
2.091488698899997
 11
29.7288166774
 21
2.1306904852
 72
     1
 10
29.7288166774
 20
2.1306904852
 11
29.721934
 21
2.174145999999999
 72
     1
 10
29.721934
 20
2.174145999999999
 11
29.7288166774
 21
2.217601514799997
 72
     1
 10
29.7288166774
 20
2.217601514799997
 11
29.7440287706
 21
2.2474569287
 72
     1
 10
29.7440287706
 20
2.2474569287
 11
29.869352258
 21
2.2474569287
 72
     1
 10
29.869352258
 20
2.2474569287
 11
29.8424105624
 21
2.244960413
 72
     1
 10
29.8424105624
 20
2.244960413
 11
29.8181900249
 21
2.2329000184
 72
     1
 10
29.8181900249
 20
2.2329000184
 11
29.7999617634
 21
2.212904567999999
 72
     1
 10
29.7999617634
 20
2.212904567999999
 11
29.7901876055
 21
2.187674558199999
 72
     1
 10
29.7901876055
 20
2.187674558199999
 11
29.7901876055
 21
2.160617441799999
 72
     1
 10
29.7901876055
 20
2.160617441799999
 11
29.7999617634
 21
2.135387431999999
 72
     1
 10
29.7999617634
 20
2.135387431999999
 11
29.8181900249
 21
2.115391981599997
 72
     1
 10
29.8181900249
 20
2.115391981599997
 11
29.8424105624
 21
2.103331587
 72
     1
 10
29.8424105624
 20
2.103331587
 11
29.869352258
 21
2.1008350713
 72
     1
 10
29.869352258
 20
2.1008350713
 11
29.9810892294
 21
2.1008350713
 72
     1
 10
29.9810892294
 20
2.1008350713
 11
29.9763270148
 21
2.091488698899997
 72
     1
 10
29.9763270148
 20
2.091488698899997
 11
29.9452163011
 21
2.0603779852
 72
     1
 10
29.9452163011
 20
2.0603779852
 11
29.9060145148
 21
2.0404036774
 72
     1
 10
29.9060145148
 20
2.0404036774
 11
29.862559
 21
2.033520999999999
 97
        1
330
2C1
 75
     0
 76
     1
 98
        1
 10
0.0
 20
0.0
450
        0
451
        0
460
0.0
461
0.0
452
        0
462
0.0
453
        0
470

  0
LWPOLYLINE
  5
2C3
330
239
100
AcDbEntity
  8
0
  6
Continuous
 62
     2
100
AcDbPolyline
 90
       22
 70
     0
 43
0.0
 10
29.7440287706
 20
2.2474569287
 10
29.7487909852
 20
2.2568033011
 10
29.7799016989
 20
2.287914014799997
 10
29.8191034852
 20
2.307888322599997
 10
29.862559
 20
2.314770999999999
 10
29.9060145148
 20
2.307888322599997
 10
29.9452163011
 20
2.287914014799997
 10
29.9763270148
 20
2.2568033011
 10
29.9963013226
 20
2.217601514799997
 10
30.003184
 20
2.174145999999999
 10
29.9963013226
 20
2.1306904852
 10
29.9810892294
 20
2.1008350713
 10
29.869352258
 20
2.1008350713
 10
29.8953764864
 20
2.1082396027
 10
29.9169685315
 20
2.1245451582
 10
29.9312122679
 20
2.147549582299999
 10
29.936184
 20
2.174145999999999
 10
29.9312122679
 20
2.200742417699999
 10
29.9169685315
 20
2.2237468418
 10
29.8953764864
 20
2.240052397299999
 10
29.869352258
 20
2.2474569287
 10
29.7440287706
 20
2.2474569287
  0
HATCH
  5
2C4
330
239
100
AcDbEntity
  8
0
  6
Continuous
 62
     2
100
AcDbHatch
 10
0.0
 20
0.0
 30
0.0
210
0.0
220
0.0
230
1.0
  2
SOLID
 70
     1
 71
     1
 91
        1
 92
        1
 93
       21
 72
     1
 10
29.7440287706
 20
2.2474569287
 11
29.7487909852
 21
2.2568033011
 72
     1
 10
29.7487909852
 20
2.2568033011
 11
29.7799016989
 21
2.287914014799997
 72
     1
 10
29.7799016989
 20
2.287914014799997
 11
29.8191034852
 21
2.307888322599997
 72
     1
 10
29.8191034852
 20
2.307888322599997
 11
29.862559
 21
2.314770999999999
 72
     1
 10
29.862559
 20
2.314770999999999
 11
29.9060145148
 21
2.307888322599997
 72
     1
 10
29.9060145148
 20
2.307888322599997
 11
29.9452163011
 21
2.287914014799997
 72
     1
 10
29.9452163011
 20
2.287914014799997
 11
29.9763270148
 21
2.2568033011
 72
     1
 10
29.9763270148
 20
2.2568033011
 11
29.9963013226
 21
2.217601514799997
 72
     1
 10
29.9963013226
 20
2.217601514799997
 11
30.003184
 21
2.174145999999999
 72
     1
 10
30.003184
 20
2.174145999999999
 11
29.9963013226
 21
2.1306904852
 72
     1
 10
29.9963013226
 20
2.1306904852
 11
29.9810892294
 21
2.1008350713
 72
     1
 10
29.9810892294
 20
2.1008350713
 11
29.869352258
 21
2.1008350713
 72
     1
 10
29.869352258
 20
2.1008350713
 11
29.8953764864
 21
2.1082396027
 72
     1
 10
29.8953764864
 20
2.1082396027
 11
29.9169685315
 21
2.1245451582
 72
     1
 10
29.9169685315
 20
2.1245451582
 11
29.9312122679
 21
2.147549582299999
 72
     1
 10
29.9312122679
 20
2.147549582299999
 11
29.936184
 21
2.174145999999999
 72
     1
 10
29.936184
 20
2.174145999999999
 11
29.9312122679
 21
2.200742417699999
 72
     1
 10
29.9312122679
 20
2.200742417699999
 11
29.9169685315
 21
2.2237468418
 72
     1
 10
29.9169685315
 20
2.2237468418
 11
29.8953764864
 21
2.240052397299999
 72
     1
 10
29.8953764864
 20
2.240052397299999
 11
29.869352258
 21
2.2474569287
 72
     1
 10
29.869352258
 20
2.2474569287
 11
29.7440287706
 21
2.2474569287
 97
        1
330
2C3
 75
     0
 76
     1
 98
        1
 10
0.0
 20
0.0
450
        0
451
        0
460
0.0
461
0.0
452
        0
462
0.0
453
        0
470

  0
LWPOLYLINE
  5
2C5
330
239
100
AcDbEntity
  8
0
  6
Continuous
 62
     2
100
AcDbPolyline
 90
       13
 70
     0
 43
0.0
 10
30.101434
 20
2.033520999999999
 10
30.034434
 20
2.033520999999999
 10
30.034434
 20
2.314770999999999
 10
30.101434
 20
2.314770999999999
 10
30.101434
 20
2.223270999999999
 10
30.179559
 20
2.223270999999999
 10
30.179559
 20
2.314770999999999
 10
30.246559
 20
2.314770999999999
 10
30.246559
 20
2.033520999999999
 10
30.179559
 20
2.033520999999999
 10
30.179559
 20
2.156270999999998
 10
30.101434
 20
2.156270999999998
 10
30.101434
 20
2.033520999999999
  0
HATCH
  5
2C6
330
239
100
AcDbEntity
  8
0
  6
Continuous
 62
     2
100
AcDbHatch
 10
0.0
 20
0.0
 30
0.0
210
0.0
220
0.0
230
1.0
  2
SOLID
 70
     1
 71
     1
 91
        1
 92
        1
 93
       12
 72
     1
 10
30.101434
 20
2.033520999999999
 11
30.034434
 21
2.033520999999999
 72
     1
 10
30.034434
 20
2.033520999999999
 11
30.034434
 21
2.314770999999999
 72
     1
 10
30.034434
 20
2.314770999999999
 11
30.101434
 21
2.314770999999999
 72
     1
 10
30.101434
 20
2.314770999999999
 11
30.101434
 21
2.223270999999999
 72
     1
 10
30.101434
 20
2.223270999999999
 11
30.179559
 21
2.223270999999999
 72
     1
 10
30.179559
 20
2.223270999999999
 11
30.179559
 21
2.314770999999999
 72
     1
 10
30.179559
 20
2.314770999999999
 11
30.246559
 21
2.314770999999999
 72
     1
 10
30.246559
 20
2.314770999999999
 11
30.246559
 21
2.033520999999999
 72
     1
 10
30.246559
 20
2.033520999999999
 11
30.179559
 21
2.033520999999999
 72
     1
 10
30.179559
 20
2.033520999999999
 11
30.179559
 21
2.156270999999998
 72
     1
 10
30.179559
 20
2.156270999999998
 11
30.101434
 21
2.156270999999998
 72
     1
 10
30.101434
 20
2.156270999999998
 11
30.101434
 21
2.033520999999999
 97
        1
330
2C5
 75
     0
 76
     1
 98
        1
 10
0.0
 20
0.0
450
        0
451
        0
460
0.0
461
0.0
452
        0
462
0.0
453
        0
470

  0
LWPOLYLINE
  5
2C7
330
239
100
AcDbEntity
  8
0
  6
Continuous
 62
     2
100
AcDbPolyline
 90
        7
 70
     0
 43
0.0
 10
30.434059
 20
2.033520999999999
 10
30.277809
 20
2.033520999999999
 10
30.277809
 20
2.314770999999999
 10
30.344809
 20
2.314770999999999
 10
30.344809
 20
2.100521
 10
30.434059
 20
2.100521
 10
30.434059
 20
2.033520999999999
  0
HATCH
  5
2C8
330
239
100
AcDbEntity
  8
0
  6
Continuous
 62
     2
100
AcDbHatch
 10
0.0
 20
0.0
 30
0.0
210
0.0
220
0.0
230
1.0
  2
SOLID
 70
     1
 71
     1
 91
        1
 92
        1
 93
        6
 72
     1
 10
30.434059
 20
2.033520999999999
 11
30.277809
 21
2.033520999999999
 72
     1
 10
30.277809
 20
2.033520999999999
 11
30.277809
 21
2.314770999999999
 72
     1
 10
30.277809
 20
2.314770999999999
 11
30.344809
 21
2.314770999999999
 72
     1
 10
30.344809
 20
2.314770999999999
 11
30.344809
 21
2.100521
 72
     1
 10
30.344809
 20
2.100521
 11
30.434059
 21
2.100521
 72
     1
 10
30.434059
 20
2.100521
 11
30.434059
 21
2.033520999999999
 97
        1
330
2C7
 75
     0
 76
     1
 98
        1
 10
0.0
 20
0.0
450
        0
451
        0
460
0.0
461
0.0
452
        0
462
0.0
453
        0
470

  0
LWPOLYLINE
  5
2C9
330
239
100
AcDbEntity
  8
0
  6
Continuous
 62
     2
100
AcDbPolyline
 90
       13
 70
     0
 43
0.0
 10
30.621559
 20
2.033520999999999
 10
30.465309
 20
2.033520999999999
 10
30.465309
 20
2.314770999999999
 10
30.621559
 20
2.314770999999999
 10
30.621559
 20
2.247770999999999
 10
30.532309
 20
2.247770999999999
 10
30.532309
 20
2.199833499999999
 10
30.621559
 20
2.199833499999999
 10
30.621559
 20
2.148458499999998
 10
30.532309
 20
2.148458499999998
 10
30.532309
 20
2.100521
 10
30.621559
 20
2.100521
 10
30.621559
 20
2.033520999999999
  0
HATCH
  5
2CA
330
239
100
AcDbEntity
  8
0
  6
Continuous
 62
     2
100
AcDbHatch
 10
0.0
 20
0.0
 30
0.0
210
0.0
220
0.0
230
1.0
  2
SOLID
 70
     1
 71
     1
 91
        1
 92
        1
 93
       12
 72
     1
 10
30.621559
 20
2.033520999999999
 11
30.465309
 21
2.033520999999999
 72
     1
 10
30.465309
 20
2.033520999999999
 11
30.465309
 21
2.314770999999999
 72
     1
 10
30.465309
 20
2.314770999999999
 11
30.621559
 21
2.314770999999999
 72
     1
 10
30.621559
 20
2.314770999999999
 11
30.621559
 21
2.247770999999999
 72
     1
 10
30.621559
 20
2.247770999999999
 11
30.532309
 21
2.247770999999999
 72
     1
 10
30.532309
 20
2.247770999999999
 11
30.532309
 21
2.199833499999999
 72
     1
 10
30.532309
 20
2.199833499999999
 11
30.621559
 21
2.199833499999999
 72
     1
 10
30.621559
 20
2.199833499999999
 11
30.621559
 21
2.148458499999998
 72
     1
 10
30.621559
 20
2.148458499999998
 11
30.532309
 21
2.148458499999998
 72
     1
 10
30.532309
 20
2.148458499999998
 11
30.532309
 21
2.100521
 72
     1
 10
30.532309
 20
2.100521
 11
30.621559
 21
2.100521
 72
     1
 10
30.621559
 20
2.100521
 11
30.621559
 21
2.033520999999999
 97
        1
330
2C9
 75
     0
 76
     1
 98
        1
 10
0.0
 20
0.0
450
        0
451
        0
460
0.0
461
0.0
452
        0
462
0.0
453
        0
470

  0
ENDBLK
  5
2CB
330
239
100
AcDbEntity
  8
0
  6
ByBlock
 62
     0
100
AcDbBlockEnd
  0
BLOCK
  5
FC6
330
FC4
100
AcDbEntity
  8
0
100
AcDbBlockBegin
  2
GENAXEH
 70
     0
 10
0.0
 20
0.0
 30
0.0
  3
GENAXEH
  1

  0
LINE
  5
FC5
330
FC4
100
AcDbEntity
  8
0
100
AcDbLine
 10
-1.0
 20
0.0
 30
0.0
 11
1.0
 21
0.0
 31
0.0
  0
ENDBLK
  5
FC7
330
FC4
100
AcDbEntity
  8
0
100
AcDbBlockEnd
  0
ENDSEC
  0
SECTION
  2
ENTITIES
  0
LINE
  5
95D
330
21D
100
AcDbEntity
  8
CURVE1
  6
Continuous
 62
     7
100
AcDbLine
 10
5.693245527899999
 20
7.0976531496
 30
0.0
 11
5.693245527899999
 21
6.910645275599999
 31
0.0
  0
LWPOLYLINE
  5
95E
330
21D
100
AcDbEntity
  8
0
  6
Continuous
 62
     7
100
AcDbPolyline
 90
       82
 70
     0
 43
0.0
 10
6.6118470649
 20
2.2149340934
 10
6.6124288435
 20
2.206155169499997
 10
6.6131696553
 20
2.197382634199998
 10
6.6140691361
 20
2.188619248
 10
6.615126985199997
 20
2.1798672737
 10
6.6163427857
 20
2.1711300034
 10
6.6177159132
 20
2.1624117462
 10
6.619245907999999
 20
2.153715314599998
 10
6.620932316599997
 20
2.1450434805
 10
6.6227743622
 20
2.1364004769
 10
6.624771503099999
 20
2.1277891156
 10
6.626923204899996
 20
2.1192121766
 10
6.629228548899997
 20
2.110673819
 10
6.6316869258
 20
2.1021768161
 10
6.6342977182
 20
2.093723970999997
 10
6.6370598461
 20
2.0853194499
 10
6.6399725544
 20
2.076966205099997
 10
6.6430352137
 20
2.068666817099999
 10
6.646246815099997
 20
2.0604248536
 10
6.6496063073
 20
2.0522438206
 10
6.6531132508
 20
2.044125694899999
 10
6.6567674723
 20
2.036071714799998
 10
6.6605674899
 20
2.028084533699999
 10
6.6645117971
 20
2.020166336499999
 10
6.668599852999999
 20
2.0123175261
 10
6.672830318599999
 20
2.004540272799999
 10
6.677201565999999
 20
1.996837289099999
 10
6.6817127872
 20
1.9892098858
 10
6.6863631257
 20
1.9816596293
 10
6.6911505969
 20
1.9741899543
 10
6.696072667899999
 20
1.966804964199998
 10
6.7011279434
 20
1.9595069102
 10
6.706314755
 20
1.952298445999998
 10
6.711629951699999
 20
1.945184144599997
 10
6.717071663699997
 20
1.938166649499999
 10
6.7226384423
 20
1.9312480508
 10
6.7283275848
 20
1.924431951899999
 10
6.734136605199997
 20
1.917721534
 10
6.7400645227
 20
1.911118206299999
 10
6.746110903099999
 20
1.9046229221
 10
6.752273939199999
 20
1.898238223199999
 10
6.7585521258
 20
1.891966269499999
 10
6.764945256199998
 20
1.885807210099999
 10
6.7714512708
 20
1.879762565399999
 10
6.778067647799997
 20
1.873834279499997
 10
6.7847933434
 20
1.868023012499999
 10
6.791627008999997
 20
1.8623298265
 10
6.798565513999997
 20
1.856757294699999
 10
6.805605129699999
 20
1.8513083397
 10
6.812743746599997
 20
1.845984534999999
 10
6.819978819099997
 20
1.8407877852
 10
6.827305812499997
 20
1.8357213212
 10
6.834722051199999
 20
1.830786933
 10
6.842225369299999
 20
1.8259860658
 10
6.849811863099999
 20
1.8213212368
 10
6.857478170499999
 20
1.816794506399999
 10
6.8652227133
 20
1.8124068596
 10
6.8730442564
 20
1.8081591828
 10
6.880940189099997
 20
1.804053172799999
 10
6.8889082882
 20
1.8000903203
 10
6.896947987699999
 20
1.796271364199998
 10
6.9050571525
 20
1.792597888
 10
6.913233016499997
 20
1.7890713146
 10
6.9214739923
 20
1.785691963799999
 10
6.9297781095
 20
1.782460353199998
 10
6.938141822999999
 20
1.779377629399998
 10
6.9465611635
 20
1.776445017599999
 10
6.955033498699997
 20
1.773663221899998
 10
6.963555867899999
 20
1.771033057499999
 10
6.9721237539
 20
1.7685557615
 10
6.980734312999999
 20
1.7662320037
 10
6.9893847345
 20
1.764062444999999
 10
6.9980705008
 20
1.762048127199999
 10
7.006788789899996
 20
1.7601896198
 10
7.0155367419
 20
1.7584875008
 10
7.0243097485
 20
1.756942638099999
 10
7.0331049907
 20
1.755555503199999
 10
7.041919606499997
 20
1.754326574199998
 10
7.050748902
 20
1.753256531699999
 10
7.0595894234
 20
1.752345803199998
 10
7.068438972
 20
1.751594674099998
 10
7.0712628732
 20
1.751388738
  0
LINE
  5
95F
330
21D
100
AcDbEntity
  8
0
  6
Continuous
 62
     7
100
AcDbLine
 10
6.3814671519
 20
6.598593650999996
 30
0.0
 11
6.6118470649
 21
2.2149340934
 31
0.0
  0
LINE
  5
960
330
21D
100
AcDbEntity
  8
0
  6
Continuous
 62
     7
100
AcDbLine
 10
7.1872640699
 20
1.703976127199999
 30
0.0
 11
7.194538847799996
 21
1.699083953799999
 31
0.0
  0
LINE
  5
961
330
21D
100
AcDbEntity
  8
0
  6
Continuous
 62
     7
100
AcDbLine
 10
7.194538847799996
 20
1.699083953799999
 30
0.0
 11
7.208312767999999
 21
1.6896857353
 31
0.0
  0
LWPOLYLINE
  5
962
330
21D
100
AcDbEntity
  8
0
  6
Continuous
 62
     7
100
AcDbPolyline
 90
       16
 70
     0
 43
0.0
 10
7.2083127132
 20
1.689685868
 10
7.210183736
 20
1.6883886077
 10
7.213114900099999
 20
1.6862853175
 10
7.2160064233
 20
1.6841223143
 10
7.218857086099996
 20
1.6819002675
 10
7.221665586699999
 20
1.6796199458
 10
7.2244305507
 20
1.6772822241
 10
7.227150739899999
 20
1.6748879125
 10
7.2298249697
 20
1.672437812899999
 10
7.232451981
 20
1.669932836599999
 10
7.235030592899999
 20
1.667373867299998
 10
7.237559661099996
 20
1.664761793499998
 10
7.2400380122
 20
1.662097576899999
 10
7.2424645152
 20
1.659382180299999
 10
7.2448380795
 20
1.656616565699998
 10
7.2459344997
 20
1.6553003386
  0
LINE
  5
963
330
21D
100
AcDbEntity
  8
0
  6
Continuous
 62
     7
100
AcDbLine
 10
7.2459344997
 20
1.6553003386
 30
0.0
 11
7.246394877799997
 21
1.654740077599998
 31
0.0
  0
LINE
  5
964
330
21D
100
AcDbEntity
  8
0
  6
Continuous
 62
     7
100
AcDbLine
 10
7.0797255008
 20
2.2978195481
 30
0.0
 11
7.079814707899999
 21
2.262545435099998
 31
0.0
  0
LINE
  5
965
330
21D
100
AcDbEntity
  8
0
  6
Continuous
 62
     7
100
AcDbLine
 10
7.069989690099999
 20
6.5362753683
 30
0.0
 11
7.069883635399999
 21
6.5908729553
 31
0.0
  0
LINE
  5
966
330
21D
100
AcDbEntity
  8
0
  6
Continuous
 62
     7
100
AcDbLine
 10
7.1668712319
 20
2.2615165733
 30
0.0
 11
7.164090761
 21
1.795300081699997
 31
0.0
  0
LINE
  5
967
330
21D
100
AcDbEntity
  8
0
  6
Continuous
 62
     7
100
AcDbLine
 10
7.523954189299999
 20
1.7500302299
 30
0.0
 11
7.523954189299999
 21
1.6922267877
 31
0.0
  0
LINE
  5
968
330
21D
100
AcDbEntity
  8
0
  6
Continuous
 62
     7
100
AcDbLine
 10
7.500667334
 20
1.795642633099999
 30
0.0
 11
7.500662888799999
 21
1.7491955388
 31
0.0
  0
LINE
  5
969
330
21D
100
AcDbEntity
  8
0
  6
Continuous
 62
     7
100
AcDbLine
 10
15.2177515712
 20
2.028650327599998
 30
0.0
 11
15.2207366014
 21
2.029490471499999
 31
0.0
  0
LINE
  5
96A
330
21D
100
AcDbEntity
  8
0
  6
Continuous
 62
     7
100
AcDbLine
 10
15.2147457314
 20
2.0278244918
 30
0.0
 11
15.2177515712
 21
2.028650327599998
 31
0.0
  0
LINE
  5
96B
330
21D
100
AcDbEntity
  8
0
  6
Continuous
 62
     7
100
AcDbLine
 10
15.2117189549
 20
2.027013239399999
 30
0.0
 11
15.2147457314
 21
2.0278244918
 31
0.0
  0
LINE
  5
96C
330
21D
100
AcDbEntity
  8
0
  6
Continuous
 62
     7
100
AcDbLine
 10
15.2086711166
 20
2.026216852299997
 30
0.0
 11
15.2117189549
 21
2.027013239399999
 31
0.0
  0
LINE
  5
96D
330
21D
100
AcDbEntity
  8
0
  6
Continuous
 62
     7
100
AcDbLine
 10
15.2056020937
 20
2.0254356193
 30
0.0
 11
15.2086711166
 21
2.026216852299997
 31
0.0
  0
LINE
  5
96E
330
21D
100
AcDbEntity
  8
0
  6
Continuous
 62
     7
100
AcDbLine
 10
15.2025117658
 20
2.0246698357
 30
0.0
 11
15.2056020937
 21
2.0254356193
 31
0.0
  0
LWPOLYLINE
  5
96F
330
21D
100
AcDbEntity
  8
0
  6
Continuous
 62
     7
100
AcDbPolyline
 90
        3
 70
     0
 43
0.0
 10
15.1983579885
 20
2.023673347499999
 10
15.1994000152
 20
2.0239198036
 10
15.2025117658
 20
2.0246698357
  0
LINE
  5
970
330
21D
100
AcDbEntity
  8
0
  6
Continuous
 62
     7
100
AcDbLine
 10
15.1952174954
 20
2.022944799699998
 30
0.0
 11
15.1983579885
 21
2.023673347499999
 31
0.0
  0
LINE
  5
971
330
21D
100
AcDbEntity
  8
0
  6
Continuous
 62
     7
100
AcDbLine
 10
15.1920553151
 20
2.0222327358
 30
0.0
 11
15.1952174954
 21
2.022944799699998
 31
0.0
  0
LINE
  5
972
330
21D
100
AcDbEntity
  8
0
  6
Continuous
 62
     7
100
AcDbLine
 10
15.1888713388
 20
2.0215374815
 30
0.0
 11
15.1920553151
 21
2.0222327358
 31
0.0
  0
LINE
  5
973
330
21D
100
AcDbEntity
  8
0
  6
Continuous
 62
     7
100
AcDbLine
 10
15.1867365228
 20
2.0210834805
 30
0.0
 11
15.1888713388
 21
2.0215374815
 31
0.0
  0
LINE
  5
974
330
21D
100
AcDbEntity
  8
0
  6
Continuous
 62
     7
100
AcDbLine
 10
15.184591948
 20
2.020637199999999
 30
0.0
 11
15.1867365228
 21
2.0210834805
 31
0.0
  0
LINE
  5
975
330
21D
100
AcDbEntity
  8
0
  6
Continuous
 62
     7
100
AcDbLine
 10
15.1824375756
 20
2.0201987398
 30
0.0
 11
15.184591948
 21
2.020637199999999
 31
0.0
  0
LINE
  5
976
330
21D
100
AcDbEntity
  8
0
  6
Continuous
 62
     7
100
AcDbLine
 10
15.1802733658
 20
2.019768201399998
 30
0.0
 11
15.1824375756
 21
2.0201987398
 31
0.0
  0
LINE
  5
977
330
21D
100
AcDbEntity
  8
0
  6
Continuous
 62
     7
100
AcDbLine
 10
15.1780993015
 20
2.019345692099999
 30
0.0
 11
15.1802733658
 21
2.019768201399998
 31
0.0
  0
LINE
  5
978
330
21D
100
AcDbEntity
  8
0
  6
Continuous
 62
     7
100
AcDbLine
 10
15.1759153494
 20
2.0189313171
 30
0.0
 11
15.1780993015
 21
2.019345692099999
 31
0.0
  0
LINE
  5
979
330
21D
100
AcDbEntity
  8
0
  6
Continuous
 62
     7
100
AcDbLine
 10
15.1737214765
 20
2.018525183499999
 30
0.0
 11
15.1759153494
 21
2.0189313171
 31
0.0
  0
LINE
  5
97A
330
21D
100
AcDbEntity
  8
0
  6
Continuous
 62
     7
100
AcDbLine
 10
15.1715176693
 20
2.018127402899998
 30
0.0
 11
15.1737214765
 21
2.018525183499999
 31
0.0
  0
LINE
  5
97B
330
21D
100
AcDbEntity
  8
0
  6
Continuous
 62
     7
100
AcDbLine
 10
15.1693038963
 20
2.0177380855
 30
0.0
 11
15.1715176693
 21
2.018127402899998
 31
0.0
  0
LINE
  5
97C
330
21D
100
AcDbEntity
  8
0
  6
Continuous
 62
     7
100
AcDbLine
 10
15.1670801265
 20
2.0173573427
 30
0.0
 11
15.1693038963
 21
2.0177380855
 31
0.0
  0
LINE
  5
97D
330
21D
100
AcDbEntity
  8
0
  6
Continuous
 62
     7
100
AcDbLine
 10
15.164846349
 20
2.0169852909
 30
0.0
 11
15.1670801265
 21
2.0173573427
 31
0.0
  0
LINE
  5
97E
330
21D
100
AcDbEntity
  8
0
  6
Continuous
 62
     7
100
AcDbLine
 10
15.1626025344
 20
2.0166220447
 30
0.0
 11
15.164846349
 21
2.0169852909
 31
0.0
  0
LINE
  5
97F
330
21D
100
AcDbEntity
  8
0
  6
Continuous
 62
     7
100
AcDbLine
 10
15.1603486543
 20
2.0162677205
 30
0.0
 11
15.1626025344
 21
2.0166220447
 31
0.0
  0
LINE
  5
980
330
21D
100
AcDbEntity
  8
0
  6
Continuous
 62
     7
100
AcDbLine
 10
15.1580847001
 20
2.015922439199997
 30
0.0
 11
15.1603486543
 21
2.0162677205
 31
0.0
  0
LINE
  5
981
330
21D
100
AcDbEntity
  8
0
  6
Continuous
 62
     7
100
AcDbLine
 10
15.1558106451
 20
2.015586320399997
 30
0.0
 11
15.1580847001
 21
2.015922439199997
 31
0.0
  0
LINE
  5
982
330
21D
100
AcDbEntity
  8
0
  6
Continuous
 62
     7
100
AcDbLine
 10
15.1535264633
 20
2.0152594853
 30
0.0
 11
15.1558106451
 21
2.015586320399997
 31
0.0
  0
LINE
  5
983
330
21D
100
AcDbEntity
  8
0
  6
Continuous
 62
     7
100
AcDbLine
 10
15.1512321488
 20
2.0149420595
 30
0.0
 11
15.1535264633
 21
2.0152594853
 31
0.0
  0
LINE
  5
984
330
21D
100
AcDbEntity
  8
0
  6
Continuous
 62
     7
100
AcDbLine
 10
15.1489276776
 20
2.0146341675
 30
0.0
 11
15.1512321488
 21
2.0149420595
 31
0.0
  0
LINE
  5
985
330
21D
100
AcDbEntity
  8
0
  6
Continuous
 62
     7
100
AcDbLine
 10
15.1466130264
 20
2.0143359356
 30
0.0
 11
15.1489276776
 21
2.0146341675
 31
0.0
  0
LINE
  5
986
330
21D
100
AcDbEntity
  8
0
  6
Continuous
 62
     7
100
AcDbLine
 10
15.1442881922
 20
2.0140474943
 30
0.0
 11
15.1466130264
 21
2.0143359356
 31
0.0
  0
LINE
  5
987
330
21D
100
AcDbEntity
  8
0
  6
Continuous
 62
     7
100
AcDbLine
 10
15.1419531537
 20
2.013768973099999
 30
0.0
 11
15.1442881922
 21
2.0140474943
 31
0.0
  0
LINE
  5
988
330
21D
100
AcDbEntity
  8
0
  6
Continuous
 62
     7
100
AcDbLine
 10
15.1396078908
 20
2.013500503599999
 30
0.0
 11
15.1419531537
 21
2.013768973099999
 31
0.0
  0
LINE
  5
989
330
21D
100
AcDbEntity
  8
0
  6
Continuous
 62
     7
100
AcDbLine
 10
15.1372524032
 20
2.013242221
 30
0.0
 11
15.1396078908
 21
2.013500503599999
 31
0.0
  0
LWPOLYLINE
  5
98A
330
21D
100
AcDbEntity
  8
0
  6
Continuous
 62
     7
100
AcDbPolyline
 90
        3
 70
     0
 43
0.0
 10
15.1336999602
 20
2.0128741933
 10
15.134886673
 20
2.012994260399997
 10
15.1372524032
 20
2.013242221
  0
LINE
  5
98B
330
21D
100
AcDbEntity
  8
0
  6
Continuous
 62
     7
100
AcDbLine
 10
7.0787661858
 20
1.7508752958
 30
0.0
 11
7.081171032
 21
1.7508006058
 31
0.0
  0
LINE
  5
98C
330
21D
100
AcDbEntity
  8
0
  6
Continuous
 62
     7
100
AcDbLine
 10
7.071262855099997
 20
1.7513884791
 30
0.0
 11
7.0788824633
 21
1.7508674706
 31
0.0
  0
LINE
  5
98D
330
21D
100
AcDbEntity
  8
0
  6
Continuous
 62
     7
100
AcDbLine
 10
7.0788824633
 20
1.7508674706
 30
0.0
 11
7.0813702084
 21
1.7506697947
 31
0.0
  0
LWPOLYLINE
  5
98E
330
21D
100
AcDbEntity
  8
0
  6
Continuous
 62
     7
100
AcDbPolyline
 90
       33
 70
     0
 43
0.0
 10
7.0813702084
 20
1.7506697947
 10
7.084331688499996
 20
1.750360206399999
 10
7.0873296721
 20
1.749966414499998
 10
7.0903631058
 20
1.749487639799998
 10
7.0934302226
 20
1.7489234572
 10
7.096528550599999
 20
1.7482738887
 10
7.0996566425
 20
1.7475390656
 10
7.1028126532
 20
1.746719489
 10
7.1059933611
 20
1.7458164265
 10
7.1091955422
 20
1.7448316724
 10
7.112418288599996
 20
1.7437666612
 10
7.1156615745
 20
1.742622719
 10
7.1189216898
 20
1.741402737299998
 10
7.122197418499996
 20
1.740109064099998
 10
7.125492080199999
 20
1.738742372899999
 10
7.128802875899999
 20
1.7373056702
 10
7.132127883899999
 20
1.7358016811
 10
7.135471398299999
 20
1.7342305309
 10
7.138833514799999
 20
1.732594420399999
 10
7.1422088295
 20
1.730898687299998
 10
7.1455930991
 20
1.7291487136
 10
7.1489929052
 20
1.7273426174
 10
7.1524077919
 20
1.7254793768
 10
7.1558251634
 20
1.723565113899999
 10
7.1592492294
 20
1.7215981255
 10
7.162687768999997
 20
1.7195755555
 10
7.166134237
 20
1.717503275399999
 10
7.1695962653
 20
1.7153787236
 10
7.173081375199997
 20
1.7131992518
 10
7.1765839533
 20
1.7109707403
 10
7.180112777499997
 20
1.7086903224
 10
7.183675651499997
 20
1.706355784
 10
7.1872640699
 20
1.703976127199999
  0
LINE
  5
98F
330
21D
100
AcDbEntity
  8
0
  6
Continuous
 62
     7
100
AcDbLine
 10
15.131318846
 20
2.0126419735
 30
0.0
 11
15.1336999602
 21
2.0128741933
 31
0.0
  0
LINE
  5
990
330
21D
100
AcDbEntity
  8
0
  6
Continuous
 62
     7
100
AcDbLine
 10
7.993130351699999
 20
1.7627469594
 30
0.0
 11
7.9936999461
 21
1.762800121999998
 31
0.0
  0
LINE
  5
991
330
21D
100
AcDbEntity
  8
0
  6
Continuous
 62
     7
100
AcDbLine
 10
15.128927458
 20
2.012420421799999
 30
0.0
 11
15.131318846
 21
2.0126419735
 31
0.0
  0
LINE
  5
992
330
21D
100
AcDbEntity
  8
0
  6
Continuous
 62
     7
100
AcDbLine
 10
7.9936999461
 20
1.762800121999998
 30
0.0
 11
7.9942625198
 21
1.7628500933
 31
0.0
  0
LINE
  5
993
330
21D
100
AcDbEntity
  8
0
  6
Continuous
 62
     7
100
AcDbLine
 10
15.1265258007
 20
2.0122096811
 30
0.0
 11
15.128927458
 21
2.012420421799999
 31
0.0
  0
LINE
  5
994
330
21D
100
AcDbEntity
  8
0
  6
Continuous
 62
     7
100
AcDbLine
 10
7.9942625198
 20
1.7628500933
 30
0.0
 11
7.994817144799996
 21
1.7628968693
 31
0.0
  0
LINE
  5
995
330
21D
100
AcDbEntity
  8
0
  6
Continuous
 62
     7
100
AcDbLine
 10
15.1241138612
 20
2.012009894499998
 30
0.0
 11
15.1265258007
 21
2.0122096811
 31
0.0
  0
LINE
  5
996
330
21D
100
AcDbEntity
  8
0
  6
Continuous
 62
     7
100
AcDbLine
 10
7.994817144799996
 20
1.7628968693
 30
0.0
 11
7.9953632345
 21
1.7629404891
 31
0.0
  0
LINE
  5
997
330
21D
100
AcDbEntity
  8
0
  6
Continuous
 62
     7
100
AcDbLine
 10
15.1216916273
 20
2.0118212068
 30
0.0
 11
15.1241138612
 21
2.012009894499998
 31
0.0
  0
LINE
  5
998
330
21D
100
AcDbEntity
  8
0
  6
Continuous
 62
     7
100
AcDbLine
 10
7.9953632345
 20
1.7629404891
 30
0.0
 11
7.9958999045
 21
1.7629809806
 31
0.0
  0
LINE
  5
999
330
21D
100
AcDbEntity
  8
0
  6
Continuous
 62
     7
100
AcDbLine
 10
15.1192591073
 20
2.011643766399997
 30
0.0
 11
15.1216916273
 21
2.0118212068
 31
0.0
  0
LINE
  5
99A
330
21D
100
AcDbEntity
  8
0
  6
Continuous
 62
     7
100
AcDbLine
 10
7.9958999045
 20
1.7629809806
 30
0.0
 11
7.996685471
 21
1.7630359609
 31
0.0
  0
LINE
  5
99B
330
21D
100
AcDbEntity
  8
0
  6
Continuous
 62
     7
100
AcDbLine
 10
15.1168162915
 20
2.011477721799999
 30
0.0
 11
15.1192591073
 21
2.011643766399997
 31
0.0
  0
LINE
  5
99C
330
21D
100
AcDbEntity
  8
0
  6
Continuous
 62
     7
100
AcDbLine
 10
15.1143631716
 20
2.011323223499998
 30
0.0
 11
15.1168162915
 21
2.011477721799999
 31
0.0
  0
LINE
  5
99D
330
21D
100
AcDbEntity
  8
0
  6
Continuous
 62
     7
100
AcDbLine
 10
7.996685471
 20
1.7630359609
 30
0.0
 11
7.9974453674
 21
1.763084238499998
 31
0.0
  0
LINE
  5
99E
330
21D
100
AcDbEntity
  8
0
  6
Continuous
 62
     7
100
AcDbLine
 10
15.1118997596
 20
2.0111804253
 30
0.0
 11
15.1143631716
 21
2.011323223499998
 31
0.0
  0
LINE
  5
99F
330
21D
100
AcDbEntity
  8
0
  6
Continuous
 62
     7
100
AcDbLine
 10
7.9974453674
 20
1.763084238499998
 30
0.0
 11
7.9981778071
 21
1.763126148
 31
0.0
  0
LINE
  5
9A0
330
21D
100
AcDbEntity
  8
0
  6
Continuous
 62
     7
100
AcDbLine
 10
15.1094260496
 20
2.0110494815
 30
0.0
 11
15.1118997596
 21
2.0111804253
 31
0.0
  0
LINE
  5
9A1
330
21D
100
AcDbEntity
  8
0
  6
Continuous
 62
     7
100
AcDbLine
 10
7.9981778071
 20
1.763126148
 30
0.0
 11
7.998882255399999
 21
1.763162121699999
 31
0.0
  0
LINE
  5
9A2
330
21D
100
AcDbEntity
  8
0
  6
Continuous
 62
     7
100
AcDbLine
 10
15.1069420371
 20
2.0109305484
 30
0.0
 11
15.1094260496
 21
2.0110494815
 31
0.0
  0
LINE
  5
9A3
330
21D
100
AcDbEntity
  8
0
  6
Continuous
 62
     7
100
AcDbLine
 10
7.998882255399999
 20
1.763162121699999
 30
0.0
 11
7.999559163499996
 21
1.7631926376
 31
0.0
  0
LINE
  5
9A4
330
21D
100
AcDbEntity
  8
0
  6
Continuous
 62
     7
100
AcDbLine
 10
15.1044477379
 20
2.010823785199999
 30
0.0
 11
15.1069420371
 21
2.0109305484
 31
0.0
  0
LINE
  5
9A5
330
21D
100
AcDbEntity
  8
0
  6
Continuous
 62
     7
100
AcDbLine
 10
7.999559163499996
 20
1.7631926376
 30
0.0
 11
8.0002107633
 21
1.7632182186
 31
0.0
  0
LINE
  5
9A6
330
21D
100
AcDbEntity
  8
0
  6
Continuous
 62
     7
100
AcDbLine
 10
15.1017977865
 20
2.010724264199998
 30
0.0
 11
15.1044477379
 21
2.010823785199999
 31
0.0
  0
LINE
  5
9A7
330
21D
100
AcDbEntity
  8
0
  6
Continuous
 62
     7
100
AcDbLine
 10
8.0002107633
 20
1.7632182186
 30
0.0
 11
15.1017977865
 21
2.010724264199998
 31
0.0
  0
LINE
  5
9A8
330
21D
100
AcDbEntity
  8
0
  6
Continuous
 62
     7
100
AcDbLine
 10
7.246395134199999
 20
1.654739763799998
 30
0.0
 11
7.8015132444
 21
1.654739763799998
 31
0.0
  0
LINE
  5
9A9
330
21D
100
AcDbEntity
  8
0
  6
Continuous
 62
     7
100
AcDbLine
 10
7.9761141057
 20
1.760069551299999
 30
0.0
 11
7.977209938999997
 21
1.760300609099999
 31
0.0
  0
LINE
  5
9AA
330
21D
100
AcDbEntity
  8
0
  6
Continuous
 62
     7
100
AcDbLine
 10
7.977209938999997
 20
1.760300609099999
 30
0.0
 11
7.977933435999996
 21
1.7604490424
 31
0.0
  0
LINE
  5
9AB
330
21D
100
AcDbEntity
  8
0
  6
Continuous
 62
     7
100
AcDbLine
 10
7.977933435999996
 20
1.7604490424
 30
0.0
 11
7.9786511482
 21
1.760593016899998
 31
0.0
  0
LINE
  5
9AC
330
21D
100
AcDbEntity
  8
0
  6
Continuous
 62
     7
100
AcDbLine
 10
7.9786511482
 20
1.760593016899998
 30
0.0
 11
7.9793629921
 21
1.7607325636
 31
0.0
  0
LINE
  5
9AD
330
21D
100
AcDbEntity
  8
0
  6
Continuous
 62
     7
100
AcDbLine
 10
7.9793629921
 20
1.7607325636
 30
0.0
 11
7.9800688508
 21
1.7608677096
 31
0.0
  0
LINE
  5
9AE
330
21D
100
AcDbEntity
  8
0
  6
Continuous
 62
     7
100
AcDbLine
 10
7.9800688508
 20
1.7608677096
 30
0.0
 11
7.980768606499997
 21
1.760998484
 31
0.0
  0
LINE
  5
9AF
330
21D
100
AcDbEntity
  8
0
  6
Continuous
 62
     7
100
AcDbLine
 10
7.980768606499997
 20
1.760998484
 30
0.0
 11
7.981462176299999
 21
1.761124924799998
 31
0.0
  0
LINE
  5
9B0
330
21D
100
AcDbEntity
  8
0
  6
Continuous
 62
     7
100
AcDbLine
 10
7.981462176299999
 20
1.761124924799998
 30
0.0
 11
7.982149443099999
 21
1.7612470659
 31
0.0
  0
LINE
  5
9B1
330
21D
100
AcDbEntity
  8
0
  6
Continuous
 62
     7
100
AcDbLine
 10
7.982149443099999
 20
1.7612470659
 30
0.0
 11
7.982830287799997
 21
1.7613649433
 31
0.0
  0
LINE
  5
9B2
330
21D
100
AcDbEntity
  8
0
  6
Continuous
 62
     7
100
AcDbLine
 10
7.982830287799997
 20
1.7613649433
 30
0.0
 11
7.983504631199997
 21
1.761478602499999
 31
0.0
  0
LINE
  5
9B3
330
21D
100
AcDbEntity
  8
0
  6
Continuous
 62
     7
100
AcDbLine
 10
7.983504631199997
 20
1.761478602499999
 30
0.0
 11
7.9841723433
 21
1.7615880822
 31
0.0
  0
LINE
  5
9B4
330
21D
100
AcDbEntity
  8
0
  6
Continuous
 62
     7
100
AcDbLine
 10
7.9841723433
 20
1.7615880822
 30
0.0
 11
7.9848334223
 21
1.761693444199998
 31
0.0
  0
LINE
  5
9B5
330
21D
100
AcDbEntity
  8
0
  6
Continuous
 62
     7
100
AcDbLine
 10
7.9848334223
 20
1.761693444199998
 30
0.0
 11
7.9854878783
 21
1.761794752499999
 31
0.0
  0
LINE
  5
9B6
330
21D
100
AcDbEntity
  8
0
  6
Continuous
 62
     7
100
AcDbLine
 10
7.9854878783
 20
1.761794752499999
 30
0.0
 11
7.986135769099997
 21
1.7618920783
 31
0.0
  0
LINE
  5
9B7
330
21D
100
AcDbEntity
  8
0
  6
Continuous
 62
     7
100
AcDbLine
 10
7.986135769099997
 20
1.7618920783
 30
0.0
 11
7.986777147999999
 21
1.761985491299999
 31
0.0
  0
LINE
  5
9B8
330
21D
100
AcDbEntity
  8
0
  6
Continuous
 62
     7
100
AcDbLine
 10
7.986777147999999
 20
1.761985491299999
 30
0.0
 11
7.9874120496
 21
1.762075058199999
 31
0.0
  0
LINE
  5
9B9
330
21D
100
AcDbEntity
  8
0
  6
Continuous
 62
     7
100
AcDbLine
 10
7.9874120496
 20
1.762075058199999
 30
0.0
 11
7.9880405282
 21
1.762160847899999
 31
0.0
  0
LINE
  5
9BA
330
21D
100
AcDbEntity
  8
0
  6
Continuous
 62
     7
100
AcDbLine
 10
7.9880405282
 20
1.762160847899999
 30
0.0
 11
7.988662639
 21
1.7622429286
 31
0.0
  0
LINE
  5
9BB
330
21D
100
AcDbEntity
  8
0
  6
Continuous
 62
     7
100
AcDbLine
 10
7.988662639
 20
1.7622429286
 30
0.0
 11
7.9892784186
 21
1.7623213659
 31
0.0
  0
LINE
  5
9BC
330
21D
100
AcDbEntity
  8
0
  6
Continuous
 62
     7
100
AcDbLine
 10
7.9892784186
 20
1.7623213659
 30
0.0
 11
7.9898879234
 21
1.762396226899999
 31
0.0
  0
LINE
  5
9BD
330
21D
100
AcDbEntity
  8
0
  6
Continuous
 62
     7
100
AcDbLine
 10
7.9898879234
 20
1.762396226899999
 30
0.0
 11
7.9904912107
 21
1.762467578499999
 31
0.0
  0
LINE
  5
9BE
330
21D
100
AcDbEntity
  8
0
  6
Continuous
 62
     7
100
AcDbLine
 10
7.9904912107
 20
1.762467578499999
 30
0.0
 11
7.9910883189
 21
1.7625354846
 31
0.0
  0
LINE
  5
9BF
330
21D
100
AcDbEntity
  8
0
  6
Continuous
 62
     7
100
AcDbLine
 10
7.9910883189
 20
1.7625354846
 30
0.0
 11
7.9916793065
 21
1.762600010699999
 31
0.0
  0
LINE
  5
9C0
330
21D
100
AcDbEntity
  8
0
  6
Continuous
 62
     7
100
AcDbLine
 10
7.9916793065
 20
1.762600010699999
 30
0.0
 11
7.9922642472
 21
1.7626612233
 31
0.0
  0
LWPOLYLINE
  5
9C1
330
21D
100
AcDbEntity
  8
0
  6
Continuous
 62
     7
100
AcDbPolyline
 90
        3
 70
     0
 43
0.0
 10
7.9922642472
 20
1.7626612233
 10
7.9928431375
 20
1.762719180099999
 10
7.993130351699999
 20
1.7627469594
  0
LINE
  5
9C2
330
21D
100
AcDbEntity
  8
0
  6
Continuous
 62
     7
100
AcDbLine
 10
6.6074882814
 20
2.2977802228
 30
0.0
 11
8.5241356311
 21
2.297939589799999
 31
0.0
  0
LINE
  5
9C3
330
21D
100
AcDbEntity
  8
0
  6
Continuous
 62
     7
100
AcDbLine
 10
6.354742008799997
 20
6.660942952999999
 30
0.0
 11
6.3547761189
 21
6.6609068223
 31
0.0
  0
LINE
  5
9C4
330
21D
100
AcDbEntity
  8
0
  6
Continuous
 62
     7
100
AcDbLine
 10
6.1189916965
 20
6.910645275599999
 30
0.0
 11
6.355304674299999
 21
6.660347923799997
 31
0.0
  0
LINE
  5
9C5
330
21D
100
AcDbEntity
  8
0
  6
Continuous
 62
     7
100
AcDbLine
 10
6.381972396699999
 20
6.597998624799996
 30
0.0
 11
6.381467545299996
 21
6.598594159299999
 31
0.0
  0
LINE
  5
9C6
330
21D
100
AcDbEntity
  8
0
  6
Continuous
 62
     7
100
AcDbLine
 10
7.9636912923
 20
1.756955906199999
 30
0.0
 11
7.964910564099997
 21
1.7572996755
 31
0.0
  0
LINE
  5
9C7
330
21D
100
AcDbEntity
  8
0
  6
Continuous
 62
     7
100
AcDbLine
 10
7.964910564099997
 20
1.7572996755
 30
0.0
 11
7.9661188932
 21
1.757632497199999
 31
0.0
  0
LINE
  5
9C8
330
21D
100
AcDbEntity
  8
0
  6
Continuous
 62
     7
100
AcDbLine
 10
7.9661188932
 20
1.757632497199999
 30
0.0
 11
7.967316155499999
 21
1.757954437299997
 31
0.0
  0
LINE
  5
9C9
330
21D
100
AcDbEntity
  8
0
  6
Continuous
 62
     7
100
AcDbLine
 10
7.967316155499999
 20
1.757954437299997
 30
0.0
 11
7.9685022262
 21
1.758265566399997
 31
0.0
  0
LINE
  5
9CA
330
21D
100
AcDbEntity
  8
0
  6
Continuous
 62
     7
100
AcDbLine
 10
7.9685022262
 20
1.758265566399997
 30
0.0
 11
7.9696769809
 21
1.758565959799998
 31
0.0
  0
LINE
  5
9CB
330
21D
100
AcDbEntity
  8
0
  6
Continuous
 62
     7
100
AcDbLine
 10
7.9696769809
 20
1.758565959799998
 30
0.0
 11
7.9708402945
 21
1.7588556977
 31
0.0
  0
LINE
  5
9CC
330
21D
100
AcDbEntity
  8
0
  6
Continuous
 62
     7
100
AcDbLine
 10
7.9708402945
 20
1.7588556977
 30
0.0
 11
7.9719920422
 21
1.7591348653
 31
0.0
  0
LINE
  5
9CD
330
21D
100
AcDbEntity
  8
0
  6
Continuous
 62
     7
100
AcDbLine
 10
7.9719920422
 20
1.7591348653
 30
0.0
 11
7.973132098999997
 21
1.7594035527
 31
0.0
  0
LINE
  5
9CE
330
21D
100
AcDbEntity
  8
0
  6
Continuous
 62
     7
100
AcDbLine
 10
7.973132098999997
 20
1.7594035527
 30
0.0
 11
7.9742603427
 21
1.7596618562
 31
0.0
  0
LINE
  5
9CF
330
21D
100
AcDbEntity
  8
0
  6
Continuous
 62
     7
100
AcDbLine
 10
7.9742603427
 20
1.7596618562
 30
0.0
 11
7.9753766411
 21
1.7599098749
 31
0.0
  0
LINE
  5
9D0
330
21D
100
AcDbEntity
  8
0
  6
Continuous
 62
     7
100
AcDbLine
 10
7.9753766411
 20
1.7599098749
 30
0.0
 11
7.9761141057
 21
1.760069551299999
 31
0.0
  0
LINE
  5
9D1
330
21D
100
AcDbEntity
  8
0
  6
Continuous
 62
     7
100
AcDbLine
 10
6.811847302
 20
6.910645275599999
 30
0.0
 11
7.0442205586
 21
6.6620506294
 31
0.0
  0
LWPOLYLINE
  5
9D2
330
21D
100
AcDbEntity
  8
0
  6
Continuous
 62
     7
100
AcDbPolyline
 90
       19
 70
     0
 43
0.0
 10
7.8015132445
 20
1.654739763799998
 10
7.8030954273
 20
1.6568741952
 10
7.8054515319
 20
1.659936500599999
 10
7.8078708948
 20
1.662946650999999
 10
7.810352339199999
 20
1.6659033728
 10
7.812894650199997
 20
1.668805403799999
 10
7.8154965732
 20
1.6716514949
 10
7.8181568501
 20
1.6744404499
 10
7.820874196699999
 20
1.6771710987
 10
7.8236472808
 20
1.6798422765
 10
7.8264747884
 20
1.682452888799998
 10
7.8293553523
 20
1.685001840999998
 10
7.8322875199
 20
1.687488017899998
 10
7.835269903999997
 20
1.689910414099998
 10
7.838301076499996
 20
1.6922680375
 10
7.8413794808
 20
1.6945598494
 10
7.844503613799997
 20
1.696784907799997
 10
7.8476720346
 20
1.698942361299998
 10
7.8499474235
 20
1.700432482899999
  0
LINE
  5
9D3
330
21D
100
AcDbEntity
  8
0
  6
Continuous
 62
     7
100
AcDbLine
 10
7.8499474266
 20
1.700432477799999
 30
0.0
 11
7.8548490786
 21
1.703575274699999
 31
0.0
  0
LINE
  5
9D4
330
21D
100
AcDbEntity
  8
0
  6
Continuous
 62
     7
100
AcDbLine
 10
7.8548490786
 20
1.703575274699999
 30
0.0
 11
7.8592077713
 21
1.706341209999999
 31
0.0
  0
LINE
  5
9D5
330
21D
100
AcDbEntity
  8
0
  6
Continuous
 62
     7
100
AcDbLine
 10
7.8592077713
 20
1.706341209999999
 30
0.0
 11
7.8628891964
 21
1.7086528968
 31
0.0
  0
LINE
  5
9D6
330
21D
100
AcDbEntity
  8
0
  6
Continuous
 62
     7
100
AcDbLine
 10
7.8628891964
 20
1.7086528968
 30
0.0
 11
7.8665229619
 21
1.7109100009
 31
0.0
  0
LINE
  5
9D7
330
21D
100
AcDbEntity
  8
0
  6
Continuous
 62
     7
100
AcDbLine
 10
7.8665229619
 20
1.7109100009
 30
0.0
 11
7.869517432
 21
1.712749943399999
 31
0.0
  0
LINE
  5
9D8
330
21D
100
AcDbEntity
  8
0
  6
Continuous
 62
     7
100
AcDbLine
 10
7.869517432
 20
1.712749943399999
 30
0.0
 11
7.8724841645
 21
1.714553683799999
 31
0.0
  0
LINE
  5
9D9
330
21D
100
AcDbEntity
  8
0
  6
Continuous
 62
     7
100
AcDbLine
 10
7.8724841645
 20
1.714553683799999
 30
0.0
 11
7.8754278264
 21
1.716323063
 31
0.0
  0
LINE
  5
9DA
330
21D
100
AcDbEntity
  8
0
  6
Continuous
 62
     7
100
AcDbLine
 10
7.8754278264
 20
1.716323063
 30
0.0
 11
7.877770108099999
 21
1.7177154556
 31
0.0
  0
LINE
  5
9DB
330
21D
100
AcDbEntity
  8
0
  6
Continuous
 62
     7
100
AcDbLine
 10
7.877770108099999
 20
1.7177154556
 30
0.0
 11
7.880098861
 21
1.7190854786
 31
0.0
  0
LINE
  5
9DC
330
21D
100
AcDbEntity
  8
0
  6
Continuous
 62
     7
100
AcDbLine
 10
7.880098861
 20
1.7190854786
 30
0.0
 11
7.882404810499999
 21
1.720427510699999
 31
0.0
  0
LINE
  5
9DD
330
21D
100
AcDbEntity
  8
0
  6
Continuous
 62
     7
100
AcDbLine
 10
7.882404810499999
 20
1.720427510699999
 30
0.0
 11
7.884690357899999
 21
1.721742999299998
 31
0.0
  0
LINE
  5
9DE
330
21D
100
AcDbEntity
  8
0
  6
Continuous
 62
     7
100
AcDbLine
 10
7.884690357899999
 20
1.721742999299998
 30
0.0
 11
7.886958934199999
 21
1.723034052899999
 31
0.0
  0
LINE
  5
9DF
330
21D
100
AcDbEntity
  8
0
  6
Continuous
 62
     7
100
AcDbLine
 10
7.886958934199999
 20
1.723034052899999
 30
0.0
 11
7.889213471299997
 21
1.7243025381
 31
0.0
  0
LINE
  5
9E0
330
21D
100
AcDbEntity
  8
0
  6
Continuous
 62
     7
100
AcDbLine
 10
7.889213471299997
 20
1.7243025381
 30
0.0
 11
7.891456535099997
 21
1.725550154499998
 31
0.0
  0
LINE
  5
9E1
330
21D
100
AcDbEntity
  8
0
  6
Continuous
 62
     7
100
AcDbLine
 10
7.891456535099997
 20
1.725550154499998
 30
0.0
 11
7.8936902139
 21
1.726778361
 31
0.0
  0
LINE
  5
9E2
330
21D
100
AcDbEntity
  8
0
  6
Continuous
 62
     7
100
AcDbLine
 10
7.8936902139
 20
1.726778361
 30
0.0
 11
7.895359748099999
 21
1.727687161399997
 31
0.0
  0
LINE
  5
9E3
330
21D
100
AcDbEntity
  8
0
  6
Continuous
 62
     7
100
AcDbLine
 10
7.895359748099999
 20
1.727687161399997
 30
0.0
 11
7.897578047999999
 21
1.7288825299
 31
0.0
  0
LINE
  5
9E4
330
21D
100
AcDbEntity
  8
0
  6
Continuous
 62
     7
100
AcDbLine
 10
7.897578047999999
 20
1.7288825299
 30
0.0
 11
7.8997872626
 21
1.730059297299999
 31
0.0
  0
LINE
  5
9E5
330
21D
100
AcDbEntity
  8
0
  6
Continuous
 62
     7
100
AcDbLine
 10
7.8997872626
 20
1.730059297299999
 30
0.0
 11
7.9019870474
 21
1.7312175638
 31
0.0
  0
LINE
  5
9E6
330
21D
100
AcDbEntity
  8
0
  6
Continuous
 62
     7
100
AcDbLine
 10
7.9019870474
 20
1.7312175638
 30
0.0
 11
7.904176961799999
 21
1.732357414099999
 31
0.0
  0
LINE
  5
9E7
330
21D
100
AcDbEntity
  8
0
  6
Continuous
 62
     7
100
AcDbLine
 10
7.904176961799999
 20
1.732357414099999
 30
0.0
 11
7.906355840499999
 21
1.733478435
 31
0.0
  0
LINE
  5
9E8
330
21D
100
AcDbEntity
  8
0
  6
Continuous
 62
     7
100
AcDbLine
 10
7.906355840499999
 20
1.733478435
 30
0.0
 11
7.908520960299997
 21
1.7345790803
 31
0.0
  0
LINE
  5
9E9
330
21D
100
AcDbEntity
  8
0
  6
Continuous
 62
     7
100
AcDbLine
 10
7.908520960299997
 20
1.7345790803
 30
0.0
 11
7.9106695438
 21
1.7356578046
 31
0.0
  0
LINE
  5
9EA
330
21D
100
AcDbEntity
  8
0
  6
Continuous
 62
     7
100
AcDbLine
 10
7.9106695438
 20
1.7356578046
 30
0.0
 11
7.9127989869
 21
1.736713238199999
 31
0.0
  0
LINE
  5
9EB
330
21D
100
AcDbEntity
  8
0
  6
Continuous
 62
     7
100
AcDbLine
 10
7.9127989869
 20
1.736713238199999
 30
0.0
 11
7.914907221699999
 21
1.737744357299999
 31
0.0
  0
LINE
  5
9EC
330
21D
100
AcDbEntity
  8
0
  6
Continuous
 62
     7
100
AcDbLine
 10
7.914907221699999
 20
1.737744357299999
 30
0.0
 11
7.916999192899999
 21
1.738753570099999
 31
0.0
  0
LINE
  5
9ED
330
21D
100
AcDbEntity
  8
0
  6
Continuous
 62
     7
100
AcDbLine
 10
7.916999192899999
 20
1.738753570099999
 30
0.0
 11
7.9190777508
 21
1.7397422021
 31
0.0
  0
LINE
  5
9EE
330
21D
100
AcDbEntity
  8
0
  6
Continuous
 62
     7
100
AcDbLine
 10
7.9190777508
 20
1.7397422021
 30
0.0
 11
7.921142099899999
 21
1.7407098602
 31
0.0
  0
LINE
  5
9EF
330
21D
100
AcDbEntity
  8
0
  6
Continuous
 62
     7
100
AcDbLine
 10
7.921142099899999
 20
1.7407098602
 30
0.0
 11
7.9231915898
 21
1.7416562513
 31
0.0
  0
LINE
  5
9F0
330
21D
100
AcDbEntity
  8
0
  6
Continuous
 62
     7
100
AcDbLine
 10
7.9231915898
 20
1.7416562513
 30
0.0
 11
7.9247185671
 21
1.742351927299998
 31
0.0
  0
LINE
  5
9F1
330
21D
100
AcDbEntity
  8
0
  6
Continuous
 62
     7
100
AcDbLine
 10
7.9247185671
 20
1.742351927299998
 30
0.0
 11
7.926236577899999
 21
1.7430353994
 31
0.0
  0
LINE
  5
9F2
330
21D
100
AcDbEntity
  8
0
  6
Continuous
 62
     7
100
AcDbLine
 10
7.926236577899999
 20
1.7430353994
 30
0.0
 11
7.9277453845
 21
1.743706587299999
 31
0.0
  0
LINE
  5
9F3
330
21D
100
AcDbEntity
  8
0
  6
Continuous
 62
     7
100
AcDbLine
 10
7.9277453845
 20
1.743706587299999
 30
0.0
 11
7.9292447586
 21
1.744365421399999
 31
0.0
  0
LINE
  5
9F4
330
21D
100
AcDbEntity
  8
0
  6
Continuous
 62
     7
100
AcDbLine
 10
7.9292447586
 20
1.744365421399999
 30
0.0
 11
7.930734479899999
 21
1.7450118422
 31
0.0
  0
LINE
  5
9F5
330
21D
100
AcDbEntity
  8
0
  6
Continuous
 62
     7
100
AcDbLine
 10
7.930734479899999
 20
1.7450118422
 30
0.0
 11
7.932214334199999
 21
1.745645799499999
 31
0.0
  0
LWPOLYLINE
  5
9F6
330
21D
100
AcDbEntity
  8
0
  6
Continuous
 62
     7
100
AcDbPolyline
 90
        3
 70
     0
 43
0.0
 10
7.932214334199999
 20
1.745645799499999
 10
7.933684112599999
 20
1.746267251699999
 10
7.934171766599996
 20
1.7464716186
  0
LINE
  5
9F7
330
21D
100
AcDbEntity
  8
0
  6
Continuous
 62
     7
100
AcDbLine
 10
7.934171766599996
 20
1.7464716186
 30
0.0
 11
7.935627790999999
 21
1.7470763458
 31
0.0
  0
LINE
  5
9F8
330
21D
100
AcDbEntity
  8
0
  6
Continuous
 62
     7
100
AcDbLine
 10
7.935627790999999
 20
1.7470763458
 30
0.0
 11
7.9370732636
 21
1.747668500099998
 31
0.0
  0
LINE
  5
9F9
330
21D
100
AcDbEntity
  8
0
  6
Continuous
 62
     7
100
AcDbLine
 10
7.9370732636
 20
1.747668500099998
 30
0.0
 11
7.9385079837
 21
1.7482480641
 31
0.0
  0
LINE
  5
9FA
330
21D
100
AcDbEntity
  8
0
  6
Continuous
 62
     7
100
AcDbLine
 10
7.9385079837
 20
1.7482480641
 30
0.0
 11
7.9399317477
 21
1.748815025399999
 31
0.0
  0
LINE
  5
9FB
330
21D
100
AcDbEntity
  8
0
  6
Continuous
 62
     7
100
AcDbLine
 10
7.9399317477
 20
1.748815025399999
 30
0.0
 11
7.9413443248
 21
1.749369367199999
 31
0.0
  0
LINE
  5
9FC
330
21D
100
AcDbEntity
  8
0
  6
Continuous
 62
     7
100
AcDbLine
 10
7.9413443248
 20
1.749369367199999
 30
0.0
 11
7.942745551399997
 21
1.7499111058
 31
0.0
  0
LINE
  5
9FD
330
21D
100
AcDbEntity
  8
0
  6
Continuous
 62
     7
100
AcDbLine
 10
7.942745551399997
 20
1.7499111058
 30
0.0
 11
7.944135497599997
 21
1.750440350899999
 31
0.0
  0
LINE
  5
9FE
330
21D
100
AcDbEntity
  8
0
  6
Continuous
 62
     7
100
AcDbLine
 10
7.944135497599997
 20
1.750440350899999
 30
0.0
 11
7.9455142575
 21
1.750957220099999
 31
0.0
  0
LINE
  5
9FF
330
21D
100
AcDbEntity
  8
0
  6
Continuous
 62
     7
100
AcDbLine
 10
7.9455142575
 20
1.750957220099999
 30
0.0
 11
7.946881919199999
 21
1.7514618265
 31
0.0
  0
LINE
  5
A00
330
21D
100
AcDbEntity
  8
0
  6
Continuous
 62
     7
100
AcDbLine
 10
7.946881919199999
 20
1.7514618265
 30
0.0
 11
7.9482385735
 21
1.751954283799999
 31
0.0
  0
LINE
  5
A01
330
21D
100
AcDbEntity
  8
0
  6
Continuous
 62
     7
100
AcDbLine
 10
7.9482385735
 20
1.751954283799999
 30
0.0
 11
7.9495843144
 21
1.7524347059
 31
0.0
  0
LINE
  5
A02
330
21D
100
AcDbEntity
  8
0
  6
Continuous
 62
     7
100
AcDbLine
 10
7.9495843144
 20
1.7524347059
 30
0.0
 11
7.9509192387
 21
1.752903206899999
 31
0.0
  0
LINE
  5
A03
330
21D
100
AcDbEntity
  8
0
  6
Continuous
 62
     7
100
AcDbLine
 10
7.9509192387
 20
1.752903206899999
 30
0.0
 11
7.952243445199997
 21
1.7533599007
 31
0.0
  0
LINE
  5
A04
330
21D
100
AcDbEntity
  8
0
  6
Continuous
 62
     7
100
AcDbLine
 10
7.952243445199997
 20
1.7533599007
 30
0.0
 11
7.953557035
 21
1.7538049008
 31
0.0
  0
LINE
  5
A05
330
21D
100
AcDbEntity
  8
0
  6
Continuous
 62
     7
100
AcDbLine
 10
7.953557035
 20
1.7538049008
 30
0.0
 11
7.9548601108
 21
1.754238320099998
 31
0.0
  0
LINE
  5
A06
330
21D
100
AcDbEntity
  8
0
  6
Continuous
 62
     7
100
AcDbLine
 10
7.9548601108
 20
1.754238320099998
 30
0.0
 11
7.9561527771
 21
1.7546602709
 31
0.0
  0
LINE
  5
A07
330
21D
100
AcDbEntity
  8
0
  6
Continuous
 62
     7
100
AcDbLine
 10
7.9561527771
 20
1.7546602709
 30
0.0
 11
7.957435141
 21
1.755070865099999
 31
0.0
  0
LINE
  5
A08
330
21D
100
AcDbEntity
  8
0
  6
Continuous
 62
     7
100
AcDbLine
 10
7.957435141
 20
1.755070865099999
 30
0.0
 11
7.958707260199997
 21
1.7554701976
 31
0.0
  0
LINE
  5
A09
330
21D
100
AcDbEntity
  8
0
  6
Continuous
 62
     7
100
AcDbLine
 10
7.958707260199997
 20
1.7554701976
 30
0.0
 11
7.9599690621
 21
1.7558583236
 31
0.0
  0
LINE
  5
A0A
330
21D
100
AcDbEntity
  8
0
  6
Continuous
 62
     7
100
AcDbLine
 10
7.9599690621
 20
1.7558583236
 30
0.0
 11
7.960804466799999
 21
1.756110868499999
 31
0.0
  0
LINE
  5
A0B
330
21D
100
AcDbEntity
  8
0
  6
Continuous
 62
     7
100
AcDbLine
 10
7.960804466799999
 20
1.756110868499999
 30
0.0
 11
7.962048788899997
 21
1.7564804123
 31
0.0
  0
LWPOLYLINE
  5
A0C
330
21D
100
AcDbEntity
  8
0
  6
Continuous
 62
     7
100
AcDbPolyline
 90
        3
 70
     0
 43
0.0
 10
7.962048788899997
 20
1.7564804123
 10
7.963282457899999
 20
1.756838872799999
 10
7.9636912923
 20
1.756955906199999
  0
LINE
  5
A0D
330
21D
100
AcDbEntity
  8
CURVE1
  6
Continuous
 62
     7
100
AcDbLine
 10
5.506237653899997
 20
6.910645275599999
 30
0.0
 11
17.2188360791
 21
6.910645275599999
 31
0.0
  0
LINE
  5
A0E
330
21D
100
AcDbEntity
  8
0
  6
Continuous
 62
     7
100
AcDbLine
 10
16.3369876958
 20
6.604372901599997
 30
0.0
 11
16.3363093217
 21
6.6035344452
 31
0.0
  0
LINE
  5
A0F
330
21D
100
AcDbEntity
  8
0
  6
Continuous
 62
     7
100
AcDbLine
 10
16.362314162
 20
6.6575552084
 30
0.0
 11
16.6022292801
 21
6.910645275599999
 31
0.0
  0
LINE
  5
A10
330
21D
100
AcDbEntity
  8
0
  6
Continuous
 62
     7
100
AcDbLine
 10
17.0318282051
 20
7.0976531496
 30
0.0
 11
5.693245527899999
 21
7.0976531496
 31
0.0
  0
LINE
  5
A11
330
21D
100
AcDbEntity
  8
0
  6
Continuous
 62
     7
100
AcDbLine
 10
15.3594269354
 20
6.662575650099999
 30
0.0
 11
15.3595312666
 21
6.5961302845
 31
0.0
  0
LINE
  5
A12
330
21D
100
AcDbEntity
  8
0
  6
Continuous
 62
     7
100
AcDbLine
 10
15.2889964635
 20
2.054460216799999
 30
0.0
 11
15.2914869278
 21
2.055593849
 31
0.0
  0
LINE
  5
A13
330
21D
100
AcDbEntity
  8
0
  6
Continuous
 62
     7
100
AcDbLine
 10
15.2864883773
 20
2.053335432699999
 30
0.0
 11
15.2889964635
 21
2.054460216799999
 31
0.0
  0
LINE
  5
A14
330
21D
100
AcDbEntity
  8
0
  6
Continuous
 62
     7
100
AcDbLine
 10
15.2839625658
 20
2.052219694999998
 30
0.0
 11
15.2864883773
 21
2.053335432699999
 31
0.0
  0
LINE
  5
A15
330
21D
100
AcDbEntity
  8
0
  6
Continuous
 62
     7
100
AcDbLine
 10
15.2814189323
 20
2.051113192399999
 30
0.0
 11
15.2839625658
 21
2.052219694999998
 31
0.0
  0
LINE
  5
A16
330
21D
100
AcDbEntity
  8
0
  6
Continuous
 62
     7
100
AcDbLine
 10
15.2788573872
 20
2.0500161024
 30
0.0
 11
15.2814189323
 21
2.051113192399999
 31
0.0
  0
LINE
  5
A17
330
21D
100
AcDbEntity
  8
0
  6
Continuous
 62
     7
100
AcDbLine
 10
15.2762778422
 20
2.0489286059
 30
0.0
 11
15.2788573872
 21
2.0500161024
 31
0.0
  0
LINE
  5
A18
330
21D
100
AcDbEntity
  8
0
  6
Continuous
 62
     7
100
AcDbLine
 10
15.2736802103
 20
2.0478508869
 30
0.0
 11
15.2762778422
 21
2.0489286059
 31
0.0
  0
LINE
  5
A19
330
21D
100
AcDbEntity
  8
0
  6
Continuous
 62
     7
100
AcDbLine
 10
15.2710644056
 20
2.046783133199999
 30
0.0
 11
15.2736802103
 21
2.0478508869
 31
0.0
  0
LINE
  5
A1A
330
21D
100
AcDbEntity
  8
0
  6
Continuous
 62
     7
100
AcDbLine
 10
15.2684303436
 20
2.045725535899999
 30
0.0
 11
15.2710644056
 21
2.046783133199999
 31
0.0
  0
LINE
  5
A1B
330
21D
100
AcDbEntity
  8
0
  6
Continuous
 62
     7
100
AcDbLine
 10
15.265777942
 20
2.044678290399998
 30
0.0
 11
15.2684303436
 21
2.045725535899999
 31
0.0
  0
LINE
  5
A1C
330
21D
100
AcDbEntity
  8
0
  6
Continuous
 62
     7
100
AcDbLine
 10
15.2631071137
 20
2.043641593199998
 30
0.0
 11
15.265777942
 21
2.044678290399998
 31
0.0
  0
LINE
  5
A1D
330
21D
100
AcDbEntity
  8
0
  6
Continuous
 62
     7
100
AcDbLine
 10
15.2604177388
 20
2.042615631599999
 30
0.0
 11
15.2631071137
 21
2.043641593199998
 31
0.0
  0
LINE
  5
A1E
330
21D
100
AcDbEntity
  8
0
  6
Continuous
 62
     7
100
AcDbLine
 10
15.2577096658
 20
2.041600585599999
 30
0.0
 11
15.2604177388
 21
2.042615631599999
 31
0.0
  0
LINE
  5
A1F
330
21D
100
AcDbEntity
  8
0
  6
Continuous
 62
     7
100
AcDbLine
 10
15.254982745
 20
2.0405966407
 30
0.0
 11
15.2577096658
 21
2.041600585599999
 31
0.0
  0
LINE
  5
A20
330
21D
100
AcDbEntity
  8
0
  6
Continuous
 62
     7
100
AcDbLine
 10
15.2522368277
 20
2.0396039881
 30
0.0
 11
15.254982745
 21
2.0405966407
 31
0.0
  0
LINE
  5
A21
330
21D
100
AcDbEntity
  8
0
  6
Continuous
 62
     7
100
AcDbLine
 10
15.2494717661
 20
2.038622824599999
 30
0.0
 11
15.2522368277
 21
2.0396039881
 31
0.0
  0
LINE
  5
A22
330
21D
100
AcDbEntity
  8
0
  6
Continuous
 62
     7
100
AcDbLine
 10
15.2466874138
 20
2.0376533524
 30
0.0
 11
15.2494717661
 21
2.038622824599999
 31
0.0
  0
LINE
  5
A23
330
21D
100
AcDbEntity
  8
0
  6
Continuous
 62
     7
100
AcDbLine
 10
15.2438836253
 20
2.0366957797
 30
0.0
 11
15.2466874138
 21
2.0376533524
 31
0.0
  0
LINE
  5
A24
330
21D
100
AcDbEntity
  8
0
  6
Continuous
 62
     7
100
AcDbLine
 10
15.2410602563
 20
2.0357503202
 30
0.0
 11
15.2438836253
 21
2.0366957797
 31
0.0
  0
LINE
  5
A25
330
21D
100
AcDbEntity
  8
0
  6
Continuous
 62
     7
100
AcDbLine
 10
15.2382171639
 20
2.034817193499999
 30
0.0
 11
15.2410602563
 21
2.0357503202
 31
0.0
  0
LINE
  5
A26
330
21D
100
AcDbEntity
  8
0
  6
Continuous
 62
     7
100
AcDbLine
 10
15.2353542066
 20
2.033896625
 30
0.0
 11
15.2382171639
 21
2.034817193499999
 31
0.0
  0
LINE
  5
A27
330
21D
100
AcDbEntity
  8
0
  6
Continuous
 62
     7
100
AcDbLine
 10
15.2324712445
 20
2.032988846399998
 30
0.0
 11
15.2353542066
 21
2.033896625
 31
0.0
  0
LINE
  5
A28
330
21D
100
AcDbEntity
  8
0
  6
Continuous
 62
     7
100
AcDbLine
 10
15.2295681388
 20
2.032094095
 30
0.0
 11
15.2324712445
 21
2.032988846399998
 31
0.0
  0
LINE
  5
A29
330
21D
100
AcDbEntity
  8
0
  6
Continuous
 62
     7
100
AcDbLine
 10
15.2266447529
 20
2.031212614399998
 30
0.0
 11
15.2295681388
 21
2.032094095
 31
0.0
  0
LINE
  5
A2A
330
21D
100
AcDbEntity
  8
0
  6
Continuous
 62
     7
100
AcDbLine
 10
15.2237009515
 20
2.030344654599999
 30
0.0
 11
15.2266447529
 21
2.031212614399998
 31
0.0
  0
LINE
  5
A2B
330
21D
100
AcDbEntity
  8
0
  6
Continuous
 62
     7
100
AcDbLine
 10
15.2207366014
 20
2.029490471499999
 30
0.0
 11
15.2237009515
 21
2.030344654599999
 31
0.0
  0
LINE
  5
A2C
330
21D
100
AcDbEntity
  8
0
  6
Continuous
 62
     7
100
AcDbLine
 10
15.5798902304
 20
2.5372914706
 30
0.0
 11
15.5795937278
 21
2.5097760705
 31
0.0
  0
LINE
  5
A2D
330
21D
100
AcDbEntity
  8
0
  6
Continuous
 62
     7
100
AcDbLine
 10
15.5797075877
 20
2.522744552499998
 30
0.0
 11
15.5797589412
 21
2.5271804833
 31
0.0
  0
LINE
  5
A2E
330
21D
100
AcDbEntity
  8
0
  6
Continuous
 62
     7
100
AcDbLine
 10
15.5794922604
 20
2.4964657177
 30
0.0
 11
15.579664911
 21
2.5187408906
 31
0.0
  0
LINE
  5
A2F
330
21D
100
AcDbEntity
  8
0
  6
Continuous
 62
     7
100
AcDbLine
 10
15.5794554493
 20
2.4942220803
 30
0.0
 11
15.5794922604
 21
2.4964657177
 31
0.0
  0
LINE
  5
A30
330
21D
100
AcDbEntity
  8
0
  6
Continuous
 62
     7
100
AcDbLine
 10
15.5794106141
 20
2.492079406299998
 30
0.0
 11
15.5794554493
 21
2.4942220803
 31
0.0
  0
LINE
  5
A31
330
21D
100
AcDbEntity
  8
0
  6
Continuous
 62
     7
100
AcDbLine
 10
15.5793535613
 20
2.4898367256
 30
0.0
 11
15.5794106141
 21
2.492079406299998
 31
0.0
  0
LINE
  5
A32
330
21D
100
AcDbEntity
  8
0
  6
Continuous
 62
     7
100
AcDbLine
 10
15.5792832608
 20
2.487504810799999
 30
0.0
 11
15.5793535613
 21
2.4898367256
 31
0.0
  0
LINE
  5
A33
330
21D
100
AcDbEntity
  8
0
  6
Continuous
 62
     7
100
AcDbLine
 10
15.5792089375
 20
2.485365785099999
 30
0.0
 11
15.5792832608
 21
2.487504810799999
 31
0.0
  0
LINE
  5
A34
330
21D
100
AcDbEntity
  8
0
  6
Continuous
 62
     7
100
AcDbLine
 10
15.5791228767
 20
2.4831705668
 30
0.0
 11
15.5792089375
 21
2.485365785099999
 31
0.0
  0
LINE
  5
A35
330
21D
100
AcDbEntity
  8
0
  6
Continuous
 62
     7
100
AcDbLine
 10
15.5790244611
 20
2.480922239299998
 30
0.0
 11
15.5791228767
 21
2.4831705668
 31
0.0
  0
LINE
  5
A36
330
21D
100
AcDbEntity
  8
0
  6
Continuous
 62
     7
100
AcDbLine
 10
15.5789130995
 20
2.4786236412
 30
0.0
 11
15.5790244611
 21
2.480922239299998
 31
0.0
  0
LINE
  5
A37
330
21D
100
AcDbEntity
  8
0
  6
Continuous
 62
     7
100
AcDbLine
 10
15.5787882366
 20
2.476277599299999
 30
0.0
 11
15.5789130995
 21
2.4786236412
 31
0.0
  0
LINE
  5
A38
330
21D
100
AcDbEntity
  8
0
  6
Continuous
 62
     7
100
AcDbLine
 10
15.5786493577
 20
2.473886961599998
 30
0.0
 11
15.5787882366
 21
2.476277599299999
 31
0.0
  0
LINE
  5
A39
330
21D
100
AcDbEntity
  8
0
  6
Continuous
 62
     7
100
AcDbLine
 10
15.5784959901
 20
2.4714545804
 30
0.0
 11
15.5786493577
 21
2.473886961599998
 31
0.0
  0
LINE
  5
A3A
330
21D
100
AcDbEntity
  8
0
  6
Continuous
 62
     7
100
AcDbLine
 10
15.5783495684
 20
2.469294218499999
 30
0.0
 11
15.5784959901
 21
2.4714545804
 31
0.0
  0
LINE
  5
A3B
330
21D
100
AcDbEntity
  8
0
  6
Continuous
 62
     7
100
AcDbLine
 10
15.5781914317
 20
2.46710551
 30
0.0
 11
15.5783495684
 21
2.469294218499999
 31
0.0
  0
LINE
  5
A3C
330
21D
100
AcDbEntity
  8
0
  6
Continuous
 62
     7
100
AcDbLine
 10
15.5780212688
 20
2.4648894154
 30
0.0
 11
15.5781914317
 21
2.46710551
 31
0.0
  0
LINE
  5
A3D
330
21D
100
AcDbEntity
  8
0
  6
Continuous
 62
     7
100
AcDbLine
 10
15.5778387788
 20
2.4626468736
 30
0.0
 11
15.5780212688
 21
2.4648894154
 31
0.0
  0
LINE
  5
A3E
330
21D
100
AcDbEntity
  8
0
  6
Continuous
 62
     7
100
AcDbLine
 10
15.577643673
 20
2.4603788338
 30
0.0
 11
15.5778387788
 21
2.4626468736
 31
0.0
  0
LINE
  5
A3F
330
21D
100
AcDbEntity
  8
0
  6
Continuous
 62
     7
100
AcDbLine
 10
15.5774356749
 20
2.4580862397
 30
0.0
 11
15.577643673
 21
2.4603788338
 31
0.0
  0
LINE
  5
A40
330
21D
100
AcDbEntity
  8
0
  6
Continuous
 62
     7
100
AcDbLine
 10
15.5772145206
 20
2.4557700374
 30
0.0
 11
15.5774356749
 21
2.4580862397
 31
0.0
  0
LINE
  5
A41
330
21D
100
AcDbEntity
  8
0
  6
Continuous
 62
     7
100
AcDbLine
 10
15.5769799603
 20
2.4534311825
 30
0.0
 11
15.5772145206
 21
2.4557700374
 31
0.0
  0
LINE
  5
A42
330
21D
100
AcDbEntity
  8
0
  6
Continuous
 62
     7
100
AcDbLine
 10
15.5767317571
 20
2.4510706252
 30
0.0
 11
15.5769799603
 21
2.4534311825
 31
0.0
  0
LINE
  5
A43
330
21D
100
AcDbEntity
  8
0
  6
Continuous
 62
     7
100
AcDbLine
 10
15.5764696883
 20
2.448689316999999
 30
0.0
 11
15.5767317571
 21
2.4510706252
 31
0.0
  0
LINE
  5
A44
330
21D
100
AcDbEntity
  8
0
  6
Continuous
 62
     7
100
AcDbLine
 10
15.5761935465
 20
2.446288218999999
 30
0.0
 11
15.5764696883
 21
2.448689316999999
 31
0.0
  0
LINE
  5
A45
330
21D
100
AcDbEntity
  8
0
  6
Continuous
 62
     7
100
AcDbLine
 10
15.5759031381
 20
2.443868285999998
 30
0.0
 11
15.5761935465
 21
2.446288218999999
 31
0.0
  0
LINE
  5
A46
330
21D
100
AcDbEntity
  8
0
  6
Continuous
 62
     7
100
AcDbLine
 10
15.5758175185
 20
2.44317355
 30
0.0
 11
15.5759031381
 21
2.443868285999998
 31
0.0
  0
LINE
  5
A47
330
21D
100
AcDbEntity
  8
0
  6
Continuous
 62
     7
100
AcDbLine
 10
15.3791122673
 20
2.107265145399999
 30
0.0
 11
15.3809607871
 21
2.108634326299998
 31
0.0
  0
LINE
  5
A48
330
21D
100
AcDbEntity
  8
0
  6
Continuous
 62
     7
100
AcDbLine
 10
15.3772502561
 20
2.105899275
 30
0.0
 11
15.3791122673
 21
2.107265145399999
 31
0.0
  0
LINE
  5
A49
330
21D
100
AcDbEntity
  8
0
  6
Continuous
 62
     7
100
AcDbLine
 10
15.3753746658
 20
2.1045368022
 30
0.0
 11
15.3772502561
 21
2.105899275
 31
0.0
  0
LINE
  5
A4A
330
21D
100
AcDbEntity
  8
0
  6
Continuous
 62
     7
100
AcDbLine
 10
15.3734854085
 20
2.1031778162
 30
0.0
 11
15.3753746658
 21
2.1045368022
 31
0.0
  0
LINE
  5
A4B
330
21D
100
AcDbEntity
  8
0
  6
Continuous
 62
     7
100
AcDbLine
 10
15.3715823966
 20
2.101822408199998
 30
0.0
 11
15.3734854085
 21
2.1031778162
 31
0.0
  0
LINE
  5
A4C
330
21D
100
AcDbEntity
  8
0
  6
Continuous
 62
     7
100
AcDbLine
 10
15.3696655419
 20
2.100470671699997
 30
0.0
 11
15.3715823966
 21
2.101822408199998
 31
0.0
  0
LINE
  5
A4D
330
21D
100
AcDbEntity
  8
0
  6
Continuous
 62
     7
100
AcDbLine
 10
15.3677347567
 20
2.099122702299998
 30
0.0
 11
15.3696655419
 21
2.100470671699997
 31
0.0
  0
LINE
  5
A4E
330
21D
100
AcDbEntity
  8
0
  6
Continuous
 62
     7
100
AcDbLine
 10
15.3657899529
 20
2.0977785977
 30
0.0
 11
15.3677347567
 21
2.099122702299998
 31
0.0
  0
LINE
  5
A4F
330
21D
100
AcDbEntity
  8
0
  6
Continuous
 62
     7
100
AcDbLine
 10
15.3638310425
 20
2.096438458
 30
0.0
 11
15.3657899529
 21
2.0977785977
 31
0.0
  0
LINE
  5
A50
330
21D
100
AcDbEntity
  8
0
  6
Continuous
 62
     7
100
AcDbLine
 10
15.3618579374
 20
2.0951023853
 30
0.0
 11
15.3638310425
 21
2.096438458
 31
0.0
  0
LINE
  5
A51
330
21D
100
AcDbEntity
  8
0
  6
Continuous
 62
     7
100
AcDbLine
 10
15.3598705498
 20
2.093770484099997
 30
0.0
 11
15.3618579374
 21
2.0951023853
 31
0.0
  0
LINE
  5
A52
330
21D
100
AcDbEntity
  8
0
  6
Continuous
 62
     7
100
AcDbLine
 10
15.3578687917
 20
2.092442861399999
 30
0.0
 11
15.3598705498
 21
2.093770484099997
 31
0.0
  0
LINE
  5
A53
330
21D
100
AcDbEntity
  8
0
  6
Continuous
 62
     7
100
AcDbLine
 10
15.3558525751
 20
2.091119625999998
 30
0.0
 11
15.3578687917
 21
2.092442861399999
 31
0.0
  0
LINE
  5
A54
330
21D
100
AcDbEntity
  8
0
  6
Continuous
 62
     7
100
AcDbLine
 10
15.3538218122
 20
2.089800889699997
 30
0.0
 11
15.3558525751
 21
2.091119625999998
 31
0.0
  0
LINE
  5
A55
330
21D
100
AcDbEntity
  8
0
  6
Continuous
 62
     7
100
AcDbLine
 10
15.3517764152
 20
2.088486766099999
 30
0.0
 11
15.3538218122
 21
2.089800889699997
 31
0.0
  0
LINE
  5
A56
330
21D
100
AcDbEntity
  8
0
  6
Continuous
 62
     7
100
AcDbLine
 10
15.3497162965
 20
2.0871773715
 30
0.0
 11
15.3517764152
 21
2.088486766099999
 31
0.0
  0
LINE
  5
A57
330
21D
100
AcDbEntity
  8
0
  6
Continuous
 62
     7
100
AcDbLine
 10
15.3476413685
 20
2.0858728247
 30
0.0
 11
15.3497162965
 21
2.0871773715
 31
0.0
  0
LINE
  5
A58
330
21D
100
AcDbEntity
  8
0
  6
Continuous
 62
     7
100
AcDbLine
 10
15.3455515437
 20
2.084573246699997
 30
0.0
 11
15.3476413685
 21
2.0858728247
 31
0.0
  0
LINE
  5
A59
330
21D
100
AcDbEntity
  8
0
  6
Continuous
 62
     7
100
AcDbLine
 10
15.343446735
 20
2.083278761399999
 30
0.0
 11
15.3455515437
 21
2.084573246699997
 31
0.0
  0
LINE
  5
A5A
330
21D
100
AcDbEntity
  8
0
  6
Continuous
 62
     7
100
AcDbLine
 10
15.341326856
 20
2.0819894953
 30
0.0
 11
15.343446735
 21
2.083278761399999
 31
0.0
  0
LINE
  5
A5B
330
21D
100
AcDbEntity
  8
0
  6
Continuous
 62
     7
100
AcDbLine
 10
15.3391918129
 20
2.080705573099999
 30
0.0
 11
15.341326856
 21
2.0819894953
 31
0.0
  0
LINE
  5
A5C
330
21D
100
AcDbEntity
  8
0
  6
Continuous
 62
     7
100
AcDbLine
 10
15.3370414979
 20
2.0794271138
 30
0.0
 11
15.3391918129
 21
2.080705573099999
 31
0.0
  0
LINE
  5
A5D
330
21D
100
AcDbEntity
  8
0
  6
Continuous
 62
     7
100
AcDbLine
 10
15.3348757999
 20
2.0781542374
 30
0.0
 11
15.3370414979
 21
2.0794271138
 31
0.0
  0
LINE
  5
A5E
330
21D
100
AcDbEntity
  8
0
  6
Continuous
 62
     7
100
AcDbLine
 10
15.3326946084
 20
2.076887067699999
 30
0.0
 11
15.3348757999
 21
2.0781542374
 31
0.0
  0
LINE
  5
A5F
330
21D
100
AcDbEntity
  8
0
  6
Continuous
 62
     7
100
AcDbLine
 10
15.3304978132
 20
2.075625731699997
 30
0.0
 11
15.3326946084
 21
2.076887067699999
 31
0.0
  0
LINE
  5
A60
330
21D
100
AcDbEntity
  8
0
  6
Continuous
 62
     7
100
AcDbLine
 10
15.328285304
 20
2.0743703596
 30
0.0
 11
15.3304978132
 21
2.075625731699997
 31
0.0
  0
LINE
  5
A61
330
21D
100
AcDbEntity
  8
0
  6
Continuous
 62
     7
100
AcDbLine
 10
15.3260569706
 20
2.073121084799999
 30
0.0
 11
15.328285304
 21
2.0743703596
 31
0.0
  0
LINE
  5
A62
330
21D
100
AcDbEntity
  8
0
  6
Continuous
 62
     7
100
AcDbLine
 10
15.3238127029
 20
2.071878044199999
 30
0.0
 11
15.3260569706
 21
2.073121084799999
 31
0.0
  0
LINE
  5
A63
330
21D
100
AcDbEntity
  8
0
  6
Continuous
 62
     7
100
AcDbLine
 10
15.321552391
 20
2.070641377999999
 30
0.0
 11
15.3238127029
 21
2.071878044199999
 31
0.0
  0
LINE
  5
A64
330
21D
100
AcDbEntity
  8
0
  6
Continuous
 62
     7
100
AcDbLine
 10
15.3192759252
 20
2.0694112298
 30
0.0
 11
15.321552391
 21
2.070641377999999
 31
0.0
  0
LINE
  5
A65
330
21D
100
AcDbEntity
  8
0
  6
Continuous
 62
     7
100
AcDbLine
 10
15.3169831959
 20
2.0681877467
 30
0.0
 11
15.3192759252
 21
2.0694112298
 31
0.0
  0
LINE
  5
A66
330
21D
100
AcDbEntity
  8
0
  6
Continuous
 62
     7
100
AcDbLine
 10
15.3146740937
 20
2.0669710792
 30
0.0
 11
15.3169831959
 21
2.0681877467
 31
0.0
  0
LINE
  5
A67
330
21D
100
AcDbEntity
  8
0
  6
Continuous
 62
     7
100
AcDbLine
 10
15.3123485096
 20
2.065761381599998
 30
0.0
 11
15.3146740937
 21
2.0669710792
 31
0.0
  0
LINE
  5
A68
330
21D
100
AcDbEntity
  8
0
  6
Continuous
 62
     7
100
AcDbLine
 10
15.3100063346
 20
2.064558811599999
 30
0.0
 11
15.3123485096
 21
2.065761381599998
 31
0.0
  0
LINE
  5
A69
330
21D
100
AcDbEntity
  8
0
  6
Continuous
 62
     7
100
AcDbLine
 10
15.3076474604
 20
2.0633635306
 30
0.0
 11
15.3100063346
 21
2.064558811599999
 31
0.0
  0
LINE
  5
A6A
330
21D
100
AcDbEntity
  8
0
  6
Continuous
 62
     7
100
AcDbLine
 10
15.3052717788
 20
2.0621757036
 30
0.0
 11
15.3076474604
 21
2.0633635306
 31
0.0
  0
LINE
  5
A6B
330
21D
100
AcDbEntity
  8
0
  6
Continuous
 62
     7
100
AcDbLine
 10
15.3028791819
 20
2.0609954996
 30
0.0
 11
15.3052717788
 21
2.0621757036
 31
0.0
  0
LINE
  5
A6C
330
21D
100
AcDbEntity
  8
0
  6
Continuous
 62
     7
100
AcDbLine
 10
15.3004695624
 20
2.0598230912
 30
0.0
 11
15.3028791819
 21
2.0609954996
 31
0.0
  0
LINE
  5
A6D
330
21D
100
AcDbEntity
  8
0
  6
Continuous
 62
     7
100
AcDbLine
 10
15.2980428133
 20
2.058658654799998
 30
0.0
 11
15.3004695624
 21
2.0598230912
 31
0.0
  0
LINE
  5
A6E
330
21D
100
AcDbEntity
  8
0
  6
Continuous
 62
     7
100
AcDbLine
 10
15.2955988283
 20
2.057502370899999
 30
0.0
 11
15.2980428133
 21
2.058658654799998
 31
0.0
  0
LINE
  5
A6F
330
21D
100
AcDbEntity
  8
0
  6
Continuous
 62
     7
100
AcDbLine
 10
15.2931375012
 20
2.0563544237
 30
0.0
 11
15.2955988283
 21
2.057502370899999
 31
0.0
  0
LINE
  5
A70
330
21D
100
AcDbEntity
  8
0
  6
Continuous
 62
     7
100
AcDbLine
 10
15.2914869278
 20
2.055593849
 30
0.0
 11
15.2931375012
 21
2.0563544237
 31
0.0
  0
LINE
  5
A71
330
21D
100
AcDbEntity
  8
0
  6
Continuous
 62
     7
100
AcDbLine
 10
15.575508508
 20
2.440730809
 30
0.0
 11
15.5758175185
 21
2.44317355
 31
0.0
  0
LINE
  5
A72
330
21D
100
AcDbEntity
  8
0
  6
Continuous
 62
     7
100
AcDbLine
 10
15.5751848462
 20
2.4382714213
 30
0.0
 11
15.575508508
 21
2.440730809
 31
0.0
  0
LINE
  5
A73
330
21D
100
AcDbEntity
  8
0
  6
Continuous
 62
     7
100
AcDbLine
 10
15.5748463528
 20
2.4357960727
 30
0.0
 11
15.5751848462
 21
2.4382714213
 31
0.0
  0
LINE
  5
A74
330
21D
100
AcDbEntity
  8
0
  6
Continuous
 62
     7
100
AcDbLine
 10
16.3369872749
 20
6.604372357799997
 30
0.0
 11
16.2021685076
 21
5.649804186699999
 31
0.0
  0
LINE
  5
A75
330
21D
100
AcDbEntity
  8
0
  6
Continuous
 62
     7
100
AcDbLine
 10
15.5745442273
 20
2.4336617861
 30
0.0
 11
15.5748463528
 21
2.4357960727
 31
0.0
  0
LINE
  5
A76
330
21D
100
AcDbEntity
  8
0
  6
Continuous
 62
     7
100
AcDbLine
 10
15.5742308699
 20
2.431515996999999
 30
0.0
 11
15.5745442273
 21
2.4336617861
 31
0.0
  0
LINE
  5
A77
330
21D
100
AcDbEntity
  8
0
  6
Continuous
 62
     7
100
AcDbLine
 10
15.5739061229
 20
2.4293587931
 30
0.0
 11
15.5742308699
 21
2.431515996999999
 31
0.0
  0
LINE
  5
A78
330
21D
100
AcDbEntity
  8
0
  6
Continuous
 62
     7
100
AcDbLine
 10
15.5735698284
 20
2.4271902636
 30
0.0
 11
15.5739061229
 21
2.4293587931
 31
0.0
  0
LINE
  5
A79
330
21D
100
AcDbEntity
  8
0
  6
Continuous
 62
     7
100
AcDbLine
 10
15.5732218284
 20
2.425010499499999
 30
0.0
 11
15.5735698284
 21
2.4271902636
 31
0.0
  0
LINE
  5
A7A
330
21D
100
AcDbEntity
  8
0
  6
Continuous
 62
     7
100
AcDbLine
 10
15.5728619641
 20
2.422819593199998
 30
0.0
 11
15.5732218284
 21
2.425010499499999
 31
0.0
  0
LINE
  5
A7B
330
21D
100
AcDbEntity
  8
0
  6
Continuous
 62
     7
100
AcDbLine
 10
15.572490077
 20
2.4206176388
 30
0.0
 11
15.5728619641
 21
2.422819593199998
 31
0.0
  0
LINE
  5
A7C
330
21D
100
AcDbEntity
  8
0
  6
Continuous
 62
     7
100
AcDbLine
 10
15.5721060078
 20
2.418404731999999
 30
0.0
 11
15.572490077
 21
2.4206176388
 31
0.0
  0
LINE
  5
A7D
330
21D
100
AcDbEntity
  8
0
  6
Continuous
 62
     7
100
AcDbLine
 10
15.5717095974
 20
2.4161809703
 30
0.0
 11
15.5721060078
 21
2.418404731999999
 31
0.0
  0
LINE
  5
A7E
330
21D
100
AcDbEntity
  8
0
  6
Continuous
 62
     7
100
AcDbLine
 10
15.571300686
 20
2.413946452599998
 30
0.0
 11
15.5717095974
 21
2.4161809703
 31
0.0
  0
LINE
  5
A7F
330
21D
100
AcDbEntity
  8
0
  6
Continuous
 62
     7
100
AcDbLine
 10
15.5708791138
 20
2.411701279799999
 30
0.0
 11
15.571300686
 21
2.413946452599998
 31
0.0
  0
LINE
  5
A80
330
21D
100
AcDbEntity
  8
0
  6
Continuous
 62
     7
100
AcDbLine
 10
15.5704447208
 20
2.409445554199999
 30
0.0
 11
15.5708791138
 21
2.411701279799999
 31
0.0
  0
LINE
  5
A81
330
21D
100
AcDbEntity
  8
0
  6
Continuous
 62
     7
100
AcDbLine
 10
15.5699973466
 20
2.40717938
 30
0.0
 11
15.5704447208
 21
2.409445554199999
 31
0.0
  0
LINE
  5
A82
330
21D
100
AcDbEntity
  8
0
  6
Continuous
 62
     7
100
AcDbLine
 10
15.5695368307
 20
2.404902863199998
 30
0.0
 11
15.5699973466
 21
2.40717938
 31
0.0
  0
LINE
  5
A83
330
21D
100
AcDbEntity
  8
0
  6
Continuous
 62
     7
100
AcDbLine
 10
15.5690630122
 20
2.402616111399999
 30
0.0
 11
15.5695368307
 21
2.404902863199998
 31
0.0
  0
LINE
  5
A84
330
21D
100
AcDbEntity
  8
0
  6
Continuous
 62
     7
100
AcDbLine
 10
15.5685757302
 20
2.400319233899999
 30
0.0
 11
15.5690630122
 21
2.402616111399999
 31
0.0
  0
LINE
  5
A85
330
21D
100
AcDbEntity
  8
0
  6
Continuous
 62
     7
100
AcDbLine
 10
15.5680748235
 20
2.398012342099999
 30
0.0
 11
15.5685757302
 21
2.400319233899999
 31
0.0
  0
LINE
  5
A86
330
21D
100
AcDbEntity
  8
0
  6
Continuous
 62
     7
100
AcDbLine
 10
15.5675601307
 20
2.3956955489
 30
0.0
 11
15.5680748235
 21
2.398012342099999
 31
0.0
  0
LINE
  5
A87
330
21D
100
AcDbEntity
  8
0
  6
Continuous
 62
     7
100
AcDbLine
 10
15.5670314904
 20
2.393368969199999
 30
0.0
 11
15.5675601307
 21
2.3956955489
 31
0.0
  0
LINE
  5
A88
330
21D
100
AcDbEntity
  8
0
  6
Continuous
 62
     7
100
AcDbLine
 10
15.5664887407
 20
2.3910327197
 30
0.0
 11
15.5670314904
 21
2.393368969199999
 31
0.0
  0
LINE
  5
A89
330
21D
100
AcDbEntity
  8
0
  6
Continuous
 62
     7
100
AcDbLine
 10
15.5659317197
 20
2.388686918799999
 30
0.0
 11
15.5664887407
 21
2.3910327197
 31
0.0
  0
LINE
  5
A8A
330
21D
100
AcDbEntity
  8
0
  6
Continuous
 62
     7
100
AcDbLine
 10
15.5653602655
 20
2.386331686999997
 30
0.0
 11
15.5659317197
 21
2.388686918799999
 31
0.0
  0
LINE
  5
A8B
330
21D
100
AcDbEntity
  8
0
  6
Continuous
 62
     7
100
AcDbLine
 10
15.5647742158
 20
2.383967146499998
 30
0.0
 11
15.5653602655
 21
2.386331686999997
 31
0.0
  0
LINE
  5
A8C
330
21D
100
AcDbEntity
  8
0
  6
Continuous
 62
     7
100
AcDbLine
 10
15.5641734084
 20
2.381593421499998
 30
0.0
 11
15.5647742158
 21
2.383967146499998
 31
0.0
  0
LINE
  5
A8D
330
21D
100
AcDbEntity
  8
0
  6
Continuous
 62
     7
100
AcDbLine
 10
15.5635576806
 20
2.379210638099999
 30
0.0
 11
15.5641734084
 21
2.381593421499998
 31
0.0
  0
LINE
  5
A8E
330
21D
100
AcDbEntity
  8
0
  6
Continuous
 62
     7
100
AcDbLine
 10
15.5629268701
 20
2.3768189243
 30
0.0
 11
15.5635576806
 21
2.379210638099999
 31
0.0
  0
LINE
  5
A8F
330
21D
100
AcDbEntity
  8
0
  6
Continuous
 62
     7
100
AcDbLine
 10
15.5622807951
 20
2.3744183407
 30
0.0
 11
15.5629268701
 21
2.3768189243
 31
0.0
  0
LINE
  5
A90
330
21D
100
AcDbEntity
  8
0
  6
Continuous
 62
     7
100
AcDbLine
 10
15.5616192232
 20
2.3720087717
 30
0.0
 11
15.5622807951
 21
2.3744183407
 31
0.0
  0
LINE
  5
A91
330
21D
100
AcDbEntity
  8
0
  6
Continuous
 62
     7
100
AcDbLine
 10
15.5609419086
 20
2.3695900765
 30
0.0
 11
15.5616192232
 21
2.3720087717
 31
0.0
  0
LINE
  5
A92
330
21D
100
AcDbEntity
  8
0
  6
Continuous
 62
     7
100
AcDbLine
 10
15.5602485997
 20
2.367162118099999
 30
0.0
 11
15.5609419086
 21
2.3695900765
 31
0.0
  0
LINE
  5
A93
330
21D
100
AcDbEntity
  8
0
  6
Continuous
 62
     7
100
AcDbLine
 10
15.5595390391
 20
2.364724763299999
 30
0.0
 11
15.5602485997
 21
2.367162118099999
 31
0.0
  0
LINE
  5
A94
330
21D
100
AcDbEntity
  8
0
  6
Continuous
 62
     7
100
AcDbLine
 10
15.5588129636
 20
2.362277882999999
 30
0.0
 11
15.5595390391
 21
2.364724763299999
 31
0.0
  0
LINE
  5
A95
330
21D
100
AcDbEntity
  8
0
  6
Continuous
 62
     7
100
AcDbLine
 10
15.5580701042
 20
2.359821351899999
 30
0.0
 11
15.5588129636
 21
2.362277882999999
 31
0.0
  0
LINE
  5
A96
330
21D
100
AcDbEntity
  8
0
  6
Continuous
 62
     7
100
AcDbLine
 10
15.5574380354
 20
2.357766783499998
 30
0.0
 11
15.5580701042
 21
2.359821351899999
 31
0.0
  0
LINE
  5
A97
330
21D
100
AcDbEntity
  8
0
  6
Continuous
 62
     7
100
AcDbLine
 10
15.5567939573
 20
2.355705360199999
 30
0.0
 11
15.5574380354
 21
2.357766783499998
 31
0.0
  0
LINE
  5
A98
330
21D
100
AcDbEntity
  8
0
  6
Continuous
 62
     7
100
AcDbLine
 10
15.5561377055
 20
2.353637018799997
 30
0.0
 11
15.5567939573
 21
2.355705360199999
 31
0.0
  0
LINE
  5
A99
330
21D
100
AcDbEntity
  8
0
  6
Continuous
 62
     7
100
AcDbLine
 10
15.5554691113
 20
2.351561694699999
 30
0.0
 11
15.5561377055
 21
2.353637018799997
 31
0.0
  0
LINE
  5
A9A
330
21D
100
AcDbEntity
  8
0
  6
Continuous
 62
     7
100
AcDbLine
 10
15.5547880031
 20
2.349479325499999
 30
0.0
 11
15.5554691113
 21
2.351561694699999
 31
0.0
  0
LINE
  5
A9B
330
21D
100
AcDbEntity
  8
0
  6
Continuous
 62
     7
100
AcDbLine
 10
15.5540942076
 20
2.347389854799998
 30
0.0
 11
15.5547880031
 21
2.349479325499999
 31
0.0
  0
LINE
  5
A9C
330
21D
100
AcDbEntity
  8
0
  6
Continuous
 62
     7
100
AcDbLine
 10
15.5533875471
 20
2.345293224699998
 30
0.0
 11
15.5540942076
 21
2.347389854799998
 31
0.0
  0
LINE
  5
A9D
330
21D
100
AcDbEntity
  8
0
  6
Continuous
 62
     7
100
AcDbLine
 10
15.5526678411
 20
2.3431893801
 30
0.0
 11
15.5533875471
 21
2.345293224699998
 31
0.0
  0
LINE
  5
A9E
330
21D
100
AcDbEntity
  8
0
  6
Continuous
 62
     7
100
AcDbLine
 10
15.551934907
 20
2.341078271599998
 30
0.0
 11
15.5526678411
 21
2.3431893801
 31
0.0
  0
LINE
  5
A9F
330
21D
100
AcDbEntity
  8
0
  6
Continuous
 62
     7
100
AcDbLine
 10
15.5511885582
 20
2.338959848899997
 30
0.0
 11
15.551934907
 21
2.341078271599998
 31
0.0
  0
LINE
  5
AA0
330
21D
100
AcDbEntity
  8
0
  6
Continuous
 62
     7
100
AcDbLine
 10
15.5504286049
 20
2.3368340643
 30
0.0
 11
15.5511885582
 21
2.338959848899997
 31
0.0
  0
LINE
  5
AA1
330
21D
100
AcDbEntity
  8
0
  6
Continuous
 62
     7
100
AcDbLine
 10
15.5496548554
 20
2.334700876199998
 30
0.0
 11
15.5504286049
 21
2.3368340643
 31
0.0
  0
LINE
  5
AA2
330
21D
100
AcDbEntity
  8
0
  6
Continuous
 62
     7
100
AcDbLine
 10
15.5488671135
 20
2.3325602423
 30
0.0
 11
15.5496548554
 21
2.334700876199998
 31
0.0
  0
LINE
  5
AA3
330
21D
100
AcDbEntity
  8
0
  6
Continuous
 62
     7
100
AcDbLine
 10
15.54806518
 20
2.330412122799998
 30
0.0
 11
15.5488671135
 21
2.3325602423
 31
0.0
  0
LINE
  5
AA4
330
21D
100
AcDbEntity
  8
0
  6
Continuous
 62
     7
100
AcDbLine
 10
15.5472488538
 20
2.3282564846
 30
0.0
 11
15.54806518
 21
2.330412122799998
 31
0.0
  0
LINE
  5
AA5
330
21D
100
AcDbEntity
  8
0
  6
Continuous
 62
     7
100
AcDbLine
 10
15.5464179293
 20
2.3260932938
 30
0.0
 11
15.5472488538
 21
2.3282564846
 31
0.0
  0
LINE
  5
AA6
330
21D
100
AcDbEntity
  8
0
  6
Continuous
 62
     7
100
AcDbLine
 10
15.5455721974
 20
2.323922519499999
 30
0.0
 11
15.5464179293
 21
2.3260932938
 31
0.0
  0
LINE
  5
AA7
330
21D
100
AcDbEntity
  8
0
  6
Continuous
 62
     7
100
AcDbLine
 10
15.5447114475
 20
2.3217441372
 30
0.0
 11
15.5455721974
 21
2.323922519499999
 31
0.0
  0
LINE
  5
AA8
330
21D
100
AcDbEntity
  8
0
  6
Continuous
 62
     7
100
AcDbLine
 10
15.5438354641
 20
2.319558122299997
 30
0.0
 11
15.5447114475
 21
2.3217441372
 31
0.0
  0
LINE
  5
AA9
330
21D
100
AcDbEntity
  8
0
  6
Continuous
 62
     7
100
AcDbLine
 10
15.5429440284
 20
2.317364453
 30
0.0
 11
15.5438354641
 21
2.319558122299997
 31
0.0
  0
LINE
  5
AAA
330
21D
100
AcDbEntity
  8
0
  6
Continuous
 62
     7
100
AcDbLine
 10
15.542036931
 20
2.315163137599999
 30
0.0
 11
15.5429440284
 21
2.317364453
 31
0.0
  0
LINE
  5
AAB
330
21D
100
AcDbEntity
  8
0
  6
Continuous
 62
     7
100
AcDbLine
 10
15.5411139977
 20
2.3129542455
 30
0.0
 11
15.542036931
 21
2.315163137599999
 31
0.0
  0
LINE
  5
AAC
330
21D
100
AcDbEntity
  8
0
  6
Continuous
 62
     7
100
AcDbLine
 10
15.5401750652
 20
2.310737858199999
 30
0.0
 11
15.5411139977
 21
2.3129542455
 31
0.0
  0
LINE
  5
AAD
330
21D
100
AcDbEntity
  8
0
  6
Continuous
 62
     7
100
AcDbLine
 10
15.5392199695
 20
2.308514060299998
 30
0.0
 11
15.5401750652
 21
2.310737858199999
 31
0.0
  0
LINE
  5
AAE
330
21D
100
AcDbEntity
  8
0
  6
Continuous
 62
     7
100
AcDbLine
 10
15.5382485455
 20
2.306282937599998
 30
0.0
 11
15.5392199695
 21
2.308514060299998
 31
0.0
  0
LINE
  5
AAF
330
21D
100
AcDbEntity
  8
0
  6
Continuous
 62
     7
100
AcDbLine
 10
15.5372606275
 20
2.3040445785
 30
0.0
 11
15.5382485455
 21
2.306282937599998
 31
0.0
  0
LINE
  5
AB0
330
21D
100
AcDbEntity
  8
0
  6
Continuous
 62
     7
100
AcDbLine
 10
15.5362560495
 20
2.301799074699999
 30
0.0
 11
15.5372606275
 21
2.3040445785
 31
0.0
  0
LINE
  5
AB1
330
21D
100
AcDbEntity
  8
0
  6
Continuous
 62
     7
100
AcDbLine
 10
15.5352346443
 20
2.2995465193
 30
0.0
 11
15.5362560495
 21
2.301799074699999
 31
0.0
  0
LINE
  5
AB2
330
21D
100
AcDbEntity
  8
0
  6
Continuous
 62
     7
100
AcDbLine
 10
15.534196244
 20
2.297287008
 30
0.0
 11
15.5352346443
 21
2.2995465193
 31
0.0
  0
LINE
  5
AB3
330
21D
100
AcDbEntity
  8
0
  6
Continuous
 62
     7
100
AcDbLine
 10
15.5331406808
 20
2.295020640099997
 30
0.0
 11
15.534196244
 21
2.297287008
 31
0.0
  0
LINE
  5
AB4
330
21D
100
AcDbEntity
  8
0
  6
Continuous
 62
     7
100
AcDbLine
 10
15.5320677854
 20
2.292747516299999
 30
0.0
 11
15.5331406808
 21
2.295020640099997
 31
0.0
  0
LINE
  5
AB5
330
21D
100
AcDbEntity
  8
0
  6
Continuous
 62
     7
100
AcDbLine
 10
15.5309773881
 20
2.290467739999999
 30
0.0
 11
15.5320677854
 21
2.292747516299999
 31
0.0
  0
LINE
  5
AB6
330
21D
100
AcDbEntity
  8
0
  6
Continuous
 62
     7
100
AcDbLine
 10
15.529869319
 20
2.2881814183
 30
0.0
 11
15.5309773881
 21
2.290467739999999
 31
0.0
  0
LINE
  5
AB7
330
21D
100
AcDbEntity
  8
0
  6
Continuous
 62
     7
100
AcDbLine
 10
15.5287434071
 20
2.285888659799999
 30
0.0
 11
15.529869319
 21
2.2881814183
 31
0.0
  0
LINE
  5
AB8
330
21D
100
AcDbEntity
  8
0
  6
Continuous
 62
     7
100
AcDbLine
 10
15.5275994808
 20
2.2835895762
 30
0.0
 11
15.5287434071
 21
2.285888659799999
 31
0.0
  0
LINE
  5
AB9
330
21D
100
AcDbEntity
  8
0
  6
Continuous
 62
     7
100
AcDbLine
 10
15.5264373685
 20
2.281284282599997
 30
0.0
 11
15.5275994808
 21
2.2835895762
 31
0.0
  0
LINE
  5
ABA
330
21D
100
AcDbEntity
  8
0
  6
Continuous
 62
     7
100
AcDbLine
 10
15.5252568972
 20
2.278972895999999
 30
0.0
 11
15.5264373685
 21
2.281284282599997
 31
0.0
  0
LINE
  5
ABB
330
21D
100
AcDbEntity
  8
0
  6
Continuous
 62
     7
100
AcDbLine
 10
15.5240578938
 20
2.276655536399998
 30
0.0
 11
15.5252568972
 21
2.278972895999999
 31
0.0
  0
LINE
  5
ABC
330
21D
100
AcDbEntity
  8
0
  6
Continuous
 62
     7
100
AcDbLine
 10
15.5228401848
 20
2.274332327499998
 30
0.0
 11
15.5240578938
 21
2.276655536399998
 31
0.0
  0
LINE
  5
ABD
330
21D
100
AcDbEntity
  8
0
  6
Continuous
 62
     7
100
AcDbLine
 10
15.5216035959
 20
2.272003395
 30
0.0
 11
15.5228401848
 21
2.274332327499998
 31
0.0
  0
LINE
  5
ABE
330
21D
100
AcDbEntity
  8
0
  6
Continuous
 62
     7
100
AcDbLine
 10
15.5203479522
 20
2.2696688677
 30
0.0
 11
15.5216035959
 21
2.272003395
 31
0.0
  0
LINE
  5
ABF
330
21D
100
AcDbEntity
  8
0
  6
Continuous
 62
     7
100
AcDbLine
 10
15.5190730786
 20
2.267328878
 30
0.0
 11
15.5203479522
 21
2.2696688677
 31
0.0
  0
LINE
  5
AC0
330
21D
100
AcDbEntity
  8
0
  6
Continuous
 62
     7
100
AcDbLine
 10
15.5177787993
 20
2.2649835609
 30
0.0
 11
15.5190730786
 21
2.267328878
 31
0.0
  0
LINE
  5
AC1
330
21D
100
AcDbEntity
  8
0
  6
Continuous
 62
     7
100
AcDbLine
 10
15.5164649379
 20
2.262633054199997
 30
0.0
 11
15.5177787993
 21
2.2649835609
 31
0.0
  0
LINE
  5
AC2
330
21D
100
AcDbEntity
  8
0
  6
Continuous
 62
     7
100
AcDbLine
 10
15.5153996313
 20
2.260749007899998
 30
0.0
 11
15.5164649379
 21
2.262633054199997
 31
0.0
  0
LINE
  5
AC3
330
21D
100
AcDbEntity
  8
0
  6
Continuous
 62
     7
100
AcDbLine
 10
15.5143215869
 20
2.2588618018
 30
0.0
 11
15.5153996313
 21
2.260749007899998
 31
0.0
  0
LINE
  5
AC4
330
21D
100
AcDbEntity
  8
0
  6
Continuous
 62
     7
100
AcDbLine
 10
15.5132307113
 20
2.256971506599998
 30
0.0
 11
15.5143215869
 21
2.2588618018
 31
0.0
  0
LINE
  5
AC5
330
21D
100
AcDbEntity
  8
0
  6
Continuous
 62
     7
100
AcDbLine
 10
15.5121269112
 20
2.2550781952
 30
0.0
 11
15.5132307113
 21
2.256971506599998
 31
0.0
  0
LINE
  5
AC6
330
21D
100
AcDbEntity
  8
0
  6
Continuous
 62
     7
100
AcDbLine
 10
15.5110100926
 20
2.253181940999998
 30
0.0
 11
15.5121269112
 21
2.2550781952
 31
0.0
  0
LINE
  5
AC7
330
21D
100
AcDbEntity
  8
0
  6
Continuous
 62
     7
100
AcDbLine
 10
15.5098801617
 20
2.2512828197
 30
0.0
 11
15.5110100926
 21
2.253181940999998
 31
0.0
  0
LINE
  5
AC8
330
21D
100
AcDbEntity
  8
0
  6
Continuous
 62
     7
100
AcDbLine
 10
15.5087370249
 20
2.2493809086
 30
0.0
 11
15.5098801617
 21
2.2512828197
 31
0.0
  0
LINE
  5
AC9
330
21D
100
AcDbEntity
  8
0
  6
Continuous
 62
     7
100
AcDbLine
 10
15.5075805872
 20
2.2474762852
 30
0.0
 11
15.5087370249
 21
2.2493809086
 31
0.0
  0
LINE
  5
ACA
330
21D
100
AcDbEntity
  8
0
  6
Continuous
 62
     7
100
AcDbLine
 10
15.5064107543
 20
2.245569029499999
 30
0.0
 11
15.5075805872
 21
2.2474762852
 31
0.0
  0
LINE
  5
ACB
330
21D
100
AcDbEntity
  8
0
  6
Continuous
 62
     7
100
AcDbLine
 10
15.5052274317
 20
2.243659223
 30
0.0
 11
15.5064107543
 21
2.245569029499999
 31
0.0
  0
LINE
  5
ACC
330
21D
100
AcDbEntity
  8
0
  6
Continuous
 62
     7
100
AcDbLine
 10
15.5040305239
 20
2.241746947499998
 30
0.0
 11
15.5052274317
 21
2.243659223
 31
0.0
  0
LINE
  5
ACD
330
21D
100
AcDbEntity
  8
0
  6
Continuous
 62
     7
100
AcDbLine
 10
15.5028199359
 20
2.2398322875
 30
0.0
 11
15.5040305239
 21
2.241746947499998
 31
0.0
  0
LINE
  5
ACE
330
21D
100
AcDbEntity
  8
0
  6
Continuous
 62
     7
100
AcDbLine
 10
15.5015955724
 20
2.237915329
 30
0.0
 11
15.5028199359
 21
2.2398322875
 31
0.0
  0
LINE
  5
ACF
330
21D
100
AcDbEntity
  8
0
  6
Continuous
 62
     7
100
AcDbLine
 10
15.5003573375
 20
2.235996158199998
 30
0.0
 11
15.5015955724
 21
2.237915329
 31
0.0
  0
LINE
  5
AD0
330
21D
100
AcDbEntity
  8
0
  6
Continuous
 62
     7
100
AcDbLine
 10
15.4991051354
 20
2.234074864199997
 30
0.0
 11
15.5003573375
 21
2.235996158199998
 31
0.0
  0
LINE
  5
AD1
330
21D
100
AcDbEntity
  8
0
  6
Continuous
 62
     7
100
AcDbLine
 10
15.4978388704
 20
2.2321515375
 30
0.0
 11
15.4991051354
 21
2.234074864199997
 31
0.0
  0
LINE
  5
AD2
330
21D
100
AcDbEntity
  8
0
  6
Continuous
 62
     7
100
AcDbLine
 10
15.4965584458
 20
2.230226269199997
 30
0.0
 11
15.4978388704
 21
2.2321515375
 31
0.0
  0
LINE
  5
AD3
330
21D
100
AcDbEntity
  8
0
  6
Continuous
 62
     7
100
AcDbLine
 10
15.4952637654
 20
2.2282991528
 30
0.0
 11
15.4965584458
 21
2.230226269199997
 31
0.0
  0
LINE
  5
AD4
330
21D
100
AcDbEntity
  8
0
  6
Continuous
 62
     7
100
AcDbLine
 10
15.4939547328
 20
2.2263702837
 30
0.0
 11
15.4952637654
 21
2.2282991528
 31
0.0
  0
LINE
  5
AD5
330
21D
100
AcDbEntity
  8
0
  6
Continuous
 62
     7
100
AcDbLine
 10
15.4926312508
 20
2.224439757899999
 30
0.0
 11
15.4939547328
 21
2.2263702837
 31
0.0
  0
LINE
  5
AD6
330
21D
100
AcDbEntity
  8
0
  6
Continuous
 62
     7
100
AcDbLine
 10
15.4912932228
 20
2.2225076737
 30
0.0
 11
15.4926312508
 21
2.224439757899999
 31
0.0
  0
LINE
  5
AD7
330
21D
100
AcDbEntity
  8
0
  6
Continuous
 62
     7
100
AcDbLine
 10
15.4899405518
 20
2.220574131399998
 30
0.0
 11
15.4912932228
 21
2.2225076737
 31
0.0
  0
LINE
  5
AD8
330
21D
100
AcDbEntity
  8
0
  6
Continuous
 62
     7
100
AcDbLine
 10
15.4885731402
 20
2.2186392319
 30
0.0
 11
15.4899405518
 21
2.220574131399998
 31
0.0
  0
LINE
  5
AD9
330
21D
100
AcDbEntity
  8
0
  6
Continuous
 62
     7
100
AcDbLine
 10
15.4871908908
 20
2.2167030788
 30
0.0
 11
15.4885731402
 21
2.2186392319
 31
0.0
  0
LINE
  5
ADA
330
21D
100
AcDbEntity
  8
0
  6
Continuous
 62
     7
100
AcDbLine
 10
15.4857937063
 20
2.2147657774
 30
0.0
 11
15.4871908908
 21
2.2167030788
 31
0.0
  0
LINE
  5
ADB
330
21D
100
AcDbEntity
  8
0
  6
Continuous
 62
     7
100
AcDbLine
 10
15.4843814885
 20
2.2128274337
 30
0.0
 11
15.4857937063
 21
2.2147657774
 31
0.0
  0
LINE
  5
ADC
330
21D
100
AcDbEntity
  8
0
  6
Continuous
 62
     7
100
AcDbLine
 10
15.4829541399
 20
2.210888156399998
 30
0.0
 11
15.4843814885
 21
2.2128274337
 31
0.0
  0
LINE
  5
ADD
330
21D
100
AcDbEntity
  8
0
  6
Continuous
 62
     7
100
AcDbLine
 10
15.4815115628
 20
2.2089480562
 30
0.0
 11
15.4829541399
 21
2.210888156399998
 31
0.0
  0
LINE
  5
ADE
330
21D
100
AcDbEntity
  8
0
  6
Continuous
 62
     7
100
AcDbLine
 10
15.4800536587
 20
2.2070072444
 30
0.0
 11
15.4815115628
 21
2.2089480562
 31
0.0
  0
LINE
  5
ADF
330
21D
100
AcDbEntity
  8
0
  6
Continuous
 62
     7
100
AcDbLine
 10
15.4785803296
 20
2.2050658353
 30
0.0
 11
15.4800536587
 21
2.2070072444
 31
0.0
  0
LINE
  5
AE0
330
21D
100
AcDbEntity
  8
0
  6
Continuous
 62
     7
100
AcDbLine
 10
15.4770914775
 20
2.2031239447
 30
0.0
 11
15.4785803296
 21
2.2050658353
 31
0.0
  0
LINE
  5
AE1
330
21D
100
AcDbEntity
  8
0
  6
Continuous
 62
     7
100
AcDbLine
 10
15.4755870037
 20
2.201181689699998
 30
0.0
 11
15.4770914775
 21
2.2031239447
 31
0.0
  0
LINE
  5
AE2
330
21D
100
AcDbEntity
  8
0
  6
Continuous
 62
     7
100
AcDbLine
 10
15.4740668097
 20
2.19923919
 30
0.0
 11
15.4755870037
 21
2.201181689699998
 31
0.0
  0
LINE
  5
AE3
330
21D
100
AcDbEntity
  8
0
  6
Continuous
 62
     7
100
AcDbLine
 10
15.4725307975
 20
2.197296567199999
 30
0.0
 11
15.4740668097
 21
2.19923919
 31
0.0
  0
LINE
  5
AE4
330
21D
100
AcDbEntity
  8
0
  6
Continuous
 62
     7
100
AcDbLine
 10
15.4709788679
 20
2.195353943899998
 30
0.0
 11
15.4725307975
 21
2.197296567199999
 31
0.0
  0
LINE
  5
AE5
330
21D
100
AcDbEntity
  8
0
  6
Continuous
 62
     7
100
AcDbLine
 10
15.4694109223
 20
2.1934114458
 30
0.0
 11
15.4709788679
 21
2.195353943899998
 31
0.0
  0
LINE
  5
AE6
330
21D
100
AcDbEntity
  8
0
  6
Continuous
 62
     7
100
AcDbLine
 10
15.4678268631
 20
2.1914692008
 30
0.0
 11
15.4694109223
 21
2.1934114458
 31
0.0
  0
LINE
  5
AE7
330
21D
100
AcDbEntity
  8
0
  6
Continuous
 62
     7
100
AcDbLine
 10
15.4662265783
 20
2.1895273226
 30
0.0
 11
15.4678268631
 21
2.1914692008
 31
0.0
  0
LINE
  5
AE8
330
21D
100
AcDbEntity
  8
0
  6
Continuous
 62
     7
100
AcDbLine
 10
15.4646099212
 20
2.187585885599999
 30
0.0
 11
15.4662265783
 21
2.1895273226
 31
0.0
  0
LINE
  5
AE9
330
21D
100
AcDbEntity
  8
0
  6
Continuous
 62
     7
100
AcDbLine
 10
15.4629767344
 20
2.185644955699999
 30
0.0
 11
15.4646099212
 21
2.187585885599999
 31
0.0
  0
LINE
  5
AEA
330
21D
100
AcDbEntity
  8
0
  6
Continuous
 62
     7
100
AcDbLine
 10
15.4613268557
 20
2.183704598699998
 30
0.0
 11
15.4629767344
 21
2.185644955699999
 31
0.0
  0
LINE
  5
AEB
330
21D
100
AcDbEntity
  8
0
  6
Continuous
 62
     7
100
AcDbLine
 10
15.4596601249
 20
2.181764887699999
 30
0.0
 11
15.4613268557
 21
2.183704598699998
 31
0.0
  0
LINE
  5
AEC
330
21D
100
AcDbEntity
  8
0
  6
Continuous
 62
     7
100
AcDbLine
 10
15.4579763805
 20
2.179825899299999
 30
0.0
 11
15.4596601249
 21
2.181764887699999
 31
0.0
  0
LINE
  5
AED
330
21D
100
AcDbEntity
  8
0
  6
Continuous
 62
     7
100
AcDbLine
 10
15.4562754562
 20
2.1778877093
 30
0.0
 11
15.4579763805
 21
2.179825899299999
 31
0.0
  0
LINE
  5
AEE
330
21D
100
AcDbEntity
  8
0
  6
Continuous
 62
     7
100
AcDbLine
 10
15.4545571877
 20
2.175950401399997
 30
0.0
 11
15.4562754562
 21
2.1778877093
 31
0.0
  0
LINE
  5
AEF
330
21D
100
AcDbEntity
  8
0
  6
Continuous
 62
     7
100
AcDbLine
 10
15.4528214094
 20
2.174014062999999
 30
0.0
 11
15.4545571877
 21
2.175950401399997
 31
0.0
  0
LINE
  5
AF0
330
21D
100
AcDbEntity
  8
0
  6
Continuous
 62
     7
100
AcDbLine
 10
15.4510679507
 20
2.172078780699997
 30
0.0
 11
15.4528214094
 21
2.174014062999999
 31
0.0
  0
LINE
  5
AF1
330
21D
100
AcDbEntity
  8
0
  6
Continuous
 62
     7
100
AcDbLine
 10
15.4492966433
 20
2.1701446493
 30
0.0
 11
15.4510679507
 21
2.172078780699997
 31
0.0
  0
LINE
  5
AF2
330
21D
100
AcDbEntity
  8
0
  6
Continuous
 62
     7
100
AcDbLine
 10
15.4475073175
 20
2.168211767199998
 30
0.0
 11
15.4492966433
 21
2.1701446493
 31
0.0
  0
LINE
  5
AF3
330
21D
100
AcDbEntity
  8
0
  6
Continuous
 62
     7
100
AcDbLine
 10
15.4456997987
 20
2.166280232599997
 30
0.0
 11
15.4475073175
 21
2.168211767199998
 31
0.0
  0
LINE
  5
AF4
330
21D
100
AcDbEntity
  8
0
  6
Continuous
 62
     7
100
AcDbLine
 10
15.4438739147
 20
2.164350151799999
 30
0.0
 11
15.4456997987
 21
2.166280232599997
 31
0.0
  0
LINE
  5
AF5
330
21D
100
AcDbEntity
  8
0
  6
Continuous
 62
     7
100
AcDbLine
 10
15.4420294917
 20
2.1624216349
 30
0.0
 11
15.4438739147
 21
2.164350151799999
 31
0.0
  0
LINE
  5
AF6
330
21D
100
AcDbEntity
  8
0
  6
Continuous
 62
     7
100
AcDbLine
 10
15.4401663513
 20
2.160494792299997
 30
0.0
 11
15.4420294917
 21
2.1624216349
 31
0.0
  0
LINE
  5
AF7
330
21D
100
AcDbEntity
  8
0
  6
Continuous
 62
     7
100
AcDbLine
 10
15.4382843187
 20
2.158569740899999
 30
0.0
 11
15.4401663513
 21
2.160494792299997
 31
0.0
  0
LINE
  5
AF8
330
21D
100
AcDbEntity
  8
0
  6
Continuous
 62
     7
100
AcDbLine
 10
15.4363832316
 20
2.1566465887
 30
0.0
 11
15.4382843187
 21
2.158569740899999
 31
0.0
  0
LINE
  5
AF9
330
21D
100
AcDbEntity
  8
0
  6
Continuous
 62
     7
100
AcDbLine
 10
15.4344629304
 20
2.1547254365
 30
0.0
 11
15.4363832316
 21
2.1566465887
 31
0.0
  0
LINE
  5
AFA
330
21D
100
AcDbEntity
  8
0
  6
Continuous
 62
     7
100
AcDbLine
 10
15.432523259
 20
2.1528063924
 30
0.0
 11
15.4344629304
 21
2.1547254365
 31
0.0
  0
LINE
  5
AFB
330
21D
100
AcDbEntity
  8
0
  6
Continuous
 62
     7
100
AcDbLine
 10
15.4305640605
 20
2.150889568499998
 30
0.0
 11
15.432523259
 21
2.1528063924
 31
0.0
  0
LINE
  5
AFC
330
21D
100
AcDbEntity
  8
0
  6
Continuous
 62
     7
100
AcDbLine
 10
15.4285851737
 20
2.148975076699997
 30
0.0
 11
15.4305640605
 21
2.150889568499998
 31
0.0
  0
LINE
  5
AFD
330
21D
100
AcDbEntity
  8
0
  6
Continuous
 62
     7
100
AcDbLine
 10
15.4265864408
 20
2.1470630369
 30
0.0
 11
15.4285851737
 21
2.148975076699997
 31
0.0
  0
LINE
  5
AFE
330
21D
100
AcDbEntity
  8
0
  6
Continuous
 62
     7
100
AcDbLine
 10
15.4245677034
 20
2.145153572699999
 30
0.0
 11
15.4265864408
 21
2.1470630369
 31
0.0
  0
LINE
  5
AFF
330
21D
100
AcDbEntity
  8
0
  6
Continuous
 62
     7
100
AcDbLine
 10
15.4225287989
 20
2.143246808
 30
0.0
 11
15.4245677034
 21
2.145153572699999
 31
0.0
  0
LINE
  5
B00
330
21D
100
AcDbEntity
  8
0
  6
Continuous
 62
     7
100
AcDbLine
 10
15.4204695679
 20
2.141342874499998
 30
0.0
 11
15.4225287989
 21
2.143246808
 31
0.0
  0
LINE
  5
B01
330
21D
100
AcDbEntity
  8
0
  6
Continuous
 62
     7
100
AcDbLine
 10
15.4183898509
 20
2.139441908
 30
0.0
 11
15.4204695679
 21
2.141342874499998
 31
0.0
  0
LINE
  5
B02
330
21D
100
AcDbEntity
  8
0
  6
Continuous
 62
     7
100
AcDbLine
 10
15.416289484
 20
2.137544044999998
 30
0.0
 11
15.4183898509
 21
2.139441908
 31
0.0
  0
LINE
  5
B03
330
21D
100
AcDbEntity
  8
0
  6
Continuous
 62
     7
100
AcDbLine
 10
15.4141683069
 20
2.135649429599999
 30
0.0
 11
15.416289484
 21
2.137544044999998
 31
0.0
  0
LINE
  5
B04
330
21D
100
AcDbEntity
  8
0
  6
Continuous
 62
     7
100
AcDbLine
 10
15.4120261593
 20
2.133758210399999
 30
0.0
 11
15.4141683069
 21
2.135649429599999
 31
0.0
  0
LINE
  5
B05
330
21D
100
AcDbEntity
  8
0
  6
Continuous
 62
     7
100
AcDbLine
 10
15.4098628762
 20
2.1318705368
 30
0.0
 11
15.4120261593
 21
2.133758210399999
 31
0.0
  0
LINE
  5
B06
330
21D
100
AcDbEntity
  8
0
  6
Continuous
 62
     7
100
AcDbLine
 10
15.4082264471
 20
2.130457202899997
 30
0.0
 11
15.4098628762
 21
2.1318705368
 31
0.0
  0
LINE
  5
B07
330
21D
100
AcDbEntity
  8
0
  6
Continuous
 62
     7
100
AcDbLine
 10
15.4065779625
 20
2.129046012699999
 30
0.0
 11
15.4082264471
 21
2.130457202899997
 31
0.0
  0
LINE
  5
B08
330
21D
100
AcDbEntity
  8
0
  6
Continuous
 62
     7
100
AcDbLine
 10
15.4049173385
 20
2.1276370222
 30
0.0
 11
15.4065779625
 21
2.129046012699999
 31
0.0
  0
LINE
  5
B09
330
21D
100
AcDbEntity
  8
0
  6
Continuous
 62
     7
100
AcDbLine
 10
15.4032444903
 20
2.126230288899999
 30
0.0
 11
15.4049173385
 21
2.1276370222
 31
0.0
  0
LINE
  5
B0A
330
21D
100
AcDbEntity
  8
0
  6
Continuous
 62
     7
100
AcDbLine
 10
15.4015593331
 20
2.1248258721
 30
0.0
 11
15.4032444903
 21
2.126230288899999
 31
0.0
  0
LINE
  5
B0B
330
21D
100
AcDbEntity
  8
0
  6
Continuous
 62
     7
100
AcDbLine
 10
15.3998617817
 20
2.123423832799999
 30
0.0
 11
15.4015593331
 21
2.1248258721
 31
0.0
  0
LINE
  5
B0C
330
21D
100
AcDbEntity
  8
0
  6
Continuous
 62
     7
100
AcDbLine
 10
15.3981517507
 20
2.122024233699999
 30
0.0
 11
15.3998617817
 21
2.123423832799999
 31
0.0
  0
LINE
  5
B0D
330
21D
100
AcDbEntity
  8
0
  6
Continuous
 62
     7
100
AcDbLine
 10
15.3964291544
 20
2.120627139399998
 30
0.0
 11
15.3981517507
 21
2.122024233699999
 31
0.0
  0
LINE
  5
B0E
330
21D
100
AcDbEntity
  8
0
  6
Continuous
 62
     7
100
AcDbLine
 10
15.3946939069
 20
2.1192326161
 30
0.0
 11
15.3964291544
 21
2.120627139399998
 31
0.0
  0
LINE
  5
B0F
330
21D
100
AcDbEntity
  8
0
  6
Continuous
 62
     7
100
AcDbLine
 10
15.3929459221
 20
2.117840732299999
 30
0.0
 11
15.3946939069
 21
2.1192326161
 31
0.0
  0
LINE
  5
B10
330
21D
100
AcDbEntity
  8
0
  6
Continuous
 62
     7
100
AcDbLine
 10
15.3911851137
 20
2.1164515577
 30
0.0
 11
15.3929459221
 21
2.117840732299999
 31
0.0
  0
LINE
  5
B11
330
21D
100
AcDbEntity
  8
0
  6
Continuous
 62
     7
100
AcDbLine
 10
15.389411395
 20
2.115065164499998
 30
0.0
 11
15.3911851137
 21
2.1164515577
 31
0.0
  0
LINE
  5
B12
330
21D
100
AcDbEntity
  8
0
  6
Continuous
 62
     7
100
AcDbLine
 10
15.3876246794
 20
2.1136816264
 30
0.0
 11
15.389411395
 21
2.115065164499998
 31
0.0
  0
LINE
  5
B13
330
21D
100
AcDbEntity
  8
0
  6
Continuous
 62
     7
100
AcDbLine
 10
15.38582488
 20
2.112301019199998
 30
0.0
 11
15.3876246794
 21
2.1136816264
 31
0.0
  0
LINE
  5
B14
330
21D
100
AcDbEntity
  8
0
  6
Continuous
 62
     7
100
AcDbLine
 10
15.3840119095
 20
2.110923420599998
 30
0.0
 11
15.38582488
 21
2.112301019199998
 31
0.0
  0
LINE
  5
B15
330
21D
100
AcDbEntity
  8
0
  6
Continuous
 62
     7
100
AcDbLine
 10
15.382185681
 20
2.1095489102
 30
0.0
 11
15.3840119095
 21
2.110923420599998
 31
0.0
  0
LINE
  5
B16
330
21D
100
AcDbEntity
  8
0
  6
Continuous
 62
     7
100
AcDbLine
 10
15.3809607871
 20
2.108634326299998
 30
0.0
 11
15.382185681
 21
2.1095489102
 31
0.0
  0
LINE
  5
B17
330
21D
100
AcDbEntity
  8
CURVE1
  6
Continuous
 62
     7
100
AcDbLine
 10
17.0318282051
 20
6.910645275599999
 30
0.0
 11
17.0318282051
 21
7.0976531496
 31
0.0
  0
ARC
  5
C5D
330
21D
100
AcDbEntity
  8
0
  6
Continuous
 62
     7
100
AcDbCircle
 10
-4.156855741499997
 20
1.45036326
 30
0.0
 40
11.683935467
100
AcDbArc
 50
1.002274309099999
 51
1.186182615999999
  0
ARC
  5
C5E
330
21D
100
AcDbEntity
  8
0
  6
Continuous
 62
     7
100
AcDbCircle
 10
-0.216917657
 20
1.5135895724
 30
0.0
 40
7.7429327907
100
AcDbArc
 50
1.044534263199998
 51
1.321988479899999
  0
ARC
  5
C5F
330
21D
100
AcDbEntity
  8
0
  6
Continuous
 62
     7
100
AcDbCircle
 10
7.318758807999999
 20
4.6696270579
 30
0.0
 40
2.979056143199997
100
AcDbArc
 50
270.3478081689
 51
270.5806455295
  0
ARC
  5
C60
330
21D
100
AcDbEntity
  8
0
  6
Continuous
 62
     7
100
AcDbCircle
 10
7.526784308499999
 20
1.4934474737
 30
0.0
 40
0.1987994599
100
AcDbArc
 50
90.6364939358
 51
90.81569317600001
  0
ARC
  5
C61
330
21D
100
AcDbEntity
  8
0
  6
Continuous
 62
     7
100
AcDbCircle
 10
7.1083645917
 20
1.5404595768
 30
0.0
 40
0.1807514754
100
AcDbArc
 50
39.216346595
 51
55.63650583859999
  0
ARC
  5
C62
330
21D
100
AcDbEntity
  8
0
  6
Continuous
 62
     7
100
AcDbCircle
 10
7.071418119099996
 20
1.6413042869
 30
0.0
 40
0.1098173865
100
AcDbArc
 50
84.7309902369
 51
84.90951676279998
  0
ARC
  5
C63
330
21D
100
AcDbEntity
  8
0
  6
Continuous
 62
     7
100
AcDbCircle
 10
7.0715433757
 20
1.642758255599999
 30
0.0
 40
0.1083580388
100
AcDbArc
 50
84.9072714246
 51
86.11638498319997
  0
ARC
  5
C64
330
21D
100
AcDbEntity
  8
0
  6
Continuous
 62
     7
100
AcDbCircle
 10
4.840700820799999
 20
7.252694564099996
 30
0.0
 40
11.4742330032
100
AcDbArc
 50
342.5099012516
 51
345.398415184
  0
ARC
  5
C65
330
21D
100
AcDbEntity
  8
0
  6
Continuous
 62
     7
100
AcDbCircle
 10
4.844285758499998
 20
7.2520492272
 30
0.0
 40
11.4706011676
100
AcDbArc
 50
345.3970203023
 51
351.9703318637001
  0
ARC
  5
C66
330
21D
100
AcDbEntity
  8
0
  6
Continuous
 62
     7
100
AcDbCircle
 10
4.3767108948
 20
6.5869302109
 30
0.0
 40
10.9461063875
100
AcDbArc
 50
347.68875841
 51
355.5207382483999
  0
ARC
  5
C67
330
21D
100
AcDbEntity
  8
0
  6
Continuous
 62
     7
100
AcDbCircle
 10
7.1994447035
 20
9.088589414699999
 30
0.0
 40
7.2933750207
100
AcDbArc
 50
269.326492634
 51
269.7222630644
  0
ARC
  5
C68
330
21D
100
AcDbEntity
  8
0
  6
Continuous
 62
     7
100
AcDbCircle
 10
7.204071904400001
 20
9.0928594898
 30
0.0
 40
6.831444206399997
100
AcDbArc
 50
268.9577891086
 51
269.6879939291
  0
ARC
  5
C69
330
21D
100
AcDbEntity
  8
0
  6
Continuous
 62
     7
100
AcDbCircle
 10
7.3164566282
 20
8.5332582682
 30
0.0
 40
6.786647892599997
100
AcDbArc
 50
269.6422510144
 51
270.7728678835
  0
ARC
  5
C6A
330
21D
100
AcDbEntity
  8
0
  6
Continuous
 62
     7
100
AcDbCircle
 10
7.3153985188
 20
8.1908263541
 30
0.0
 40
6.4442102559
100
AcDbArc
 50
268.2266926924
 51
269.478005562
  0
ARC
  5
C6B
330
21D
100
AcDbEntity
  8
0
  6
Continuous
 62
     7
100
AcDbCircle
 10
7.307574050199997
 20
6.955979421599997
 30
0.0
 40
5.209344419999998
100
AcDbArc
 50
269.4479179565
 51
269.6316274269
  0
ARC
  5
C6C
330
21D
100
AcDbEntity
  8
0
  6
Continuous
 62
     7
100
AcDbCircle
 10
7.2612455957
 20
6.404999102999999
 30
0.0
 40
4.657562633799997
100
AcDbArc
 50
267.9629056048
 51
268.2127225186
  0
ARC
  5
C6D
330
21D
100
AcDbEntity
  8
0
  6
Continuous
 62
     7
100
AcDbCircle
 10
7.4437019811
 20
5.7904956374
 30
0.0
 40
4.0479092307
100
AcDbArc
 50
264.7846489699
 51
267.3617812024001
  0
ARC
  5
C6E
330
21D
100
AcDbEntity
  8
0
  6
Continuous
 62
     7
100
AcDbCircle
 10
7.066962952199999
 20
5.6589783449
 30
0.0
 40
1.0033300675
100
AcDbArc
 50
89.95953309479999
 51
91.29882959040001
  0
ARC
  5
C6F
330
21D
100
AcDbEntity
  8
0
  6
Continuous
 62
     7
100
AcDbCircle
 10
7.070476378999997
 20
5.806663167099999
 30
0.0
 40
0.7842098192
100
AcDbArc
 50
90.04330684560001
 51
91.50298182440002
  0
ARC
  5
C70
330
21D
100
AcDbEntity
  8
CURVE1
  6
Continuous
 62
     7
100
AcDbCircle
 10
5.693245527899999
 20
6.910645275599999
 30
0.0
 40
0.187007874
100
AcDbArc
 50
90.0
 51
180.0
  0
ARC
  5
C71
330
21D
100
AcDbEntity
  8
0
  6
Continuous
 62
     7
100
AcDbCircle
 10
6.283214596199997
 20
6.593470612199999
 30
0.0
 40
0.0983288709
100
AcDbArc
 50
42.8518258534
 51
43.3290290858
  0
ARC
  5
C72
330
21D
100
AcDbEntity
  8
0
  6
Continuous
 62
     7
100
AcDbCircle
 10
6.285571214199999
 20
6.5956405982
 30
0.0
 40
0.0951262116
100
AcDbArc
 50
42.8589985496
 51
43.35220534109999
  0
ARC
  5
C73
330
21D
100
AcDbEntity
  8
0
  6
Continuous
 62
     7
100
AcDbCircle
 10
20.0019998664
 20
2.474593048899997
 30
0.0
 40
4.4227046286
100
AcDbArc
 50
162.5019860253
 51
162.6550335183
  0
ARC
  5
C74
330
21D
100
AcDbEntity
  8
0
  6
Continuous
 62
     7
100
AcDbCircle
 10
20.0009884646
 20
2.474908211799998
 30
0.0
 40
4.4216452661
100
AcDbArc
 50
162.5019331913
 51
163.4673413787
  0
ARC
  5
C75
330
21D
100
AcDbEntity
  8
0
  6
Continuous
 62
     7
100
AcDbCircle
 10
19.9975813632
 20
2.4758150718
 30
0.0
 40
4.418120535999999
100
AcDbArc
 50
163.4660424324
 51
179.202725871
  0
ARC
  5
C76
330
21D
100
AcDbEntity
  8
0
  6
Continuous
 62
     7
100
AcDbCircle
 10
14.1521560725
 20
4.8930920843
 30
0.0
 40
1.223604865999998
100
AcDbArc
 50
322.9470446951
 51
325.4933336234
  0
ARC
  5
C77
330
21D
100
AcDbEntity
  8
0
  6
Continuous
 62
     7
100
AcDbCircle
 10
15.3700906026
 20
5.2090503083
 30
0.0
 40
1.030673214799999
100
AcDbArc
 50
258.2656159587
 51
267.2070753305
  0
ARC
  5
C78
330
21D
100
AcDbEntity
  8
0
  6
Continuous
 62
     7
100
AcDbCircle
 10
15.2622258816
 20
4.788032060899999
 30
0.0
 40
0.7825831390000002
100
AcDbArc
 50
259.2784001696
 51
270.2686423921
  0
ARC
  5
C79
330
21D
100
AcDbEntity
  8
0
  6
Continuous
 62
     7
100
AcDbCircle
 10
15.2596765383
 20
4.7697551432
 30
0.0
 40
0.7643229251000001
100
AcDbArc
 50
259.2112173997
 51
270.4661719771
  0
ARC
  5
C7A
330
21D
100
AcDbEntity
  8
0
  6
Continuous
 62
     7
100
AcDbCircle
 10
15.2592776359
 20
4.7685526947
 30
0.0
 40
0.7630670793000001
100
AcDbArc
 50
254.0912051998
 51
259.223739237
  0
ARC
  5
C7B
330
21D
100
AcDbEntity
  8
0
  6
Continuous
 62
     7
100
AcDbCircle
 10
15.2579332255
 20
4.7636004275
 30
0.0
 40
0.7579359732
100
AcDbArc
 50
253.3537418397
 51
253.9258747516
  0
ARC
  5
C7C
330
21D
100
AcDbEntity
  8
0
  6
Continuous
 62
     7
100
AcDbCircle
 10
15.2575866394
 20
4.762441804499998
 30
0.0
 40
0.7567266225
100
AcDbArc
 50
252.738840004
 51
253.3537539426
  0
ARC
  5
C7D
330
21D
100
AcDbEntity
  8
0
  6
Continuous
 62
     7
100
AcDbCircle
 10
15.2526561902
 20
4.7479682685
 30
0.0
 40
0.7414409962999999
100
AcDbArc
 50
252.6225978355
 51
259.4290335177
  0
ARC
  5
C7E
330
21D
100
AcDbEntity
  8
0
  6
Continuous
 62
     7
100
AcDbCircle
 10
15.0943734476
 20
2.544056831999998
 30
0.0
 40
0.4855639159000001
100
AcDbArc
 50
356.0720120895
 51
359.2016721588
  0
ARC
  5
C7F
330
21D
100
AcDbEntity
  8
0
  6
Continuous
 62
     7
100
AcDbCircle
 10
15.0265903878
 20
4.025619707799998
 30
0.0
 40
0.0154556851
100
AcDbArc
 50
68.35143891539999
 51
72.59315631319998
  0
ARC
  5
C80
330
21D
100
AcDbEntity
  8
0
  6
Continuous
 62
     7
100
AcDbCircle
 10
15.3603765283
 20
5.5943929159
 30
0.0
 40
1.0681831733
100
AcDbArc
 50
85.2579556835
 51
90.05122151749999
  0
ARC
  5
C81
330
21D
100
AcDbEntity
  8
0
  6
Continuous
 62
     7
100
AcDbCircle
 10
15.3670757025
 20
5.7096520111
 30
0.0
 40
0.8865121248000001
100
AcDbArc
 50
85.24198017459999
 51
90.48761961149999
  0
ARC
  5
C82
330
21D
100
AcDbEntity
  8
CURVE1
  6
Continuous
 62
     7
100
AcDbCircle
 10
17.0318282051
 20
6.910645275599999
 30
0.0
 40
0.187007874
100
AcDbArc
 50
0.0
 51
90.0
  0
ARC
  5
C83
330
21D
100
AcDbEntity
  8
0
  6
Continuous
 62
     7
100
AcDbCircle
 10
16.4343269084
 20
6.590639251699999
 30
0.0
 40
0.0982977175
100
AcDbArc
 50
137.1010141845
 51
171.9694615263
  0
ARC
  5
C84
330
21D
100
AcDbEntity
  8
0
  6
Continuous
 62
     7
100
AcDbCircle
 10
16.4335334329
 20
6.589996907299996
 30
0.0
 40
0.0981560263
100
AcDbArc
 50
136.5120977245
 51
172.0728097663999
  0
ARC
  5
C85
330
21D
100
AcDbEntity
  8
0
  6
Continuous
 62
     7
100
AcDbCircle
 10
16.4327043194
 20
6.5922711107
 30
0.0
 40
0.0959983953
100
AcDbArc
 50
136.5336494532
 51
137.1552742895
  0
ARC
  5
C86
330
21D
100
AcDbEntity
  8
0
  6
Continuous
 62
     7
100
AcDbCircle
 10
204.6751355592
 20
-9.2077094165
 30
0.0
 40
189.9741020464
100
AcDbArc
 50
175.2280811754
 51
175.4895410017
  0
SPLINE
  5
DB8
330
21D
100
AcDbEntity
  8
0
  6
Continuous
 62
     7
100
AcDbSpline
210
0.0
220
0.0
230
1.0
 70
     8
 71
     3
 72
    17
 73
    13
 74
     0
 42
0.0000000001
 43
0.0000000001
 40
0.0
 40
0.0
 40
0.0
 40
0.0
 40
0.2500226696
 40
0.3750316242
 40
0.5000377215000002
 40
0.6250399616
 40
0.7500372195000003
 40
0.8125335099999999
 40
0.8750277903
 40
0.9375190275000001
 40
0.9687622716999999
 40
1.0
 40
1.0
 40
1.0
 40
1.0
 10
15.0202419308
 20
4.0438132373
 30
0.0
 10
14.3576661697
 20
4.251886470199997
 30
0.0
 10
13.3638095465
 20
4.563996601299997
 30
0.0
 10
12.0386824901
 20
4.980150350199997
 30
0.0
 10
11.0448685209
 20
5.2922634324
 30
0.0
 10
10.051087826
 20
5.6043740334
 30
0.0
 10
9.222962032999999
 20
5.8644628507
 30
0.0
 10
8.5604836295
 20
6.072523101199998
 30
0.0
 10
8.0636451628
 20
6.228548994099996
 30
0.0
 10
7.649625323999996
 20
6.358553202599997
 30
0.0
 10
7.3184139648
 20
6.462470619299999
 30
0.0
 10
7.1528095582
 20
6.514386036699999
 30
0.0
 10
7.069982759199999
 20
6.5402393399
 30
0.0
  0
LINE
  5
DB9
330
21D
100
AcDbEntity
  8
0
  6
Continuous
 62
     7
100
AcDbLine
 10
15.0309965168
 20
4.040435787099998
 30
0.0
 11
15.0212078038
 21
4.0435099123
 31
0.0
  0
LINE
  5
DBA
330
21D
100
AcDbEntity
  8
0
  6
Continuous
 62
     7
100
AcDbLine
 10
15.0212078038
 20
4.0435099123
 30
0.0
 11
15.0202419317
 21
4.043813242399997
 31
0.0
  0
SPLINE
  5
DBB
330
21D
100
AcDbEntity
  8
0
  6
Continuous
 62
     7
100
AcDbSpline
210
0.0
220
0.0
230
1.0
 70
     8
 71
     3
 72
     8
 73
     4
 74
     0
 42
0.0000000001
 43
0.0000000001
 40
0.0
 40
0.0
 40
0.0
 40
0.0
 40
1.0
 40
1.0
 40
1.0
 40
1.0
 10
6.3553015661
 20
6.660345112399999
 30
0.0
 10
6.3708361182
 20
6.643603989999999
 30
0.0
 10
6.3802707721
 20
6.621358860499999
 30
0.0
 10
6.381467152799997
 20
6.598593651099996
 30
0.0
  0
LINE
  5
DBC
330
21D
100
AcDbEntity
  8
0
  6
Continuous
 62
     7
100
AcDbLine
 10
16.3630303657
 20
6.658310555099999
 30
0.0
 11
16.3629352767
 21
6.658210077899999
 31
0.0
  0
SPLINE
  5
DBD
330
21D
100
AcDbEntity
  8
0
  6
Continuous
 62
     7
100
AcDbSpline
210
0.0
220
0.0
230
1.0
 70
     8
 71
     3
 72
     8
 73
     4
 74
     0
 42
0.0000000001
 43
0.0000000001
 40
0.0
 40
0.0
 40
0.0
 40
0.0
 40
1.0
 40
1.0
 40
1.0
 40
1.0
 10
16.3623183668
 20
6.6575513495
 30
0.0
 10
16.3487444733
 20
6.642915881699999
 30
0.0
 10
16.3397739206
 20
6.624100437
 30
0.0
 10
16.336987695
 20
6.604372901699999
 30
0.0
  0
SPLINE
  5
DBE
330
21D
100
AcDbEntity
  8
0
  6
Continuous
 62
     7
100
AcDbSpline
210
0.0
220
0.0
230
1.0
 70
     8
 71
     3
 72
    25
 73
    21
 74
     0
 42
0.0000000001
 43
0.0000000001
 40
0.0
 40
0.0
 40
0.0
 40
0.0
 40
0.196078797
 40
0.3840961467000001
 40
0.4728135411000002
 40
0.5568708211
 40
0.6354864029999999
 40
0.7078953752000002
 40
0.7734077984000001
 40
0.8314776802
 40
0.8816099526
 40
0.9233068546
 40
0.9408427512999999
 40
0.9561244532999999
 40
0.9691347096000001
 40
0.9798573268999998
 40
0.9882794482999999
 40
0.9943961647
 40
0.9982316240999999
 40
1.0
 40
1.0
 40
1.0
 40
1.0
 10
15.0455657364
 20
3.904950863
 30
0.0
 10
15.0921464592
 20
3.8925047912
 30
0.0
 10
15.183453154
 20
3.8683495574
 30
0.0
 10
15.2960020529
 20
3.8391969547
 30
0.0
 10
15.3819842229
 20
3.817338562799998
 30
0.0
 10
15.4419394733
 20
3.8022867097
 30
0.0
 10
15.4980634283
 20
3.7884450625
 30
0.0
 10
15.5498083813
 20
3.7758931682
 30
0.0
 10
15.5967020739
 20
3.764775781499997
 30
0.0
 10
15.6383257522
 20
3.7551774647
 30
0.0
 10
15.6743078837
 20
3.7471826799
 30
0.0
 10
15.7006229129
 20
3.7416327116
 30
0.0
 10
15.7185993305
 20
3.7380904549
 30
0.0
 10
15.72968175859999
 20
3.7360353822
 30
0.0
 10
15.7391321341
 20
3.7344205851
 30
0.0
 10
15.7469723369
 20
3.733256397099998
 30
0.0
 10
15.7530908667
 20
3.732509300799998
 30
0.0
 10
15.7577210581
 20
3.732240766399998
 30
0.0
 10
15.7603833148
 20
3.7322592091
 30
0.0
 10
15.762021822
 20
3.7327270529
 30
0.0
 10
15.7621455558
 20
3.7331439119
 30
0.0
  0
LINE
  5
DBF
330
21D
100
AcDbEntity
  8
0
  6
Continuous
 62
     7
100
AcDbLine
 10
15.7839447696
 20
3.8043799699
 30
0.0
 11
15.8019674381
 21
3.860252675099998
 31
0.0
  0
LINE
  5
DC0
330
21D
100
AcDbEntity
  8
0
  6
Continuous
 62
     7
100
AcDbLine
 10
15.7839447696
 20
3.8043799699
 30
0.0
 11
15.8019674381
 21
3.860252675099998
 31
0.0
  0
LINE
  5
DC1
330
21D
100
AcDbEntity
  8
0
  6
Continuous
 62
     7
100
AcDbLine
 10
15.801964765
 20
3.8602443923
 30
0.0
 11
15.7839451322
 21
3.804380438399997
 31
0.0
  0
LINE
  5
DC2
330
21D
100
AcDbEntity
  8
0
  6
Continuous
 62
     7
100
AcDbLine
 10
15.7804083468
 20
3.7931078472
 30
0.0
 11
15.7803622931
 21
3.792960384499997
 31
0.0
  0
LINE
  5
DC3
330
21D
100
AcDbEntity
  8
0
  6
Continuous
 62
     7
100
AcDbLine
 10
15.7751618108
 20
3.7761906268
 30
0.0
 11
15.774084333
 21
3.7726864311
 31
0.0
  0
LINE
  5
DC4
330
21D
100
AcDbEntity
  8
0
  6
Continuous
 62
     7
100
AcDbLine
 10
7.3611532545
 20
1.6547397605
 30
0.0
 11
7.361050464099997
 21
1.654944506999999
 31
0.0
  0
SPLINE
  5
DC5
330
21D
100
AcDbEntity
  8
0
  6
Continuous
 62
     7
100
AcDbSpline
210
0.0
220
0.0
230
1.0
 70
     8
 71
     3
 72
     9
 73
     5
 74
     0
 42
0.0000000001
 43
0.0000000001
 40
0.0
 40
0.0
 40
0.0
 40
0.0
 40
0.2646169259
 40
1.0
 40
1.0
 40
1.0
 40
1.0
 10
7.361050464099997
 20
1.654944506999999
 30
0.0
 10
7.3593389898
 20
1.6583484908
 30
0.0
 10
7.3524928832
 20
1.6710111316
 30
0.0
 10
7.3440444558
 20
1.682863963199999
 30
0.0
 10
7.3368427471
 20
1.6906257888
 30
0.0
  0
SPLINE
  5
DC6
330
21D
100
AcDbEntity
  8
0
  6
Continuous
 62
     7
100
AcDbSpline
210
0.0
220
0.0
230
1.0
 70
     8
 71
     3
 72
     9
 73
     5
 74
     0
 42
0.0000000001
 43
0.0000000001
 40
0.0
 40
0.0
 40
0.0
 40
0.0
 40
0.2646351101
 40
1.0
 40
1.0
 40
1.0
 40
1.0
 10
7.360654805499999
 20
1.654739764199999
 30
0.0
 10
7.3589355824
 20
1.6581646143
 30
0.0
 10
7.352056406099999
 20
1.6709032231
 30
0.0
 10
7.343556884999999
 20
1.682824207899999
 30
0.0
 10
7.3363076444
 20
1.6906244422
 30
0.0
  0
SPLINE
  5
DC7
330
21D
100
AcDbEntity
  8
0
  6
Continuous
 62
     7
100
AcDbSpline
210
0.0
220
0.0
230
1.0
 70
     8
 71
     3
 72
     9
 73
     5
 74
     0
 42
0.0000000001
 43
0.0000000001
 40
0.0
 40
0.0
 40
0.0
 40
0.0
 40
0.2533821156
 40
1.0
 40
1.0
 40
1.0
 40
1.0
 10
7.2754040003
 20
1.654739753
 30
0.0
 10
7.2728382902
 20
1.658125781599999
 30
0.0
 10
7.262242422399999
 20
1.671124644699997
 30
0.0
 10
7.249746859299999
 20
1.6825887693
 30
0.0
 10
7.239606136799999
 20
1.689928254299998
 30
0.0
  0
SPLINE
  5
DC8
330
21D
100
AcDbEntity
  8
0
  6
Continuous
 62
     7
100
AcDbSpline
210
0.0
220
0.0
230
1.0
 70
     8
 71
     3
 72
     9
 73
     5
 74
     0
 42
0.0000000001
 43
0.0000000001
 40
0.0
 40
0.0
 40
0.0
 40
0.0
 40
0.2488627868
 40
1.0
 40
1.0
 40
1.0
 40
1.0
 10
7.2245024459
 20
1.6897055158
 30
0.0
 10
7.227982204599999
 20
1.687287777499999
 30
0.0
 10
7.241598000599999
 20
1.6770529647
 30
0.0
 10
7.2536657645
 20
1.664774751499999
 30
0.0
 10
7.261594301
 20
1.654739763799998
 30
0.0
  0
LINE
  5
DC9
330
21D
100
AcDbEntity
  8
0
  6
Continuous
 62
     7
100
AcDbLine
 10
7.5161628236
 20
1.6921268974
 30
0.0
 11
7.523954189299999
 21
1.6922267877
 31
0.0
  0
SPLINE
  5
DCA
330
21D
100
AcDbEntity
  8
0
  6
Continuous
 62
     7
100
AcDbSpline
210
0.0
220
0.0
230
1.0
 70
     8
 71
     3
 72
    18
 73
    14
 74
     0
 42
0.0000000001
 43
0.0000000001
 40
0.0
 40
0.0
 40
0.0
 40
0.0
 40
0.0116082573
 40
0.0358848087
 40
0.0720036905
 40
0.1185027661
 40
0.173812826
 40
0.2363362274
 40
0.3766646424
 40
0.5265325903
 40
0.6774816487999999
 40
0.8331203719999999
 40
1.0
 40
1.0
 40
1.0
 40
1.0
 10
7.5105284115
 20
1.749551210299999
 30
0.0
 10
7.510740040399999
 20
1.7494786088
 30
0.0
 10
7.5110073121
 20
1.7487053094
 30
0.0
 10
7.5113487285
 20
1.7474568037
 30
0.0
 10
7.511696890499999
 20
1.745377229799998
 30
0.0
 10
7.5120585957
 20
1.7427622396
 30
0.0
 10
7.5124196434
 20
1.7396088065
 30
0.0
 10
7.5129192698
 20
1.7346607865
 30
0.0
 10
7.513505551199997
 20
1.727886083
 30
0.0
 10
7.514171409199999
 20
1.7194101649
 30
0.0
 10
7.5148386194
 20
1.710637678199999
 30
0.0
 10
7.515506316499997
 20
1.701536629
 30
0.0
 10
7.515942529099997
 20
1.695335758099997
 30
0.0
 10
7.5161628236
 20
1.6921268974
 30
0.0
  0
LINE
  5
DCB
330
21D
100
AcDbEntity
  8
0
  6
Continuous
 62
     7
100
AcDbLine
 10
7.5106230533
 20
1.692059748
 30
0.0
 11
7.5161628236
 21
1.6921268974
 31
0.0
  0
SPLINE
  5
DCC
330
21D
100
AcDbEntity
  8
0
  6
Continuous
 62
     7
100
AcDbSpline
210
0.0
220
0.0
230
1.0
 70
     8
 71
     3
 72
    17
 73
    13
 74
     0
 42
0.0000000001
 43
0.0000000001
 40
0.0
 40
0.0
 40
0.0
 40
0.0
 40
0.0146779231
 40
0.0402697135
 40
0.0770014839
 40
0.1237222822
 40
0.2412928879
 40
0.3808355921
 40
0.5297283751
 40
0.6797137537000002
 40
0.8343271560999998
 40
1.0
 40
1.0
 40
1.0
 40
1.0
 10
7.500658122799997
 20
1.7491954478
 30
0.0
 10
7.5009390925
 20
1.7491455324
 30
0.0
 10
7.501509341599997
 20
1.748471369299998
 30
0.0
 10
7.502078251699999
 20
1.7471337337
 30
0.0
 10
7.50272302
 20
1.745089555999999
 30
0.0
 10
7.503634947999999
 20
1.7412983746
 30
0.0
 10
7.5047092161
 20
1.735480128
 30
0.0
 10
7.5059116536
 20
1.7276812852
 30
0.0
 10
7.507090297999999
 20
1.719238339699999
 30
0.0
 10
7.508274436199998
 20
1.710501656799998
 30
0.0
 10
7.509459507999999
 20
1.7014356169
 30
0.0
 10
7.5102328887
 20
1.6952567787
 30
0.0
 10
7.510623086199998
 20
1.6920594785
 30
0.0
  0
LINE
  5
DCD
330
21D
100
AcDbEntity
  8
0
  6
Continuous
 62
     7
100
AcDbLine
 10
7.4619334247
 20
1.6915422199
 30
0.0
 11
7.510623086199998
 21
1.6920594785
 31
0.0
  0
SPLINE
  5
DCE
330
21D
100
AcDbEntity
  8
0
  6
Continuous
 62
     7
100
AcDbSpline
210
0.0
220
0.0
230
1.0
 70
     8
 71
     3
 72
    13
 73
     9
 74
     0
 42
0.0000000001
 43
0.0000000001
 40
0.0
 40
0.0
 40
0.0
 40
0.0
 40
0.0715708713
 40
0.1668594625
 40
0.2852475003
 40
0.4192025723
 40
0.7003788561
 40
1.0
 40
1.0
 40
1.0
 40
1.0
 10
7.430188501399999
 20
1.7475437857
 30
0.0
 10
7.4317577208
 20
1.747472740899999
 30
0.0
 10
7.435238001599997
 20
1.745657481699999
 30
0.0
 10
7.439302341599997
 20
1.7408857888
 30
0.0
 10
7.443367801499997
 20
1.7343981312
 30
0.0
 10
7.448638020599999
 20
1.723936663499999
 30
0.0
 10
7.4547821385
 20
1.709492211599999
 30
0.0
 10
7.4595293733
 20
1.697663578
 30
0.0
 10
7.461933252899999
 20
1.6915426574
 30
0.0
  0
LINE
  5
DCF
330
21D
100
AcDbEntity
  8
0
  6
Continuous
 62
     7
100
AcDbLine
 10
7.448645225799999
 20
1.6914185255
 30
0.0
 11
7.461933252899999
 21
1.6915426574
 31
0.0
  0
SPLINE
  5
DD0
330
21D
100
AcDbEntity
  8
0
  6
Continuous
 62
     7
100
AcDbSpline
210
0.0
220
0.0
230
1.0
 70
     8
 71
     3
 72
    13
 73
     9
 74
     0
 42
0.0000000001
 43
0.0000000001
 40
0.0
 40
0.0
 40
0.0
 40
0.0
 40
0.0782568574
 40
0.1768762168
 40
0.2958986978
 40
0.428706914
 40
0.7054991285
 40
1.0
 40
1.0
 40
1.0
 40
1.0
 10
7.4120713484
 20
1.747283953899998
 30
0.0
 10
7.4138548839
 20
1.7472109905
 30
0.0
 10
7.417765553999997
 20
1.745505928799999
 30
0.0
 10
7.422570060299997
 20
1.740720418
 30
0.0
 10
7.4272795182
 20
1.734230621699999
 30
0.0
 10
7.433362996199997
 20
1.723810293899999
 30
0.0
 10
7.4404207471
 20
1.7093708616
 30
0.0
 10
7.4458720896
 20
1.697536924799998
 30
0.0
 10
7.448645225799999
 20
1.6914185255
 30
0.0
  0
LINE
  5
DD1
330
21D
100
AcDbEntity
  8
0
  6
Continuous
 62
     7
100
AcDbLine
 10
7.4456571776
 20
1.6913968712
 30
0.0
 11
7.448645225799999
 21
1.6914185255
 31
0.0
  0
SPLINE
  5
DD2
330
21D
100
AcDbEntity
  8
0
  6
Continuous
 62
     7
100
AcDbSpline
210
0.0
220
0.0
230
1.0
 70
     8
 71
     3
 72
    13
 73
     9
 74
     0
 42
0.0000000001
 43
0.0000000001
 40
0.0
 40
0.0
 40
0.0
 40
0.0
 40
0.0796784368
 40
0.1790335372
 40
0.2982093616
 40
0.4307768625000001
 40
0.7066184645999999
 40
1.0
 40
1.0
 40
1.0
 40
1.0
 10
7.407999580399999
 20
1.747227800699999
 30
0.0
 10
7.409831681699999
 20
1.7471543277
 30
0.0
 10
7.4138375813
 20
1.745470288199999
 30
0.0
 10
7.418806441699999
 20
1.7406854313
 30
0.0
 10
7.423661259299999
 20
1.7341960452
 30
0.0
 10
7.429926669099997
 20
1.7237862221
 30
0.0
 10
7.437190737699999
 20
1.7093488444
 30
0.0
 10
7.4428009157
 20
1.697514260099999
 30
0.0
 10
7.4456571776
 20
1.6913968712
 30
0.0
  0
LINE
  5
DD3
330
21D
100
AcDbEntity
  8
0
  6
Continuous
 62
     7
100
AcDbLine
 10
7.348948147399996
 20
1.690724346399998
 30
0.0
 11
7.4456571776
 21
1.6913968712
 31
0.0
  0
SPLINE
  5
DD4
330
21D
100
AcDbEntity
  8
0
  6
Continuous
 62
     7
100
AcDbSpline
210
0.0
220
0.0
230
1.0
 70
     8
 71
     3
 72
    12
 73
     8
 74
     0
 42
0.0000000001
 43
0.0000000001
 40
0.0
 40
0.0
 40
0.0
 40
0.0
 40
0.2277972689
 40
0.3520086378
 40
0.4794979369
 40
0.7327654636
 40
1.0
 40
1.0
 40
1.0
 40
1.0
 10
7.2740817684
 20
1.7467426682
 30
0.0
 10
7.281315811199998
 20
1.7464581196
 30
0.0
 10
7.2922813116
 20
1.742304913199999
 30
0.0
 10
7.3049167433
 20
1.733866893799999
 30
0.0
 10
7.3173219333
 20
1.7236233988
 30
0.0
 10
7.3318948445
 20
1.709050604699999
 30
0.0
 10
7.3431679773
 20
1.6969460837
 30
0.0
 10
7.3489485713
 20
1.6907238902
 30
0.0
  0
SPLINE
  5
DD5
330
21D
100
AcDbEntity
  8
0
  6
Continuous
 62
     7
100
AcDbSpline
210
0.0
220
0.0
230
1.0
 70
     8
 71
     3
 72
    11
 73
     7
 74
     0
 42
0.0000000001
 43
0.0000000001
 40
0.0
 40
0.0
 40
0.0
 40
0.0
 40
0.231573625
 40
0.4829356085
 40
0.7344918272
 40
1.0
 40
1.0
 40
1.0
 40
1.0
 10
7.257379376599997
 20
1.746876832799999
 30
0.0
 10
7.2650258461
 20
1.746561777199999
 30
0.0
 10
7.280654016399997
 20
1.740963721699998
 30
0.0
 10
7.3001883572
 20
1.7264848158
 30
0.0
 10
7.318712525299996
 20
1.709062619799999
 30
0.0
 10
7.3306913913
 20
1.6968828861
 30
0.0
 10
7.336842752499999
 20
1.690625803199998
 30
0.0
  0
LINE
  5
DD6
330
21D
100
AcDbEntity
  8
0
  6
Continuous
 62
     7
100
AcDbLine
 10
7.336343262599997
 20
1.6906244402
 30
0.0
 11
7.336842752499999
 21
1.690625803199998
 31
0.0
  0
SPLINE
  5
DD7
330
21D
100
AcDbEntity
  8
0
  6
Continuous
 62
     7
100
AcDbSpline
210
0.0
220
0.0
230
1.0
 70
     8
 71
     3
 72
    11
 73
     7
 74
     0
 42
0.0000000001
 43
0.0000000001
 40
0.0
 40
0.0
 40
0.0
 40
0.0
 40
0.2317194869
 40
0.4830789455
 40
0.7345662704000003
 40
1.0
 40
1.0
 40
1.0
 40
1.0
 10
7.256689213999997
 20
1.746883536299999
 30
0.0
 10
7.264352569999998
 20
1.7465671986
 30
0.0
 10
7.280011776799999
 20
1.7409717065
 30
0.0
 10
7.299596276099999
 20
1.7264910435
 30
0.0
 10
7.3181665259
 20
1.709066437199999
 30
0.0
 10
7.330174883999997
 20
1.696884453799999
 30
0.0
 10
7.3363414235
 20
1.6906263066
 30
0.0
  0
SPLINE
  5
DD8
330
21D
100
AcDbEntity
  8
0
  6
Continuous
 62
     7
100
AcDbSpline
210
0.0
220
0.0
230
1.0
 70
     8
 71
     3
 72
    11
 73
     7
 74
     0
 42
0.0000000001
 43
0.0000000001
 40
0.0
 40
0.0
 40
0.0
 40
0.0
 40
0.3037159715
 40
0.5734679123
 40
0.8078363366999996
 40
1.0
 40
1.0
 40
1.0
 40
1.0
 10
7.3363414235
 20
1.6906263066
 30
0.0
 10
7.3265492632
 20
1.690604896299999
 30
0.0
 10
7.308059531799999
 20
1.690636939499998
 30
0.0
 10
7.282015754199999
 20
1.690273277
 30
0.0
 10
7.259565431399997
 20
1.690361106299999
 30
0.0
 10
7.2458159134
 20
1.690061291299999
 30
0.0
 10
7.2396217371
 20
1.689928596599999
 30
0.0
  0
LINE
  5
DD9
330
21D
100
AcDbEntity
  8
0
  6
Continuous
 62
     7
100
AcDbLine
 10
15.0474582642
 20
3.918068604499998
 30
0.0
 11
7.069989980099999
 21
6.5365500552
 31
0.0
  0
SPLINE
  5
DDA
330
21D
100
AcDbEntity
  8
0
  6
Continuous
 62
     7
100
AcDbSpline
210
0.0
220
0.0
230
1.0
 70
     8
 71
     3
 72
    17
 73
    13
 74
     0
 42
0.0000000001
 43
0.0000000001
 40
0.0
 40
0.0
 40
0.0
 40
0.0
 40
0.2500337171
 40
0.3750470435
 40
0.5000561178
 40
0.6250594476
 40
0.7500553554
 40
0.8125498262
 40
0.875041305
 40
0.9375282616999999
 40
0.9687682173
 40
1.0
 40
1.0
 40
1.0
 40
1.0
 10
15.1019778906
 20
4.0305460732
 30
0.0
 10
14.432563236
 20
4.239909585899997
 30
0.0
 10
13.4284517643
 20
4.5539552665
 30
0.0
 10
12.0896591291
 20
4.972693204999997
 30
0.0
 10
11.0856116933
 20
5.286743338399999
 30
0.0
 10
10.0816142941
 20
5.600789765
 30
0.0
 10
9.244987077999999
 20
5.8624900983
 30
0.0
 10
8.575718764899999
 20
6.0718341737
 30
0.0
 10
8.073798124999997
 20
6.2288132538
 30
0.0
 10
7.6555492874
 20
6.3596031771
 30
0.0
 10
7.3209570228
 20
6.464105904299999
 30
0.0
 10
7.153662799
 20
6.516292396599997
 30
0.0
 10
7.0699788662
 20
6.5422283477
 30
0.0
  0
SPLINE
  5
DDB
330
21D
100
AcDbEntity
  8
0
  6
Continuous
 62
     7
100
AcDbSpline
210
0.0
220
0.0
230
1.0
 70
     8
 71
     3
 72
    17
 73
    13
 74
     0
 42
0.0000000001
 43
0.0000000001
 40
0.0
 40
0.0
 40
0.0
 40
0.0
 40
0.2500544334
 40
0.3750758852
 40
0.5000904058
 40
0.6250955725999999
 40
0.7500886785
 40
0.8125795931
 40
0.8750656988999999
 40
0.937544633
 40
0.9687786064
 40
1.0
 40
1.0
 40
1.0
 40
1.0
 10
15.1286893453
 20
4.1558051768
 30
0.0
 10
14.4569976704
 20
4.3550739574
 30
0.0
 10
13.4494772727
 20
4.653978025299998
 30
0.0
 10
12.1061530406
 20
5.052532991199997
 30
0.0
 10
11.0987362657
 20
5.3514440468
 30
0.0
 10
10.09140056
 20
5.650349127
 30
0.0
 10
9.2520144004
 20
5.8994282469
 30
0.0
 10
8.5805596778
 20
6.098665235299997
 30
0.0
 10
8.077018089899999
 20
6.2480463311
 30
0.0
 10
7.6574292734
 20
6.3724887196
 30
0.0
 10
7.3217692223
 20
6.4718330884
 30
0.0
 10
7.153942061799999
 20
6.5214003351
 30
0.0
 10
7.069971626799999
 20
6.5459271023
 30
0.0
  0
SPLINE
  5
DDC
330
21D
100
AcDbEntity
  8
0
  6
Continuous
 62
     7
100
AcDbSpline
210
0.0
220
0.0
230
1.0
 70
     8
 71
     3
 72
    17
 73
    13
 74
     0
 42
0.0000000001
 43
0.0000000001
 40
0.0
 40
0.0
 40
0.0
 40
0.0
 40
0.2500686511
 40
0.3750944777
 40
0.5001113971
 40
0.6251168393
 40
0.7501078329000001
 40
0.8125966274999999
 40
0.8750796941999999
 40
0.9375540177999999
 40
0.9687844839
 40
1.0
 40
1.0
 40
1.0
 40
1.0
 10
14.4360408356
 20
4.435199804499998
 30
0.0
 10
13.8220510642
 20
4.6113779916
 30
0.0
 10
12.9010897111
 20
4.8756477765
 30
0.0
 10
11.673184996
 20
5.228025012399998
 30
0.0
 10
10.7523480622
 20
5.4922996969
 30
0.0
 10
9.831601111499999
 20
5.756565385499999
 30
0.0
 10
9.064377029600001
 20
5.976773578799997
 30
0.0
 10
8.4506547812
 20
6.152904339299999
 30
0.0
 10
7.990416340499999
 20
6.2849473778
 30
0.0
 10
7.606912974199999
 20
6.3949236035
 30
0.0
 10
7.300121244899996
 20
6.4826634595
 30
0.0
 10
7.1467236845
 20
6.526397990499999
 30
0.0
 10
7.0699675857
 20
6.547991817699997
 30
0.0
  0
LINE
  5
DDD
330
21D
100
AcDbEntity
  8
0
  6
Continuous
 62
     7
100
AcDbLine
 10
15.0710978301
 20
4.2529783636
 30
0.0
 11
14.4360408356
 21
4.435199804499998
 31
0.0
  0
SPLINE
  5
DDE
330
21D
100
AcDbEntity
  8
0
  6
Continuous
 62
     7
100
AcDbSpline
210
0.0
220
0.0
230
1.0
 70
     8
 71
     3
 72
    23
 73
    19
 74
     0
 42
0.0000000001
 43
0.0000000001
 40
0.0
 40
0.0
 40
0.0
 40
0.0
 40
0.1251067854
 40
0.2502034923
 40
0.3752804618
 40
0.50032809
 40
0.5628378613000003
 40
0.6253366371000002
 40
0.6878231476000001
 40
0.7502960497000001
 40
0.8127538937999998
 40
0.8439766240999999
 40
0.8751948814
 40
0.9064081822
 40
0.9376157366999999
 40
0.9688156035999998
 40
0.9844109676999998
 40
1.0
 40
1.0
 40
1.0
 40
1.0
 10
15.2893842701
 20
5.732058240399999
 30
0.0
 10
14.9466296075
 20
5.7673747178
 30
0.0
 10
14.261148517
 20
5.838010871299997
 30
0.0
 10
13.232997514
 20
5.9439848121
 30
0.0
 10
12.205010597
 20
6.049961581699999
 30
0.0
 10
11.3484940453
 20
6.1382816665
 30
0.0
 10
10.6634218151
 20
6.2089272244
 30
0.0
 10
10.149746456
 20
6.261896605499999
 30
0.0
 10
9.636171233099998
 20
6.314847097
 30
0.0
 10
9.1227056346
 20
6.367761635599999
 30
0.0
 10
8.694888911799999
 20
6.4118079444
 30
0.0
 10
8.352694747899999
 20
6.446976068699997
 30
0.0
 10
8.0960984827
 20
6.473297856399997
 30
0.0
 10
7.839535001099996
 20
6.499530182
 30
0.0
 10
7.5830043719
 20
6.5255831857
 30
0.0
 10
7.3692403738
 20
6.547018966499997
 30
0.0
 10
7.1982214595
 20
6.5635750536
 30
0.0
 10
7.1126970259
 20
6.5714900058
 30
0.0
 10
7.0699145098
 20
6.575109342999999
 30
0.0
  0
LINE
  5
DDF
330
21D
100
AcDbEntity
  8
0
  6
Continuous
 62
     7
100
AcDbLine
 10
7.2245024511
 20
1.689705502899998
 30
0.0
 11
7.239617489999997
 21
1.689931523799999
 31
0.0
  0
SPLINE
  5
DE0
330
21D
100
AcDbEntity
  8
0
  6
Continuous
 62
     7
100
AcDbSpline
210
0.0
220
0.0
230
1.0
 70
     8
 71
     3
 72
    10
 73
     6
 74
     0
 42
0.0000000001
 43
0.0000000001
 40
0.0
 40
0.0
 40
0.0
 40
0.0
 40
0.4985874628
 40
0.7414413579000004
 40
1.0
 40
1.0
 40
1.0
 40
1.0
 10
7.1159817221
 20
1.7497023246
 30
0.0
 10
7.1389400847
 20
1.7483752655
 30
0.0
 10
7.1717522183
 20
1.7340475337
 30
0.0
 10
7.2107004124
 20
1.709836938799998
 30
0.0
 10
7.2297981707
 20
1.696699290599999
 30
0.0
 10
7.239617489999997
 20
1.689931523799999
 30
0.0
  0
LINE
  5
DE1
330
21D
100
AcDbEntity
  8
0
  6
Continuous
 62
     7
100
AcDbLine
 10
7.2245035258
 20
1.689705651299999
 30
0.0
 11
7.224365284
 21
1.689798529399999
 31
0.0
  0
SPLINE
  5
DE2
330
21D
100
AcDbEntity
  8
0
  6
Continuous
 62
     7
100
AcDbSpline
210
0.0
220
0.0
230
1.0
 70
     8
 71
     3
 72
     9
 73
     5
 74
     0
 42
0.0000000001
 43
0.0000000001
 40
0.0
 40
0.0
 40
0.0
 40
0.0
 40
0.4993170987
 40
1.0
 40
1.0
 40
1.0
 40
1.0
 10
7.0956854789
 20
1.7503799418
 30
0.0
 10
7.1194820571
 20
1.7489105808
 30
0.0
 10
7.165251936499997
 20
1.7296092624
 30
0.0
 10
7.2045220263
 20
1.7031310674
 30
0.0
 10
7.224366358999997
 20
1.689798678
 30
0.0
  0
LINE
  5
DE3
330
21D
100
AcDbEntity
  8
0
  6
Continuous
 62
     7
100
AcDbLine
 10
7.210388165299997
 20
1.6896650922
 30
0.0
 11
7.224366358999997
 21
1.689798678
 31
0.0
  0
SPLINE
  5
DE4
330
21D
100
AcDbEntity
  8
0
  6
Continuous
 62
     7
100
AcDbSpline
210
0.0
220
0.0
230
1.0
 70
     8
 71
     3
 72
    11
 73
     7
 74
     0
 42
0.0000000001
 43
0.0000000001
 40
0.0
 40
0.0
 40
0.0
 40
0.0
 40
0.2525753463
 40
0.5000138128
 40
0.7402435705000002
 40
1.0
 40
1.0
 40
1.0
 40
1.0
 10
7.0811710308
 20
1.7508005872
 30
0.0
 10
7.0933044834
 20
1.749998636699998
 30
0.0
 10
7.1170556072
 20
1.744176274799998
 30
0.0
 10
7.1493116238
 20
1.728858656299999
 30
0.0
 10
7.1801826549
 20
1.710297725
 30
0.0
 10
7.2000485623
 20
1.6966995712
 30
0.0
 10
7.210388165299997
 20
1.6896650922
 30
0.0
  0
SPLINE
  5
DE5
330
21D
100
AcDbEntity
  8
0
  6
Continuous
 62
     7
100
AcDbSpline
210
0.0
220
0.0
230
1.0
 70
     8
 71
     3
 72
    26
 73
    22
 74
     0
 42
0.0000000001
 43
0.0000000001
 40
0.0
 40
0.0
 40
0.0
 40
0.0
 40
0.1931044016
 40
0.3794033139
 40
0.5519559056000001
 40
0.6309460740000003
 40
0.7039732749
 40
0.7702880999
 40
0.8291826376000001
 40
0.8800783584999999
 40
0.9224412352999999
 40
0.9403012299
 40
0.9558825189
 40
0.9691466576999999
 40
0.9800693841999999
 40
0.9886348201999998
 40
0.9948186942999999
 40
0.9970122877999999
 40
0.9986060208999999
 40
0.9996008593
 40
1.0
 40
1.0
 40
1.0
 40
1.0
 10
7.524575914899996
 20
1.692236069199998
 30
0.0
 10
7.545524904099996
 20
1.6925109423
 30
0.0
 10
7.5866834909
 20
1.693141597299999
 30
0.0
 10
7.646555490399999
 20
1.6943652356
 30
0.0
 10
7.694044104299999
 20
1.695559731399999
 30
0.0
 10
7.729244358099997
 20
1.6965473171
 30
0.0
 10
7.7529223532
 20
1.697231579499999
 30
0.0
 10
7.774420051299999
 20
1.6978843341
 30
0.0
 10
7.7935177036
 20
1.6984645211
 30
0.0
 10
7.810017115099999
 20
1.6989905809
 30
0.0
 10
7.822066821499997
 20
1.699373485099999
 30
0.0
 10
7.830286524899999
 20
1.699649175999998
 30
0.0
 10
7.835350900299997
 20
1.6998224385
 30
0.0
 10
7.839662755199997
 20
1.6999730354
 30
0.0
 10
7.8432143488
 20
1.7001000225
 30
0.0
 10
7.8459962997
 20
1.7002127027
 30
0.0
 10
7.8478351459
 20
1.7002888352
 30
0.0
 10
7.848912284199999
 20
1.700350767199999
 30
0.0
 10
7.849435754799999
 20
1.700370561399997
 30
0.0
 10
7.8497486607
 20
1.700415353899997
 30
0.0
 10
7.849910986799999
 20
1.700409017299999
 30
0.0
 10
7.849947397
 20
1.7004324605
 30
0.0
  0
LINE
  5
DE6
330
21D
100
AcDbEntity
  8
0
  6
Continuous
 62
     7
100
AcDbLine
 10
7.524999885999996
 20
1.7500673061
 30
0.0
 11
7.5245759077
 21
1.692234666999999
 31
0.0
  0
SPLINE
  5
DE7
330
21D
100
AcDbEntity
  8
0
  6
Continuous
 62
     7
100
AcDbSpline
210
0.0
220
0.0
230
1.0
 70
     8
 71
     3
 72
    16
 73
    12
 74
     0
 42
0.0000000001
 43
0.0000000001
 40
0.0
 40
0.0
 40
0.0
 40
0.0
 40
0.0119348518
 40
0.0459485516
 40
0.0941822367
 40
0.1495469772
 40
0.2706644261
 40
0.4021109243
 40
0.542286504
 40
0.6894669793000002
 40
1.0
 40
1.0
 40
1.0
 40
1.0
 10
7.071262854999997
 20
1.7513884791
 30
0.0
 10
7.071226006399997
 20
1.751390927799999
 30
0.0
 10
7.0715078536
 20
1.7515066265
 30
0.0
 10
7.071612130499999
 20
1.751625568099997
 30
0.0
 10
7.0720184416
 20
1.7519012477
 30
0.0
 10
7.072489999400001
 20
1.7523794125
 30
0.0
 10
7.073055810099997
 20
1.753171275399999
 30
0.0
 10
7.073586655099997
 20
1.7542616115
 30
0.0
 10
7.0740924746
 20
1.755456071399998
 30
0.0
 10
7.074786791499997
 20
1.757170319
 30
0.0
 10
7.075342514799999
 20
1.758473978199998
 30
0.0
 10
7.0757494596
 20
1.7593444269
 30
0.0
  0
LINE
  5
DE8
330
21D
100
AcDbEntity
  8
0
  6
Continuous
 62
     7
100
AcDbLine
 10
7.2083129011
 20
1.6896856919
 30
0.0
 11
7.210388165299997
 21
1.6896650922
 31
0.0
  0
SPLINE
  5
DE9
330
21D
100
AcDbEntity
  8
0
  6
Continuous
 62
     7
100
AcDbSpline
210
0.0
220
0.0
230
1.0
 70
     8
 71
     3
 72
    15
 73
    11
 74
     0
 42
0.0000000001
 43
0.0000000001
 40
0.0
 40
0.0
 40
0.0
 40
0.0
 40
0.1246550919
 40
0.2493596603
 40
0.374181139
 40
0.4991180910000001
 40
0.6241929807
 40
0.7493814655
 40
0.8746604372
 40
1.0
 40
1.0
 40
1.0
 40
1.0
 10
15.5787967425
 20
2.5107944255
 30
0.0
 10
15.5767377475
 20
2.4807922227
 30
0.0
 10
15.5670488674
 20
2.4210148329
 30
0.0
 10
15.5364061731
 20
2.335581394499997
 30
0.0
 10
15.4904962451
 20
2.257180922499999
 30
0.0
 10
15.4310731283
 20
2.188343252599997
 30
0.0
 10
15.3599225229
 20
2.1315733731
 30
0.0
 10
15.2796220455
 20
2.088527121299998
 30
0.0
 10
15.1927577051
 20
2.0609196585
 30
0.0
 10
15.132390628
 20
2.0532290924
 30
0.0
 10
15.1021710382
 20
2.0521769752
 30
0.0
  0
SPLINE
  5
DEA
330
21D
100
AcDbEntity
  8
0
  6
Continuous
 62
     7
100
AcDbSpline
210
0.0
220
0.0
230
1.0
 70
     8
 71
     3
 72
    14
 73
    10
 74
     0
 42
0.0000000001
 43
0.0000000001
 40
0.0
 40
0.0
 40
0.0
 40
0.0
 40
0.3732476597
 40
0.5415324803
 40
0.6900217179000001
 40
0.8136725074999999
 40
0.9085298731999998
 40
0.9712662138
 40
1.0
 40
1.0
 40
1.0
 40
1.0
 10
14.9206377947
 20
2.5215500705
 30
0.0
 10
14.9226779978
 20
2.463580376399999
 30
0.0
 10
14.9256631011
 20
2.379474943299999
 30
0.0
 10
14.9295344048
 20
2.2723101766
 30
0.0
 10
14.932031153
 20
2.203910126799998
 30
0.0
 10
14.9341677453
 20
2.146916348099999
 30
0.0
 10
14.9357966427
 20
2.103238044
 30
0.0
 10
14.9370251502
 20
2.074309267699999
 30
0.0
 10
14.937546221
 20
2.060101042999999
 30
0.0
 10
14.9378441814
 20
2.055645541399997
 30
0.0
  0
SPLINE
  5
DEB
330
21D
100
AcDbEntity
  8
0
  6
Continuous
 62
     7
100
AcDbSpline
210
0.0
220
0.0
230
1.0
 70
     8
 71
     3
 72
    14
 73
    10
 74
     0
 42
0.0000000001
 43
0.0000000001
 40
0.0
 40
0.0
 40
0.0
 40
0.0
 40
0.3733434994
 40
0.5416467011
 40
0.6901595957
 40
0.8138079529999997
 40
0.9086402709999996
 40
0.9713390118999999
 40
1.0
 40
1.0
 40
1.0
 40
1.0
 10
8.5241356311
 20
2.297939589799999
 30
0.0
 10
8.526176313099997
 20
2.239953703399998
 30
0.0
 10
8.5291621007
 20
2.155828637699999
 30
0.0
 10
8.533034248899998
 20
2.048640047599997
 30
0.0
 10
8.5355311916
 20
1.980232302299999
 30
0.0
 10
8.537667992100001
 20
1.923237850299999
 30
0.0
 10
8.5392961308
 20
1.879568635699999
 30
0.0
 10
8.5405248111
 20
1.850660316999998
 30
0.0
 10
8.5410442239
 20
1.836468834399999
 30
0.0
 10
8.541342399500001
 20
1.832024585599999
 30
0.0
  0
SPLINE
  5
DEC
330
21D
100
AcDbEntity
  8
0
  6
Continuous
 62
     7
100
AcDbSpline
210
0.0
220
0.0
230
1.0
 70
     8
 71
     3
 72
    14
 73
    10
 74
     0
 42
0.0000000001
 43
0.0000000001
 40
0.0
 40
0.0
 40
0.0
 40
0.0
 40
0.3733576843
 40
0.541665776
 40
0.6901811901999999
 40
0.8138291423
 40
0.9086578090999999
 40
0.9713494589999999
 40
1.0
 40
1.0
 40
1.0
 40
1.0
 10
7.4834604735
 20
2.2615602663
 30
0.0
 10
7.4855012353
 20
2.2035719124
 30
0.0
 10
7.4884871302
 20
2.1194435003
 30
0.0
 10
7.4923594141
 20
2.012251068199998
 30
0.0
 10
7.494856392199999
 20
1.9438419224
 30
0.0
 10
7.4969932302
 20
1.886847452099998
 30
0.0
 10
7.4986212294
 20
1.8431797634
 30
0.0
 10
7.499849965599999
 20
1.814274616699998
 30
0.0
 10
7.500369089199999
 20
1.800085778499999
 30
0.0
 10
7.500667316699999
 20
1.795643139999999
 30
0.0
  0
SPLINE
  5
DED
330
21D
100
AcDbEntity
  8
0
  6
Continuous
 62
     7
100
AcDbSpline
210
0.0
220
0.0
230
1.0
 70
     8
 71
     3
 72
    25
 73
    21
 74
     0
 42
0.0000000001
 43
0.0000000001
 40
0.0
 40
0.0
 40
0.0
 40
0.0
 40
0.095259334
 40
0.1892134228
 40
0.2810663986
 40
0.3700276803
 40
0.4553201818
 40
0.5362540396
 40
0.6121850095
 40
0.6824822569000001
 40
0.7465437979000003
 40
0.8039165802999999
 40
0.8542246105
 40
0.8971441643
 40
0.9324471848999998
 40
0.9602467911999999
 40
0.9715614447
 40
0.9814602851
 40
0.9905372236999999
 40
1.0
 40
1.0
 40
1.0
 40
1.0
 10
7.079812690999996
 20
2.261963971899997
 30
0.0
 10
7.0797242532
 20
2.246927600099998
 30
0.0
 10
7.0796024408
 20
2.2170605861
 30
0.0
 10
7.079372687
 20
2.172695057799999
 30
0.0
 10
7.0793962519
 20
2.1293223275
 30
0.0
 10
7.079892967
 20
2.087319893
 30
0.0
 10
7.0805637083
 20
2.0470442141
 30
0.0
 10
7.081354060299997
 20
2.0088278959
 30
0.0
 10
7.0823975799
 20
1.972984567299999
 30
0.0
 10
7.0839238462
 20
1.939823985
 30
0.0
 10
7.085746388799997
 20
1.9096134705
 30
0.0
 10
7.0877735979
 20
1.882578163499998
 30
0.0
 10
7.0901263607
 20
1.8589200205
 30
0.0
 10
7.0929944345
 20
1.838821923899999
 30
0.0
 10
7.096402230099997
 20
1.822432997599999
 30
0.0
 10
7.0998817757
 20
1.8111576109
 30
0.0
 10
7.103322661099999
 20
1.804207176699998
 30
0.0
 10
7.106094773999997
 20
1.8002754299
 30
0.0
 10
7.1095134169
 20
1.797281644
 30
0.0
 10
7.1122550836
 20
1.796103747199999
 30
0.0
 10
7.1136980472
 20
1.7957177712
 30
0.0
  0
SPLINE
  5
DEE
330
21D
100
AcDbEntity
  8
0
  6
Continuous
 62
     7
100
AcDbSpline
210
0.0
220
0.0
230
1.0
 70
     8
 71
     3
 72
    15
 73
    11
 74
     0
 42
0.0000000001
 43
0.0000000001
 40
0.0
 40
0.0
 40
0.0
 40
0.0
 40
0.1247422973
 40
0.2495200539
 40
0.3743706653999999
 40
0.4993191986000002
 40
0.6243627093000002
 40
0.7495096537000002
 40
0.8747224292
 40
1.0
 40
1.0
 40
1.0
 40
1.0
 10
6.611292369199999
 20
2.2253922621
 30
0.0
 10
6.6128615658
 20
2.1955329562
 30
0.0
 10
6.6215519321
 20
2.1359613244
 30
0.0
 10
6.6504763522
 20
2.0505084644
 30
0.0
 10
6.6946125672
 20
1.971738993399999
 30
0.0
 10
6.7522422796
 20
1.902157788899998
 30
0.0
 10
6.8216821383
 20
1.844246483799999
 30
0.0
 10
6.9004510078
 20
1.7997160781
 30
0.0
 10
6.986034392999999
 20
1.770244328
 30
0.0
 10
7.045775708399999
 20
1.761157505899999
 30
0.0
 10
7.075750025299996
 20
1.759349182599998
 30
0.0
  0
SPLINE
  5
DEF
330
21D
100
AcDbEntity
  8
0
  6
Continuous
 62
     7
100
AcDbSpline
210
0.0
220
0.0
230
1.0
 70
     8
 71
     3
 72
    13
 73
     9
 74
     0
 42
0.0000000001
 43
0.0000000001
 40
0.0
 40
0.0
 40
0.0
 40
0.0
 40
0.1249252741
 40
0.2498992935
 40
0.4990783224000002
 40
0.7487950372
 40
0.8743630905999999
 40
1.0
 40
1.0
 40
1.0
 40
1.0
 10
6.609436455499999
 20
2.260709578799998
 30
0.0
 10
6.611051682799997
 20
2.2299743846
 30
0.0
 10
6.6201932138
 20
2.168634955299999
 30
0.0
 10
6.6608071077
 20
2.051965718099999
 30
0.0
 10
6.752144451299997
 20
1.9234830633
 30
0.0
 10
6.884556674999998
 20
1.837743600999998
 30
0.0
 10
7.0032031145
 20
1.801780883
 30
0.0
 10
7.065162729199999
 20
1.7949830436
 30
0.0
 10
7.096112183499996
 20
1.7945190783
 30
0.0
  0
SPLINE
  5
DF0
330
21D
100
AcDbEntity
  8
0
  6
Continuous
 62
     7
100
AcDbSpline
210
0.0
220
0.0
230
1.0
 70
     8
 71
     3
 72
     9
 73
     5
 74
     0
 42
0.0000000001
 43
0.0000000001
 40
0.0
 40
0.0
 40
0.0
 40
0.0
 40
0.4469748878
 40
1.0
 40
1.0
 40
1.0
 40
1.0
 10
7.0442203023
 20
6.662046876399997
 30
0.0
 10
7.0459088157
 20
6.6514982779
 30
0.0
 10
7.0483108696
 20
6.6276886126
 30
0.0
 10
7.0495276621
 20
6.6038154632
 30
0.0
 10
7.049907785499999
 20
6.5906034025
 30
0.0
  0
SPLINE
  5
DF1
330
21D
100
AcDbEntity
  8
0
  6
Continuous
 62
     7
100
AcDbSpline
210
0.0
220
0.0
230
1.0
 70
     8
 71
     3
 72
     9
 73
     5
 74
     0
 42
0.0000000001
 43
0.0000000001
 40
0.0
 40
0.0
 40
0.0
 40
0.0
 40
0.5001760207000002
 40
1.0
 40
1.0
 40
1.0
 40
1.0
 10
6.355304674199999
 20
6.660347923799997
 30
0.0
 10
6.3631860871
 20
6.6520001123
 30
0.0
 10
6.375994001699999
 20
6.632315870599999
 30
0.0
 10
6.3813824601
 20
6.609456127
 30
0.0
 10
6.381967942899999
 20
6.5979986245
 30
0.0
  0
SPLINE
  5
DF2
330
21D
100
AcDbEntity
  8
0
  6
Continuous
 62
     7
100
AcDbSpline
210
0.0
220
0.0
230
1.0
 70
     8
 71
     3
 72
     9
 73
     5
 74
     0
 42
0.0000000001
 43
0.0000000001
 40
0.0
 40
0.0
 40
0.0
 40
0.0
 40
0.4571489707
 40
1.0
 40
1.0
 40
1.0
 40
1.0
 10
15.4486843959
 20
6.658919682
 30
0.0
 10
15.4469489329
 20
6.6489639269
 30
0.0
 10
15.4439124175
 20
6.627055939799999
 30
0.0
 10
15.4416502247
 20
6.605062840099997
 30
0.0
 10
15.4406095986
 20
6.593107602999999
 30
0.0
  0
SPLINE
  5
DF3
330
21D
100
AcDbEntity
  8
0
  6
Continuous
 62
     7
100
AcDbSpline
210
0.0
220
0.0
230
1.0
 70
     8
 71
     3
 72
     9
 73
     5
 74
     0
 42
0.0000000001
 43
0.0000000001
 40
0.0
 40
0.0
 40
0.0
 40
0.0
 40
0.4452753423
 40
1.0
 40
1.0
 40
1.0
 40
1.0
 10
7.067670951599997
 20
6.6623081622
 30
0.0
 10
7.0685430284
 20
6.651733744099996
 30
0.0
 10
7.069578883999997
 20
6.6279146884
 30
0.0
 10
7.069886957999999
 20
6.6040873073
 30
0.0
 10
7.069883596599996
 20
6.590868958999997
 30
0.0
  0
SPLINE
  5
DF4
330
21D
100
AcDbEntity
  8
0
  6
Continuous
 62
     7
100
AcDbSpline
210
0.0
220
0.0
230
1.0
 70
     8
 71
     3
 72
    24
 73
    20
 74
     0
 42
0.0000000001
 43
0.0000000001
 40
0.0
 40
0.0
 40
0.0
 40
0.0
 40
0.1251401666
 40
0.2502658649
 40
0.3753636762
 40
0.5004202269000002
 40
0.5629288629
 40
0.6254222088
 40
0.6878986328
 40
0.7503565423000002
 40
0.8127944759000001
 40
0.8440055709000001
 40
0.8752113401999999
 40
0.9064118493
 40
0.9376075938999999
 40
0.9688004294
 40
0.9843978127999999
 40
0.9921978127999999
 40
1.0
 40
1.0
 40
1.0
 40
1.0
 10
15.3595312683
 20
6.596130380199997
 30
0.0
 10
15.0137407189
 20
6.596178057999999
 30
0.0
 10
14.3221996008
 20
6.5962817569
 30
0.0
 10
13.2849849756
 20
6.5964628447
 30
0.0
 10
12.2480014008
 20
6.5966478645
 30
0.0
 10
11.3840429127
 20
6.596801441499997
 30
0.0
 10
10.6930747008
 20
6.596906632
 30
0.0
 10
10.1750295132
 20
6.596970329099997
 30
0.0
 10
9.657124491099999
 20
6.5970075319
 30
0.0
 10
9.139372585
 20
6.596994195399999
 30
0.0
 10
8.7080138487
 20
6.596910213099999
 30
0.0
 10
8.363011870900001
 20
6.596745316599997
 30
0.0
 10
8.104325987399999
 20
6.5965487294
 30
0.0
 10
7.845682636799999
 20
6.596223382599997
 30
0.0
 10
7.5870753983
 20
6.595658282599997
 30
0.0
 10
7.3715841421
 20
6.594762746399997
 30
0.0
 10
7.2207435548
 20
6.5934783907
 30
0.0
 10
7.1345408282
 20
6.5922489683
 30
0.0
 10
7.091435590399999
 20
6.5914259095
 30
0.0
 10
7.069883579899999
 20
6.590868944199999
 30
0.0
  0
LINE
  5
DF5
330
21D
100
AcDbEntity
  8
0
  6
Continuous
 62
     7
100
AcDbLine
 10
7.4120713484
 20
1.747283953899998
 30
0.0
 11
7.430188501399999
 21
1.7475437857
 31
0.0
  0
SPLINE
  5
DF6
330
21D
100
AcDbEntity
  8
0
  6
Continuous
 62
     7
100
AcDbSpline
210
0.0
220
0.0
230
1.0
 70
     8
 71
     3
 72
     9
 73
     5
 74
     0
 42
0.0000000001
 43
0.0000000001
 40
0.0
 40
0.0
 40
0.0
 40
0.0
 40
0.2232852892
 40
1.0
 40
1.0
 40
1.0
 40
1.0
 10
7.430188501399999
 20
1.7475437857
 30
0.0
 10
7.4354346813
 20
1.7476229712
 30
0.0
 10
7.4589295665
 20
1.748000315699998
 30
0.0
 10
7.482423507899999
 20
1.7485357387
 30
0.0
 10
7.5006628859
 20
1.749195620099999
 30
0.0
  0
SPLINE
  5
DF7
330
21D
100
AcDbEntity
  8
0
  6
Continuous
 62
     7
100
AcDbSpline
210
0.0
220
0.0
230
1.0
 70
     8
 71
     3
 72
     9
 73
     5
 74
     0
 42
0.0000000001
 43
0.0000000001
 40
0.0
 40
0.0
 40
0.0
 40
0.0
 40
0.235222689
 40
1.0
 40
1.0
 40
1.0
 40
1.0
 10
7.164090688699999
 20
1.7952997949
 30
0.0
 10
7.1904807784
 20
1.7951353047
 30
0.0
 10
7.302659490099999
 20
1.7939197377
 30
0.0
 10
7.414916061499996
 20
1.792649016399999
 30
0.0
 10
7.5006673135
 20
1.7956433749
 30
0.0
  0
SPLINE
  5
DF8
330
21D
100
AcDbEntity
  8
0
  6
Continuous
 62
     7
100
AcDbSpline
210
0.0
220
0.0
230
1.0
 70
     8
 71
     3
 72
    17
 73
    13
 74
     0
 42
0.0000000001
 43
0.0000000001
 40
0.0
 40
0.0
 40
0.0
 40
0.0
 40
0.2500231434
 40
0.3750322853
 40
0.5000385101
 40
0.6250407972
 40
0.7500379979
 40
0.8125342107999998
 40
0.8750283715
 40
0.9375194254
 40
0.9687625282999999
 40
1.0
 40
1.0
 40
1.0
 40
1.0
 10
15.0202419317
 20
4.043813242399997
 30
0.0
 10
14.3576650248
 20
4.2518941627
 30
0.0
 10
13.363806829
 20
4.564015830199998
 30
0.0
 10
12.0386779913
 20
4.980185105899999
 30
0.0
 10
11.0448633403
 20
5.292309786799997
 30
0.0
 10
10.0510826596
 20
5.6044319349
 30
0.0
 10
9.2229573971
 20
5.864530305199997
 30
0.0
 10
8.560479883300001
 20
6.072597972999999
 30
0.0
 10
8.063642509700001
 20
6.228629025399999
 30
0.0
 10
7.6496238373
 20
6.358637172299999
 30
0.0
 10
7.318413506199997
 20
6.462555942199996
 30
0.0
 10
7.1528096395
 20
6.514471134699999
 30
0.0
 10
7.0699825972
 20
6.5403221384
 30
0.0
  0
LINE
  5
DF9
330
21D
100
AcDbEntity
  8
0
  6
Continuous
 62
     7
100
AcDbLine
 10
7.4079995511
 20
1.747227800299999
 30
0.0
 11
7.4120713484
 21
1.747283953899998
 31
0.0
  0
SPLINE
  5
DFA
330
21D
100
AcDbEntity
  8
0
  6
Continuous
 62
     7
100
AcDbSpline
210
0.0
220
0.0
230
1.0
 70
     8
 71
     3
 72
     9
 73
     5
 74
     0
 42
0.0000000001
 43
0.0000000001
 40
0.0
 40
0.0
 40
0.0
 40
0.0
 40
0.5053459205
 40
1.0
 40
1.0
 40
1.0
 40
1.0
 10
7.164090761
 20
1.795300081899999
 30
0.0
 10
7.204146891
 20
1.782876562599998
 30
0.0
 10
7.284727271699999
 20
1.762310098699999
 30
0.0
 10
7.3670923101
 20
1.7506625136
 30
0.0
 10
7.407999551
 20
1.747227800399999
 30
0.0
  0
SPLINE
  5
DFB
330
21D
100
AcDbEntity
  8
0
  6
Continuous
 62
     7
100
AcDbSpline
210
0.0
220
0.0
230
1.0
 70
     8
 71
     3
 72
    14
 73
    10
 74
     0
 42
0.0000000001
 43
0.0000000001
 40
0.0
 40
0.0
 40
0.0
 40
0.0
 40
0.022294396
 40
0.0777148375
 40
0.1663779604
 40
0.2850171213
 40
0.4309503835000001
 40
0.6014697779000003
 40
1.0
 40
1.0
 40
1.0
 40
1.0
 10
7.0961296021
 20
1.7945190815
 30
0.0
 10
7.0961484008
 20
1.7946492675
 30
0.0
 10
7.0967080223
 20
1.794821245099998
 30
0.0
 10
7.0975674696
 20
1.7949870918
 30
0.0
 10
7.0991658119
 20
1.7951647318
 30
0.0
 10
7.101220094199999
 20
1.795322179
 30
0.0
 10
7.1037922373
 20
1.7954619086
 30
0.0
 10
7.1080038386
 20
1.7956214796
 30
0.0
 10
7.1113625113
 20
1.7956877947
 30
0.0
 10
7.113713630099997
 20
1.7957182808
 30
0.0
  0
SPLINE
  5
DFC
330
21D
100
AcDbEntity
  8
0
  6
Continuous
 62
     7
100
AcDbSpline
210
0.0
220
0.0
230
1.0
 70
     8
 71
     3
 72
    14
 73
    10
 74
     0
 42
0.0000000001
 43
0.0000000001
 40
0.0
 40
0.0
 40
0.0
 40
0.0
 40
0.207710313
 40
0.2617425352
 40
0.3093730334
 40
0.4027024873
 40
0.5019517823
 40
0.7294376161000003
 40
1.0
 40
1.0
 40
1.0
 40
1.0
 10
7.0757494596
 20
1.7593444269
 30
0.0
 10
7.0788945609
 20
1.759445712899998
 30
0.0
 10
7.0831105225
 20
1.7598161102
 30
0.0
 10
7.086979735599999
 20
1.762563964699999
 30
0.0
 10
7.0889265322
 20
1.764808400599999
 30
0.0
 10
7.090648953699997
 20
1.7680562193
 30
0.0
 10
7.0926243136
 20
1.7741162506
 30
0.0
 10
7.0944135246
 20
1.783004497899999
 30
0.0
 10
7.095565115399999
 20
1.790459220399998
 30
0.0
 10
7.0961296021
 20
1.7945190815
 30
0.0
  0
SPLINE
  5
DFD
330
21D
100
AcDbEntity
  8
0
  6
Continuous
 62
     7
100
AcDbSpline
210
0.0
220
0.0
230
1.0
 70
     8
 71
     3
 72
    24
 73
    20
 74
     0
 42
0.0000000001
 43
0.0000000001
 40
0.0
 40
0.0
 40
0.0
 40
0.0
 40
0.0980071823
 40
0.1944349735
 40
0.3794510711
 40
0.5489733744
 40
0.6262513291
 40
0.6977052235
 40
0.7627065820000001
 40
0.8207614679999998
 40
0.871430345
 40
0.9142498774999999
 40
0.9487518091
 40
0.9627968961
 40
0.9746715031
 40
0.9843503547999999
 40
0.991808791
 40
0.9970266999999999
 40
1.0
 40
1.0
 40
1.0
 40
1.0
 10
7.0442205586
 20
6.6620506294
 30
0.0
 10
7.021725507899999
 20
6.6621137139
 30
0.0
 10
6.9770979195
 20
6.662258818799997
 30
0.0
 10
6.890004173099999
 20
6.662236910599999
 30
0.0
 10
6.7864960223
 20
6.662185247899999
 30
0.0
 10
6.687383193999997
 20
6.6621397461
 30
0.0
 10
6.6143357796
 20
6.662123199099997
 30
0.0
 10
6.565278576399999
 20
6.6621275289
 30
0.0
 10
6.5206335572
 20
6.6621527672
 30
0.0
 10
6.480759257699999
 20
6.662190383099999
 30
0.0
 10
6.445976187999999
 20
6.6622159523
 30
0.0
 10
6.416599256599996
 20
6.662203390399999
 30
0.0
 10
6.395628101799999
 20
6.6621237112
 30
0.0
 10
6.3817606882
 20
6.662008662399999
 30
0.0
 10
6.3735896134
 20
6.6618997848
 30
0.0
 10
6.3669349171
 20
6.6617463298
 30
0.0
 10
6.3618002211
 20
6.661564037299996
 30
0.0
 10
6.358230880199997
 20
6.6612917738
 30
0.0
 10
6.3563424432
 20
6.6610790533
 30
0.0
 10
6.3556959902
 20
6.6608603444
 30
0.0
  0
SPLINE
  5
DFE
330
21D
100
AcDbEntity
  8
0
  6
Continuous
 62
     7
100
AcDbSpline
210
0.0
220
0.0
230
1.0
 70
     8
 71
     3
 72
     9
 73
     5
 74
     0
 42
0.0000000001
 43
0.0000000001
 40
0.0
 40
0.0
 40
0.0
 40
0.0
 40
0.6418774273
 40
1.0
 40
1.0
 40
1.0
 40
1.0
 10
6.3556959902
 20
6.6608603444
 30
0.0
 10
6.3555405922
 20
6.660807769899999
 30
0.0
 10
6.355212335399999
 20
6.660751481
 30
0.0
 10
6.3552418519
 20
6.6604144884
 30
0.0
 10
6.355304674299999
 20
6.660347923799997
 30
0.0
  0
LINE
  5
DFF
330
21D
100
AcDbEntity
  8
0
  6
Continuous
 62
     7
100
AcDbLine
 10
15.4486820727
 20
6.6589200663
 30
0.0
 11
15.6965537549
 21
6.910644017
 31
0.0
  0
SPLINE
  5
E00
330
21D
100
AcDbEntity
  8
0
  6
Continuous
 62
     7
100
AcDbSpline
210
0.0
220
0.0
230
1.0
 70
     8
 71
     3
 72
    21
 73
    17
 74
     0
 42
0.0000000001
 43
0.0000000001
 40
0.0
 40
0.0
 40
0.0
 40
0.0
 40
0.1251415492
 40
0.2502703988
 40
0.3753729889
 40
0.5004359682000003
 40
0.6254461237
 40
0.6879272921
 40
0.7503903923000001
 40
0.8128338657999998
 40
0.875256283
 40
0.9064591118999999
 40
0.9376558195999999
 40
0.9688441018999998
 40
0.9844311676
 40
1.0
 40
1.0
 40
1.0
 40
1.0
 10
15.3594215908
 20
6.6625737035
 30
0.0
 10
15.0135404229
 20
6.6623815089
 30
0.0
 10
14.3218131862
 20
6.662000416399997
 30
0.0
 10
13.2843124562
 20
6.661436775299997
 30
0.0
 10
12.247028884
 20
6.660879316199999
 30
0.0
 10
11.2100733612
 20
6.660343720599999
 30
0.0
 10
10.3461983955
 20
6.6599263795
 30
0.0
 10
9.655344443999998
 20
6.6596337696
 30
0.0
 10
9.137419765
 20
6.659444464099997
 30
0.0
 10
8.619657447199999
 20
6.659310569999997
 30
0.0
 10
8.1882960084
 20
6.659290573799999
 30
0.0
 10
7.843298106699999
 20
6.659420445199997
 30
0.0
 10
7.5846290624
 20
6.6596671208
 30
0.0
 10
7.3691206096
 20
6.6601077219
 30
0.0
 10
7.196808424099997
 20
6.660935914099996
 30
0.0
 10
7.1106982163
 20
6.661684461
 30
0.0
 10
7.0676717044
 20
6.6623063585
 30
0.0
  0
SPLINE
  5
E01
330
21D
100
AcDbEntity
  8
0
  6
Continuous
 62
     7
100
AcDbSpline
210
0.0
220
0.0
230
1.0
 70
     8
 71
     3
 72
    22
 73
    18
 74
     0
 42
0.0000000001
 43
0.0000000001
 40
0.0
 40
0.0
 40
0.0
 40
0.0
 40
0.1961374396
 40
0.3820259751
 40
0.5516552598
 40
0.6287367678
 40
0.699819077
 40
0.7642943967
 40
0.8217281909999998
 40
0.8717348132999999
 40
0.9139183240999999
 40
0.9478973011
 40
0.9735096779
 40
0.9831742329
 40
0.9907584268999999
 40
0.9963127811999999
 40
1.0
 40
1.0
 40
1.0
 40
1.0
 10
7.049907644
 20
6.5906034025
 30
0.0
 10
7.006173146599997
 20
6.589454913099999
 30
0.0
 10
6.920978376199999
 20
6.5876253261
 30
0.0
 10
6.7979389621
 20
6.585952571099999
 30
0.0
 10
6.701446015599999
 20
6.5853413109
 30
0.0
 10
6.6305602312
 20
6.5853600772
 30
0.0
 10
6.583130262899999
 20
6.585609925099999
 30
0.0
 10
6.540084901499997
 20
6.5860955464
 30
0.0
 10
6.5017443897
 20
6.5868268801
 30
0.0
 10
6.4683843584
 20
6.587818073099999
 30
0.0
 10
6.440266572999999
 20
6.589074642399999
 30
0.0
 10
6.417618991799999
 20
6.590623144199999
 30
0.0
 10
6.4022422058
 20
6.5922483771
 30
0.0
 10
6.392818857099999
 20
6.5938525469
 30
0.0
 10
6.387854267999999
 20
6.595028819999997
 30
0.0
 10
6.384327118999997
 20
6.5962709491
 30
0.0
 10
6.382502631799999
 20
6.597369909299999
 30
0.0
 10
6.381972396699999
 20
6.597998624799996
 30
0.0
  0
LINE
  5
E02
330
21D
100
AcDbEntity
  8
0
  6
Continuous
 62
     7
100
AcDbLine
 10
15.045566239
 20
3.904952107699998
 30
0.0
 11
7.069992191799999
 21
6.5362746646
 31
0.0
  0
SPLINE
  5
E03
330
21D
100
AcDbEntity
  8
0
  6
Continuous
 62
     7
100
AcDbSpline
210
0.0
220
0.0
230
1.0
 70
     8
 71
     3
 72
    14
 73
    10
 74
     0
 42
0.0000000001
 43
0.0000000001
 40
0.0
 40
0.0
 40
0.0
 40
0.0
 40
0.2499958794
 40
0.4999779260000001
 40
0.7499482118000002
 40
0.8124598345
 40
0.8749728836
 40
0.9374857658999999
 40
1.0
 40
1.0
 40
1.0
 40
1.0
 10
14.9206378075
 20
2.5215492662
 30
0.0
 10
14.9140414503
 20
2.6375935086
 30
0.0
 10
14.9077607267
 20
2.8701573636
 30
0.0
 10
14.9227647284
 20
3.2188082731
 30
0.0
 10
14.9549597073
 20
3.478704183899997
 30
0.0
 10
14.9861804887
 20
3.65024243
 30
0.0
 10
15.0037078248
 20
3.735664294499998
 30
0.0
 10
15.0233912298
 20
3.8206173004
 30
0.0
 10
15.0379811716
 20
3.8768925222
 30
0.0
 10
15.0455656983
 20
3.904950472499998
 30
0.0
  0
LINE
  5
E04
330
21D
100
AcDbEntity
  8
0
  6
Continuous
 62
     7
100
AcDbLine
 10
8.5241356311
 20
2.297939589899999
 30
0.0
 11
14.9206378077
 21
2.5215492601
 31
0.0
  0
SPLINE
  5
E05
330
21D
100
AcDbEntity
  8
0
  6
Continuous
 62
     7
100
AcDbSpline
210
0.0
220
0.0
230
1.0
 70
     8
 71
     3
 72
     8
 73
     4
 74
     0
 42
0.0000000001
 43
0.0000000001
 40
0.0
 40
0.0
 40
0.0
 40
0.0
 40
1.0
 40
1.0
 40
1.0
 40
1.0
 10
7.0699921744
 20
6.536274604699999
 30
0.0
 10
7.072961975499999
 20
5.1234556485
 30
0.0
 10
7.0761475096
 20
3.710637095
 30
0.0
 10
7.0797255008
 20
2.2978195481
 30
0.0
  0
LINE
  5
E06
330
21D
100
AcDbEntity
  8
0
  6
Continuous
 62
     7
100
AcDbLine
 10
7.0811710308
 20
1.7508005872
 30
0.0
 11
7.0956854789
 21
1.7503799418
 31
0.0
  0
LINE
  5
E07
330
21D
100
AcDbEntity
  8
0
  6
Continuous
 62
     7
100
AcDbLine
 10
7.256689213999997
 20
1.746883536299999
 30
0.0
 11
7.257379410399999
 21
1.746876832499999
 31
0.0
  0
SPLINE
  5
E08
330
21D
100
AcDbEntity
  8
0
  6
Continuous
 62
     7
100
AcDbSpline
210
0.0
220
0.0
230
1.0
 70
     8
 71
     3
 72
     9
 73
     5
 74
     0
 42
0.0000000001
 43
0.0000000001
 40
0.0
 40
0.0
 40
0.0
 40
0.0
 40
0.2462043598
 40
1.0
 40
1.0
 40
1.0
 40
1.0
 10
15.128689334
 20
4.1558052341
 30
0.0
 10
15.1238040926
 20
4.1636841535
 30
0.0
 10
15.104181453
 20
4.195822114599997
 30
0.0
 10
15.0852501861
 20
4.228375736399997
 30
0.0
 10
15.071097552
 20
4.2529788898
 30
0.0
  0
SPLINE
  5
E09
330
21D
100
AcDbEntity
  8
0
  6
Continuous
 62
     7
100
AcDbSpline
210
0.0
220
0.0
230
1.0
 70
     8
 71
     3
 72
     9
 73
     5
 74
     0
 42
0.0000000001
 43
0.0000000001
 40
0.0
 40
0.0
 40
0.0
 40
0.0
 40
0.5425563457
 40
1.0
 40
1.0
 40
1.0
 40
1.0
 10
15.1019779914
 20
4.0305464407
 30
0.0
 10
15.1038510689
 20
4.027672257299998
 30
0.0
 10
15.1079411372
 20
4.022690706699997
 30
0.0
 10
15.1138034559
 20
4.019690720499998
 30
0.0
 10
15.1166339933
 20
4.0190953669
 30
0.0
  0
SPLINE
  5
E0A
330
21D
100
AcDbEntity
  8
0
  6
Continuous
 62
     7
100
AcDbSpline
210
0.0
220
0.0
230
1.0
 70
     8
 71
     3
 72
    16
 73
    12
 74
     0
 42
0.0000000001
 43
0.0000000001
 40
0.0
 40
0.0
 40
0.0
 40
0.0
 40
0.1058197858
 40
0.1528043626
 40
0.199058624
 40
0.2975248092
 40
0.4115600750000001
 40
0.5421943058
 40
0.6864037839
 40
0.8400175876
 40
1.0
 40
1.0
 40
1.0
 40
1.0
 10
15.101977963
 20
4.030546456299997
 30
0.0
 10
15.1073205127
 20
4.030642531799998
 30
0.0
 10
15.1151884898
 20
4.0316978563
 30
0.0
 10
15.1242302779
 20
4.0362685637
 30
0.0
 10
15.1317386823
 20
4.0425015124
 30
0.0
 10
15.1388692377
 20
4.053791294699998
 30
0.0
 10
15.1439094642
 20
4.0704867983
 30
0.0
 10
15.1460908286
 20
4.0900959688
 30
0.0
 10
15.1449693723
 20
4.1118008491
 30
0.0
 10
15.1397399573
 20
4.1344565483
 30
0.0
 10
15.1329463608
 20
4.148939676399997
 30
0.0
 10
15.1286893466
 20
4.1558053893
 30
0.0
  0
LINE
  5
E0B
330
21D
100
AcDbEntity
  8
0
  6
Continuous
 62
     7
100
AcDbLine
 10
15.0309963037
 20
4.0404358539
 30
0.0
 11
15.0312139876
 21
4.040367738999997
 31
0.0
  0
SPLINE
  5
E0C
330
21D
100
AcDbEntity
  8
0
  6
Continuous
 62
     7
100
AcDbSpline
210
0.0
220
0.0
230
1.0
 70
     8
 71
     3
 72
     9
 73
     5
 74
     0
 42
0.0000000001
 43
0.0000000001
 40
0.0
 40
0.0
 40
0.0
 40
0.0
 40
0.4943895256000002
 40
1.0
 40
1.0
 40
1.0
 40
1.0
 10
15.0312139876
 20
4.040367738999997
 30
0.0
 10
15.0424886254
 20
4.036846540199998
 30
0.0
 10
15.0659377569
 20
4.031653576
 30
0.0
 10
15.0899000333
 20
4.0303288837
 30
0.0
 10
15.1019778675
 20
4.0305460734
 30
0.0
  0
SPLINE
  5
E0D
330
21D
100
AcDbEntity
  8
0
  6
Continuous
 62
     7
100
AcDbSpline
210
0.0
220
0.0
230
1.0
 70
     8
 71
     3
 72
    17
 73
    13
 74
     0
 42
0.0000000001
 43
0.0000000001
 40
0.0
 40
0.0
 40
0.0
 40
0.0
 40
0.182324312
 40
0.3556655397
 40
0.5149549443
 40
0.6559581222
 40
0.7751863872
 40
0.8708108055
 40
0.9098559435
 40
0.9436231841999999
 40
0.9731270342
 40
1.0
 40
1.0
 40
1.0
 40
1.0
 10
15.3198665696
 20
4.179602288499998
 30
0.0
 10
15.3195234815
 20
4.1680355847
 30
0.0
 10
15.318278633
 20
4.145484538699998
 30
0.0
 10
15.3147162794
 20
4.112977703999997
 30
0.0
 10
15.3095764706
 20
4.083338750899997
 30
0.0
 10
15.3030767161
 20
4.0574785326
 30
0.0
 10
15.295395844
 20
4.036204523399997
 30
0.0
 10
15.2878097293
 20
4.0218539445
 30
0.0
 10
15.2810834677
 20
4.0134995367
 30
0.0
 10
15.2762043147
 20
4.0091550463
 30
0.0
 10
15.2711568987
 20
4.006341848399998
 30
0.0
 10
15.2675983927
 20
4.005546944299998
 30
0.0
 10
15.2658951601
 20
4.0054575299
 30
0.0
  0
SPLINE
  5
E0E
330
21D
100
AcDbEntity
  8
0
  6
Continuous
 62
     7
100
AcDbSpline
210
0.0
220
0.0
230
1.0
 70
     8
 71
     3
 72
    21
 73
    17
 74
     0
 42
0.0000000001
 43
0.0000000001
 40
0.0
 40
0.0
 40
0.0
 40
0.0
 40
0.0962962974
 40
0.1384773323
 40
0.1590787524
 40
0.1795979474
 40
0.2227570035
 40
0.2700198118
 40
0.3220916152
 40
0.3797707536999999
 40
0.5114468156000001
 40
0.6622972049
 40
0.7434020970999999
 40
0.8272218112
 40
0.9129926634
 40
1.0
 40
1.0
 40
1.0
 40
1.0
 10
15.1166319881
 20
4.0190955373
 30
0.0
 10
15.1236761765
 20
4.017828738999997
 30
0.0
 10
15.134263447
 20
4.0170994036
 30
0.0
 10
15.145706547
 20
4.0205261266
 30
0.0
 10
15.1512071583
 20
4.0234106923
 30
0.0
 10
15.1562717959
 20
4.027127169599998
 30
0.0
 10
15.1620573186
 20
4.033083021999997
 30
0.0
 10
15.1679428389
 20
4.041961095099997
 30
0.0
 10
15.1725364823
 20
4.0527359906
 30
0.0
 10
15.1777629811
 20
4.0699316107
 30
0.0
 10
15.1809707523
 20
4.095183659499999
 30
0.0
 10
15.1803504252
 20
4.1222786714
 30
0.0
 10
15.1774358609
 20
4.145590725499998
 30
0.0
 10
15.1734661577
 20
4.163820387099997
 30
0.0
 10
15.1679753939
 20
4.182102272599999
 30
0.0
 10
15.1632050268
 20
4.194052780299998
 30
0.0
 10
15.1604801433
 20
4.199917453899997
 30
0.0
  0
SPLINE
  5
E0F
330
21D
100
AcDbEntity
  8
0
  6
Continuous
 62
     7
100
AcDbSpline
210
0.0
220
0.0
230
1.0
 70
     8
 71
     3
 72
    28
 73
    24
 74
     0
 42
0.0000000001
 43
0.0000000001
 40
0.0
 40
0.0
 40
0.0
 40
0.0
 40
0.0491561828
 40
0.0981958525
 40
0.1469990075
 40
0.1954472257
 40
0.2908093018
 40
0.38333936
 40
0.4721005899000001
 40
0.5562596086
 40
0.6350337315
 40
0.7076423272
 40
0.7733375040000002
 40
0.8315555816999998
 40
0.8817958330999998
 40
0.9235552627
 40
0.9563827262
 40
0.9693770446
 40
0.9800691281
 40
0.988446137
 40
0.9945041553999999
 40
0.9982721509999999
 40
1.0
 40
1.0
 40
1.0
 40
1.0
 10
14.9206377518
 20
2.5215493733
 30
0.0
 10
14.9314419697
 20
2.522102243399999
 30
0.0
 10
14.9530087851
 20
2.523503757299998
 30
0.0
 10
14.9853284033
 20
2.524963706499999
 30
0.0
 10
15.0174870235
 20
2.526508960699997
 30
0.0
 10
15.0598335632
 20
2.528443484199998
 30
0.0
 10
15.1117980611
 20
2.530714540199999
 30
0.0
 10
15.1726328647
 20
2.533218370099997
 30
0.0
 10
15.2310116443
 20
2.5354328038
 30
0.0
 10
15.2863729529
 20
2.537316829999999
 30
0.0
 10
15.3381877824
 20
2.53888132
 30
0.0
 10
15.3859459773
 20
2.540144185499999
 30
0.0
 10
15.4291873922
 20
2.541061646299997
 30
0.0
 10
15.4675116208
 20
2.5416011406
 30
0.0
 10
15.5005725031
 20
2.541789296999998
 30
0.0
 10
15.5280425923
 20
2.5416564518
 30
0.0
 10
15.5473201877
 20
2.5412451187
 30
0.0
 10
15.5597381845
 20
2.5406793736
 30
0.0
 10
15.5667945124
 20
2.540187998199999
 30
0.0
 10
15.5722583831
 20
2.5396672624
 30
0.0
 10
15.5763120275
 20
2.5389759971
 30
0.0
 10
15.5786055427
 20
2.5384691619
 30
0.0
 10
15.5798955093
 20
2.537671701699999
 30
0.0
 10
15.5798902305
 20
2.5372914712
 30
0.0
  0
SPLINE
  5
E10
330
21D
100
AcDbEntity
  8
0
  6
Continuous
 62
     7
100
AcDbSpline
210
0.0
220
0.0
230
1.0
 70
     8
 71
     3
 72
     9
 73
     5
 74
     0
 42
0.0000000001
 43
0.0000000001
 40
0.0
 40
0.0
 40
0.0
 40
0.0
 40
0.1729409335
 40
1.0
 40
1.0
 40
1.0
 40
1.0
 10
15.0455657364
 20
3.9049508619
 30
0.0
 10
15.0455277844
 20
3.905715499499997
 30
0.0
 10
15.0455597649
 20
3.9101573643
 30
0.0
 10
15.0468668617
 20
3.914455827999998
 30
0.0
 10
15.0474583259
 20
3.9180689816
 30
0.0
  0
SPLINE
  5
E11
330
21D
100
AcDbEntity
  8
0
  6
Continuous
 62
     7
100
AcDbSpline
210
0.0
220
0.0
230
1.0
 70
     8
 71
     3
 72
    21
 73
    17
 74
     0
 42
0.0000000001
 43
0.0000000001
 40
0.0
 40
0.0
 40
0.0
 40
0.0
 40
0.1901615166
 40
0.3728487743
 40
0.5412705315000002
 40
0.6894189125
 40
0.7541335298999999
 40
0.8118622275999999
 40
0.8621956582999999
 40
0.9047679768000001
 40
0.9393156578000001
 40
0.9659469902999999
 40
0.9765080856999999
 40
0.9854512744
 40
0.9931044854999999
 40
1.0
 40
1.0
 40
1.0
 40
1.0
 10
15.0474583427
 20
3.9180690405
 30
0.0
 10
15.0934965758
 20
3.9041495994
 30
0.0
 10
15.1841426379
 20
3.878095119599997
 30
0.0
 10
15.3167396376
 20
3.8439574198
 30
0.0
 10
15.4399951341
 20
3.816412642699997
 30
0.0
 10
15.5348768468
 20
3.798951031399997
 30
0.0
 10
15.6026519977
 20
3.789372799999998
 30
0.0
 10
15.6461117165
 20
3.784699545799997
 30
0.0
 10
15.6841411947
 20
3.782213046299998
 30
0.0
 10
15.7164061817
 20
3.781905652499998
 30
0.0
 10
15.7426017081
 20
3.783797083299997
 30
0.0
 10
15.7605102169
 20
3.7873564704
 30
0.0
 10
15.7713907465
 20
3.791669688099998
 30
0.0
 10
15.77731572
 20
3.7952267523
 30
0.0
 10
15.7816381038
 20
3.7994016224
 30
0.0
 10
15.7834067012
 20
3.802721877499998
 30
0.0
 10
15.7839362682
 20
3.8043835768
 30
0.0
  0
SPLINE
  5
E12
330
21D
100
AcDbEntity
  8
0
  6
Continuous
 62
     7
100
AcDbSpline
210
0.0
220
0.0
230
1.0
 70
     8
 71
     3
 72
    16
 73
    12
 74
     0
 42
0.0000000001
 43
0.0000000001
 40
0.0
 40
0.0
 40
0.0
 40
0.0
 40
0.1602944867
 40
0.3164165902
 40
0.4646378743
 40
0.6012008365
 40
0.7233237205
 40
0.8299374644
 40
0.8774147562000001
 40
0.9212847215
 40
1.0
 40
1.0
 40
1.0
 40
1.0
 10
15.2659046696
 20
4.0054815227
 30
0.0
 10
15.3088933995
 20
4.00576092
 30
0.0
 10
15.3938263761
 20
4.013017088199998
 30
0.0
 10
15.5156164774
 20
4.0408486541
 30
0.0
 10
15.6271724046
 20
4.080879293799998
 30
0.0
 10
15.7251676644
 20
4.1294376109
 30
0.0
 10
15.807576989
 20
4.182846626399999
 30
0.0
 10
15.8637537674
 20
4.2316826456
 30
0.0
 10
15.8985836237
 20
4.2718876728
 30
0.0
 10
15.9246711775
 20
4.3093293907
 30
0.0
 10
15.9385694233
 20
4.3397767067
 30
0.0
 10
15.9438944196
 20
4.3602048579
 30
0.0
  0
SPLINE
  5
E13
330
21D
100
AcDbEntity
  8
0
  6
Continuous
 62
     7
100
AcDbSpline
210
0.0
220
0.0
230
1.0
 70
     8
 71
     3
 72
     9
 73
     5
 74
     0
 42
0.0000000001
 43
0.0000000001
 40
0.0
 40
0.0
 40
0.0
 40
0.0
 40
0.2821203442
 40
1.0
 40
1.0
 40
1.0
 40
1.0
 10
7.5179659834
 20
1.654739763799998
 30
0.0
 10
7.517830211699999
 20
1.658257159999999
 30
0.0
 10
7.517322662799997
 20
1.670723741399998
 30
0.0
 10
7.516717105599999
 20
1.683187079499998
 30
0.0
 10
7.5161628236
 20
1.692126897599998
 30
0.0
  0
SPLINE
  5
E14
330
21D
100
AcDbEntity
  8
0
  6
Continuous
 62
     7
100
AcDbSpline
210
0.0
220
0.0
230
1.0
 70
     8
 71
     3
 72
     9
 73
     5
 74
     0
 42
0.0000000001
 43
0.0000000001
 40
0.0
 40
0.0
 40
0.0
 40
0.0
 40
0.2819947719
 40
1.0
 40
1.0
 40
1.0
 40
1.0
 10
7.5131713933
 20
1.654739764099999
 30
0.0
 10
7.5129853076
 20
1.6582510362
 30
0.0
 10
7.512284869299999
 20
1.670700154499999
 30
0.0
 10
7.5114329397
 20
1.683142524099999
 30
0.0
 10
7.510637285299996
 20
1.692059923
 30
0.0
  0
LINE
  5
E15
330
21D
100
AcDbEntity
  8
0
  6
Continuous
 62
     7
100
AcDbLine
 10
7.523954189299999
 20
1.7500302299
 30
0.0
 11
7.524999885999996
 21
1.7500673061
 31
0.0
  0
LINE
  5
E16
330
21D
100
AcDbEntity
  8
0
  6
Continuous
 62
     7
100
AcDbLine
 10
7.5105284115
 20
1.749551210299999
 30
0.0
 11
7.523954189299999
 21
1.7500302299
 31
0.0
  0
LINE
  5
E17
330
21D
100
AcDbEntity
  8
0
  6
Continuous
 62
     7
100
AcDbLine
 10
7.5006628845
 20
1.749195620099999
 30
0.0
 11
7.510528411599997
 21
1.749551210299999
 31
0.0
  0
LINE
  5
E18
330
21D
100
AcDbEntity
  8
0
  6
Continuous
 62
     7
100
AcDbLine
 10
7.500667255199997
 20
1.795644048099999
 30
0.0
 11
8.541342455499997
 21
1.832023651999999
 31
0.0
  0
LINE
  5
E19
330
21D
100
AcDbEntity
  8
0
  6
Continuous
 62
     7
100
AcDbLine
 10
8.5413424103
 20
1.8320240778
 30
0.0
 11
14.9378441992
 21
2.0556450304
 31
0.0
  0
SPLINE
  5
E1A
330
21D
100
AcDbEntity
  8
0
  6
Continuous
 62
     7
100
AcDbSpline
210
0.0
220
0.0
230
1.0
 70
     8
 71
     3
 72
    18
 73
    14
 74
     0
 42
0.0000000001
 43
0.0000000001
 40
0.0
 40
0.0
 40
0.0
 40
0.0
 40
0.196469776
 40
0.3849553290999999
 40
0.5578075353000001
 40
0.708473653
 40
0.8312882455
 40
0.8809774771999999
 40
0.9222606206999998
 40
0.9547645820999999
 40
0.9783767588999999
 40
0.9931607286
 40
1.0
 40
1.0
 40
1.0
 40
1.0
 10
14.9378441992
 20
2.0556450304
 30
0.0
 10
14.9486424703
 20
2.0560225396
 30
0.0
 10
14.9698047539
 20
2.0566389587
 30
0.0
 10
15.0004773417
 20
2.0571709974
 30
0.0
 10
15.0286364212
 20
2.057286417799998
 30
0.0
 10
15.0531801084
 20
2.0570064969
 30
0.0
 10
15.0709504887
 20
2.0564351568
 30
0.0
 10
15.0826820894
 20
2.0557603957
 30
0.0
 10
15.089465718
 20
2.055200802199999
 30
0.0
 10
15.0947507439
 20
2.054617912499999
 30
0.0
 10
15.0986845427
 20
2.053887098
 30
0.0
 10
15.1009202253
 20
2.053345026999997
 30
0.0
 10
15.1021759912
 20
2.0525524061
 30
0.0
 10
15.1021710806
 20
2.052176311999998
 30
0.0
  0
LINE
  5
E1B
330
21D
100
AcDbEntity
  8
0
  6
Continuous
 62
     7
100
AcDbLine
 10
15.1021710806
 20
2.052176311999998
 30
0.0
 11
15.1017977865
 21
2.010724264199998
 31
0.0
  0
SPLINE
  5
E1C
330
21D
100
AcDbEntity
  8
0
  6
Continuous
 62
     7
100
AcDbSpline
210
0.0
220
0.0
230
1.0
 70
     8
 71
     3
 72
    13
 73
     9
 74
     0
 42
0.0000000001
 43
0.0000000001
 40
0.0
 40
0.0
 40
0.0
 40
0.0
 40
0.3412388936
 40
0.6365732624
 40
0.7575672854000001
 40
0.857285895
 40
0.9358566229
 40
1.0
 40
1.0
 40
1.0
 40
1.0
 10
15.0474583268
 20
3.918068981499997
 30
0.0
 10
15.049810934
 20
3.932439816999997
 30
0.0
 10
15.0529934505
 20
3.959470759599998
 30
0.0
 10
15.0525212093
 20
3.991962046399997
 30
0.0
 10
15.0488653132
 20
4.013727958099997
 30
0.0
 10
15.0450122014
 20
4.0259582589
 30
0.0
 10
15.0398588483
 20
4.035082317099997
 30
0.0
 10
15.0348363542
 20
4.038975332499997
 30
0.0
 10
15.0322921825
 20
4.039985213
 30
0.0
  0
LINE
  5
E1D
330
21D
100
AcDbEntity
  8
0
  6
Continuous
 62
     7
100
AcDbLine
 10
15.0312141199
 20
4.0403679473
 30
0.0
 11
15.0330449748
 21
4.0397965098
 31
0.0
  0
LINE
  5
E1E
330
21D
100
AcDbEntity
  8
0
  6
Continuous
 62
     7
100
AcDbLine
 10
15.0480753543
 20
4.0352964983
 30
0.0
 11
15.0501157293
 21
4.0347116599
 31
0.0
  0
SPLINE
  5
E1F
330
21D
100
AcDbEntity
  8
0
  6
Continuous
 62
     7
100
AcDbSpline
210
0.0
220
0.0
230
1.0
 70
     8
 71
     3
 72
     9
 73
     5
 74
     0
 42
0.0000000001
 43
0.0000000001
 40
0.0
 40
0.0
 40
0.0
 40
0.0
 40
0.2792444839
 40
1.0
 40
1.0
 40
1.0
 40
1.0
 10
7.4705892919
 20
1.6547397427
 30
0.0
 10
7.4699813071
 20
1.6582075111
 30
0.0
 10
7.4676474807
 20
1.670594638499999
 30
0.0
 10
7.4647028926
 20
1.6828903974
 30
0.0
 10
7.461923336499997
 20
1.691542008799999
 30
0.0
  0
LINE
  5
E20
330
21D
100
AcDbEntity
  8
0
  6
Continuous
 62
     7
100
AcDbLine
 10
15.1604775356
 20
4.1999171962
 30
0.0
 11
15.0710979042
 21
4.2529786416
 31
0.0
  0
SPLINE
  5
E21
330
21D
100
AcDbEntity
  8
0
  6
Continuous
 62
     7
100
AcDbSpline
210
0.0
220
0.0
230
1.0
 70
     8
 71
     3
 72
    23
 73
    19
 74
     0
 42
0.0000000001
 43
0.0000000001
 40
0.0
 40
0.0
 40
0.0
 40
0.0
 40
0.0935042279
 40
0.1842678803
 40
0.2718871919
 40
0.3560231713
 40
0.4362401134000001
 40
0.5121468977000001
 40
0.5835021907
 40
0.6501039878000002
 40
0.7116035611
 40
0.7678752524
 40
0.8188586205
 40
0.8645458951
 40
0.9049231854999998
 40
0.9404112411999999
 40
0.9717282795
 40
1.0
 40
1.0
 40
1.0
 40
1.0
 10
15.3198695773
 20
4.1796013662
 30
0.0
 10
15.3409105589
 20
4.1786698571
 30
0.0
 10
15.3824275935
 20
4.1778558813
 30
0.0
 10
15.4436663101
 20
4.179463640599998
 30
0.0
 10
15.502675228
 20
4.183616237399998
 30
0.0
 10
15.5590468344
 20
4.1903593459
 30
0.0
 10
15.612532743
 20
4.1986671174
 30
0.0
 10
15.6628605713
 20
4.2083618979
 30
0.0
 10
15.7097207532
 20
4.219613945499998
 30
0.0
 10
15.7528488183
 20
4.2322532522
 30
0.0
 10
15.7921862774
 20
4.2456162282
 30
0.0
 10
15.8274580695
 20
4.259849788999997
 30
0.0
 10
15.8584738999
 20
4.274926098399998
 30
0.0
 10
15.8849887992
 20
4.2908177457
 30
0.0
 10
15.9070232633
 20
4.307164369899997
 30
0.0
 10
15.924408088
 20
4.3240525613
 30
0.0
 10
15.937028492
 20
4.341515473999997
 30
0.0
 10
15.9422850693
 20
4.3540511822
 30
0.0
 10
15.9438915019
 20
4.360213365199999
 30
0.0
  0
SPLINE
  5
E22
330
21D
100
AcDbEntity
  8
0
  6
Continuous
 62
     7
100
AcDbSpline
210
0.0
220
0.0
230
1.0
 70
     8
 71
     3
 72
    26
 73
    22
 74
     0
 42
0.0000000001
 43
0.0000000001
 40
0.0
 40
0.0
 40
0.0
 40
0.0
 40
0.0016968714
 40
0.0033019672
 40
0.0054741997
 40
0.0115609831
 40
0.0199888859
 40
0.0307523668
 40
0.0438369167
 40
0.0592245384
 40
0.0768955374
 40
0.1189262947
 40
0.1694492479
 40
0.2279374832
 40
0.2938623559
 40
0.3666390879999999
 40
0.4455020849000002
 40
0.5296486831000001
 40
0.6182760002000001
 40
0.8055642625
 40
1.0
 40
1.0
 40
1.0
 40
1.0
 10
16.2021679062
 20
5.6498048564
 30
0.0
 10
16.2022372591
 20
5.6503191696
 30
0.0
 10
16.2011829732
 20
5.651112158099999
 30
0.0
 10
16.1997709288
 20
5.651772570399999
 30
0.0
 10
16.1968807652
 20
5.652834386
 30
0.0
 10
16.1919748198
 20
5.654106860599999
 30
0.0
 10
16.1843926197
 20
5.6557146211
 30
0.0
 10
16.1746796394
 20
5.657442207599999
 30
0.0
 10
16.162823102
 20
5.659309777399996
 30
0.0
 10
16.1488520826
 20
5.661298924199999
 30
0.0
 10
16.1260811887
 20
5.664285301799999
 30
0.0
 10
16.0926001157
 20
5.668224387599997
 30
0.0
 10
16.0466664171
 20
5.6731304409
 30
0.0
 10
15.9934228704
 20
5.678388889999999
 30
0.0
 10
15.9333709478
 20
5.683945894999999
 30
0.0
 10
15.8670840273
 20
5.689741570399999
 30
0.0
 10
15.795219841
 20
5.695722571
 30
0.0
 10
15.7185020976
 20
5.701828406299997
 30
0.0
 10
15.6087004523
 20
5.710208129899996
 30
0.0
 10
15.4652171615
 20
5.7205037562
 30
0.0
 10
15.3487287187
 20
5.7282596323
 30
0.0
 10
15.2893843017
 20
5.732058440399999
 30
0.0
  0
SPLINE
  5
E23
330
21D
100
AcDbEntity
  8
0
  6
Continuous
 62
     7
100
AcDbSpline
210
0.0
220
0.0
230
1.0
 70
     8
 71
     3
 72
    23
 73
    19
 74
     0
 42
0.0000000001
 43
0.0000000001
 40
0.0
 40
0.0
 40
0.0
 40
0.0
 40
0.0041997795
 40
0.0106337366
 40
0.019255603
 40
0.0299973485
 40
0.0427983206
 40
0.0576156638
 40
0.0931597649
 40
0.1363793386
 40
0.1869338014
 40
0.2444816739
 40
0.3087023923999999
 40
0.3792490238
 40
0.4556239860000001
 40
0.6234006901
 40
0.8068765349999999
 40
1.0
 40
1.0
 40
1.0
 40
1.0
 10
16.3363093217
 20
6.6035344452
 30
0.0
 10
16.3354965472
 20
6.602563596399997
 30
0.0
 10
16.3329435669
 20
6.6005579035
 30
0.0
 10
16.3280059248
 20
6.5975222544
 30
0.0
 10
16.3210432268
 20
6.5940246441
 30
0.0
 10
16.3121270469
 20
6.590207395399999
 30
0.0
 10
16.3012676542
 20
6.5862139162
 30
0.0
 10
16.2831200111
 20
6.5804309848
 30
0.0
 10
16.2557415926
 20
6.5735061769
 30
0.0
 10
16.2173864909
 20
6.566400594199999
 30
0.0
 10
16.1721277961
 20
6.560511567999999
 30
0.0
 10
16.1203372884
 20
6.5562181273
 30
0.0
 10
16.0623976069
 20
6.553734326599997
 30
0.0
 10
15.9987329135
 20
6.553234700599999
 30
0.0
 10
15.9038684148
 20
6.555303500099999
 30
0.0
 10
15.7751345105
 20
6.5629734395
 30
0.0
 10
15.6116553424
 20
6.5774836151
 30
0.0
 10
15.4986284848
 20
6.588270415599999
 30
0.0
 10
15.4406065654
 20
6.593106827299996
 30
0.0
  0
SPLINE
  5
E24
330
21D
100
AcDbEntity
  8
0
  6
Continuous
 62
     7
100
AcDbSpline
210
0.0
220
0.0
230
1.0
 70
     8
 71
     3
 72
    15
 73
    11
 74
     0
 42
0.0000000001
 43
0.0000000001
 40
0.0
 40
0.0
 40
0.0
 40
0.0
 40
0.392947404
 40
0.5654105373000001
 40
0.7144232001999999
 40
0.835657922
 40
0.9255234126000001
 40
0.9577449190999999
 40
0.9810728459999998
 40
1.0
 40
1.0
 40
1.0
 40
1.0
 10
7.524999885999996
 20
1.7500673061
 30
0.0
 10
7.5872522328
 20
1.752269147599998
 30
0.0
 10
7.676836727
 20
1.7551687602
 30
0.0
 10
7.790045072
 20
1.758338793
 30
0.0
 10
7.860202101
 20
1.7601321908
 30
0.0
 10
7.9172728785
 20
1.761463252099997
 30
0.0
 10
7.9558354801
 20
1.762317893
 30
0.0
 10
7.978882642899999
 20
1.7627789137
 30
0.0
 10
7.990685482199999
 20
1.7630552413
 30
0.0
 10
7.9973844433
 20
1.763120194999999
 30
0.0
 10
8.000383027499998
 20
1.763224354199999
 30
0.0
  0
SPLINE
  5
E25
330
21D
100
AcDbEntity
  8
0
  6
Continuous
 62
     7
100
AcDbSpline
210
0.0
220
0.0
230
1.0
 70
     8
 71
     3
 72
     9
 73
     5
 74
     0
 42
0.0000000001
 43
0.0000000001
 40
0.0
 40
0.0
 40
0.0
 40
0.0
 40
0.2780584793
 40
1.0
 40
1.0
 40
1.0
 40
1.0
 10
7.4590027569
 20
1.6547397621
 30
0.0
 10
7.458276990999999
 20
1.6581989105
 30
0.0
 10
7.455481034299999
 20
1.670595158
 30
0.0
 10
7.4519488569
 20
1.6828570336
 30
0.0
 10
7.448645224699999
 20
1.691418518199998
 30
0.0
  0
SPLINE
  5
E26
330
21D
100
AcDbEntity
  8
0
  6
Continuous
 62
     7
100
AcDbSpline
210
0.0
220
0.0
230
1.0
 70
     8
 71
     3
 72
     9
 73
     5
 74
     0
 42
0.0000000001
 43
0.0000000001
 40
0.0
 40
0.0
 40
0.0
 40
0.0
 40
0.2778048966
 40
1.0
 40
1.0
 40
1.0
 40
1.0
 10
7.456339399199999
 20
1.6547397646
 30
0.0
 10
7.455591802699997
 20
1.6581976036
 30
0.0
 10
7.452708757299999
 20
1.6705976975
 30
0.0
 10
7.4490628204
 20
1.682853816199999
 30
0.0
 10
7.4456571782
 20
1.6913968752
 30
0.0
  0
LINE
  5
E27
330
21D
100
AcDbEntity
  8
0
  6
Continuous
 62
     7
100
AcDbLine
 10
16.3623141621
 20
6.6575552084
 30
0.0
 11
16.3619672386
 21
6.657267851399997
 31
0.0
  0
SPLINE
  5
E28
330
21D
100
AcDbEntity
  8
0
  6
Continuous
 62
     7
100
AcDbSpline
210
0.0
220
0.0
230
1.0
 70
     8
 71
     3
 72
    23
 73
    19
 74
     0
 42
0.0000000001
 43
0.0000000001
 40
0.0
 40
0.0
 40
0.0
 40
0.0
 40
0.0030421639
 40
0.0083758101
 40
0.0159768024
 40
0.0257799725
 40
0.037733569
 40
0.0518036682
 40
0.0861543268
 40
0.1285579525
 40
0.1787340264
 40
0.2363332004
 40
0.3009725471
 40
0.3721967646
 40
0.4494461604000002
 40
0.6194219149000002
 40
0.8051155902999999
 40
1.0
 40
1.0
 40
1.0
 40
1.0
 10
16.3619672386
 20
6.657267851399997
 30
0.0
 10
16.3612086966
 20
6.6567287183
 30
0.0
 10
16.3588766209
 20
6.655620896499997
 30
0.0
 10
16.3543594098
 20
6.653779433899997
 30
0.0
 10
16.3477708947
 20
6.6515234896
 30
0.0
 10
16.3391674387
 20
6.648949150199997
 30
0.0
 10
16.3285588391
 20
6.646185549
 30
0.0
 10
16.3105487313
 20
6.642085127399996
 30
0.0
 10
16.2831948444
 20
6.637131318599996
 30
0.0
 10
16.2446863119
 20
6.6320630846
 30
0.0
 10
16.198920007
 20
6.6279342612
 30
0.0
 10
16.1462448238
 20
6.625079015499999
 30
0.0
 10
16.0870704894
 20
6.6237182919
 30
0.0
 10
16.0218715996
 20
6.6239971858
 30
0.0
 10
15.9244844445
 20
6.626618612499997
 30
0.0
 10
15.7922297582
 20
6.6339096732
 30
0.0
 10
15.6242927816
 20
6.6466051285
 30
0.0
 10
15.5081885186
 20
6.6552606161
 30
0.0
 10
15.4486844676
 20
6.658919609699996
 30
0.0
  0
SPLINE
  5
E29
330
21D
100
AcDbEntity
  8
0
  6
Continuous
 62
     7
100
AcDbSpline
210
0.0
220
0.0
230
1.0
 70
     8
 71
     3
 72
     9
 73
     5
 74
     0
 42
0.0000000001
 43
0.0000000001
 40
0.0
 40
0.0
 40
0.0
 40
0.0
 40
0.5000146447000003
 40
1.0
 40
1.0
 40
1.0
 40
1.0
 10
7.1668712319
 20
2.2615165725
 30
0.0
 10
7.219639126399997
 20
2.261221036799998
 30
0.0
 10
7.3251521244
 20
2.2596500853
 30
0.0
 10
7.4307270349
 20
2.2597173844
 30
0.0
 10
7.483460474099997
 20
2.2615602663
 30
0.0
  0
LINE
  5
E2A
330
21D
100
AcDbEntity
  8
0
  6
Continuous
 62
     7
100
AcDbLine
 10
7.4834604838
 20
2.261559990999999
 30
0.0
 11
8.524135631
 21
2.297939593
 31
0.0
  0
LINE
  5
E2B
330
21D
100
AcDbEntity
  8
0
  6
Continuous
 62
     7
100
AcDbLine
 10
7.079812691199999
 20
2.261963971399997
 30
0.0
 11
7.079812975399999
 21
2.262545413999998
 31
0.0
  0
SPLINE
  5
E2C
330
21D
100
AcDbEntity
  8
0
  6
Continuous
 62
     7
100
AcDbSpline
210
0.0
220
0.0
230
1.0
 70
     8
 71
     3
 72
    33
 73
    29
 74
     0
 42
0.0000000001
 43
0.0000000001
 40
0.0
 40
0.0
 40
0.0
 40
0.0
 40
0.0003031201
 40
0.0011863769
 40
0.0026533856
 40
0.0047023514
 40
0.0073309447
 40
0.0105367351
 40
0.0186704886
 40
0.0290853363
 40
0.0417638424
 40
0.0566897898
 40
0.0738480631
 40
0.0932118015
 40
0.1147315539
 40
0.1640110052
 40
0.221251128
 40
0.286027314
 40
0.3578578189999999
 40
0.4360891717000002
 40
0.5200432982
 40
0.6090460246000001
 40
0.7023773456999999
 40
0.7992055279000001
 40
0.8486685054
 40
0.8986911881000001
 40
0.9491706334999999
 40
1.0
 40
1.0
 40
1.0
 40
1.0
 10
6.6094364554
 20
2.260709580499999
 30
0.0
 10
6.609433955
 20
2.260757043099999
 30
0.0
 10
6.609725841799999
 20
2.260736024699999
 30
0.0
 10
6.610038004999998
 20
2.2608186102
 30
0.0
 10
6.6107848512
 20
2.2608297233
 30
0.0
 10
6.6117219474
 20
2.260880570399999
 30
0.0
 10
6.6129673136
 20
2.2609149499
 30
0.0
 10
6.615152081099996
 20
2.2609730196
 30
0.0
 10
6.618565602
 20
2.2610356917
 30
0.0
 10
6.623460074199999
 20
2.2611079292
 30
0.0
 10
6.629421429999997
 20
2.261181205399998
 30
0.0
 10
6.636439571799999
 20
2.2612537532
 30
0.0
 10
6.6445062508
 20
2.261320917599999
 30
0.0
 10
6.653606761599997
 20
2.2613902762
 30
0.0
 10
6.6677437226
 20
2.261490307699999
 30
0.0
 10
6.687819617799997
 20
2.2616060887
 30
0.0
 10
6.7146781233
 20
2.2617154302
 30
0.0
 10
6.745072677499997
 20
2.2617963396
 30
0.0
 10
6.778758584099997
 20
2.261886195599998
 30
0.0
 10
6.8154515507
 20
2.261977064899999
 30
0.0
 10
6.854837137
 20
2.2620423007
 30
0.0
 10
6.8965903902
 20
2.262080937299999
 30
0.0
 10
6.9403622683
 20
2.2621101697
 30
0.0
 10
6.9779344073
 20
2.2621485784
 30
0.0
 10
7.008715916799999
 20
2.2621327077
 30
0.0
 10
7.0322299619
 20
2.262168284899999
 30
0.0
 10
7.055958572299996
 20
2.262173077799999
 30
0.0
 10
7.0718427834
 20
2.2619660956
 30
0.0
 10
7.079812691199999
 20
2.261963971399997
 30
0.0
  0
SPLINE
  5
E2D
330
21D
100
AcDbEntity
  8
0
  6
Continuous
 62
     7
100
AcDbSpline
210
0.0
220
0.0
230
1.0
 70
     8
 71
     3
 72
     9
 73
     5
 74
     0
 42
0.0000000001
 43
0.0000000001
 40
0.0
 40
0.0
 40
0.0
 40
0.0
 40
0.2662081399
 40
1.0
 40
1.0
 40
1.0
 40
1.0
 10
7.371843789199999
 20
1.654739766299998
 30
0.0
 10
7.370229597999999
 20
1.658169504399999
 30
0.0
 10
7.363800389199999
 20
1.6708700237
 30
0.0
 10
7.355822074099997
 20
1.682846118799998
 30
0.0
 10
7.3489586545
 20
1.69072444
 30
0.0
  0
ENDSEC
  0
SECTION
  2
OBJECTS
  0
DICTIONARY
  5
C
330
0
100
AcDbDictionary
281
     1
  3
ACAD_COLOR
350
F12
  3
ACAD_GROUP
350
D
  3
ACAD_LAYOUT
350
1A
  3
ACAD_MATERIAL
350
EE8
  3
ACAD_MLEADERSTYLE
350
F35
  3
ACAD_MLINESTYLE
350
17
  3
ACAD_PLOTSETTINGS
350
19
  3
ACAD_PLOTSTYLENAME
350
E
  3
ACAD_SCALELIST
350
F13
  3
ACAD_TABLESTYLE
350
EE1
  3
ACAD_VISUALSTYLE
350
F01
  3
ACDB_RECOMPOSE_DATA
350
FE4
  3
AcDbVariableDictionary
350
FDC
  3
AcmDictionary
350
F94
  3
AMG
350
F3B
  3
AMGSNAPSETTINGS
350
FD5
  0
DICTIONARY
  5
F12
102
{ACAD_REACTORS
330
C
102
}
330
C
100
AcDbDictionary
281
     1
  0
DICTIONARY
  5
D
102
{ACAD_REACTORS
330
C
102
}
330
C
100
AcDbDictionary
281
     1
  0
DICTIONARY
  5
1A
102
{ACAD_REACTORS
330
C
102
}
330
C
100
AcDbDictionary
281
     1
  3
Layout1
350
EE3
  3
Model
350
EE2
  0
DICTIONARY
  5
EE8
102
{ACAD_REACTORS
330
C
102
}
330
C
100
AcDbDictionary
281
     1
  3
ByBlock
350
EF1
  3
ByLayer
350
EE9
  3
Global
350
EF9
  0
DICTIONARY
  5
F35
102
{ACAD_REACTORS
330
C
102
}
330
C
100
AcDbDictionary
281
     1
  3
Standard
350
F36
  0
DICTIONARY
  5
17
102
{ACAD_REACTORS
330
C
102
}
330
C
100
AcDbDictionary
281
     1
  3
Standard
350
18
  0
DICTIONARY
  5
19
102
{ACAD_REACTORS
330
C
102
}
330
C
100
AcDbDictionary
281
     1
  0
ACDBDICTIONARYWDFLT
  5
E
102
{ACAD_REACTORS
330
C
102
}
330
C
100
AcDbDictionary
281
     1
  3
Normal
350
F
100
AcDbDictionaryWithDefault
340
F
  0
DICTIONARY
  5
F13
102
{ACAD_REACTORS
330
C
102
}
330
C
100
AcDbDictionary
281
     1
  3
A0
350
F14
  3
A1
350
F15
  3
A2
350
F16
  3
A3
350
F17
  3
A4
350
F18
  3
A5
350
F19
  3
A6
350
F1A
  3
A7
350
F1B
  3
A8
350
F1C
  3
A9
350
F1D
  3
B0
350
F1E
  3
B1
350
F1F
  3
B2
350
F20
  3
B3
350
F21
  3
B4
350
F22
  3
B5
350
F23
  3
B6
350
F24
  3
B7
350
F25
  3
B8
350
F26
  3
B9
350
F27
  3
C0
350
F28
  3
C1
350
F29
  3
C2
350
F2A
  3
C3
350
F2B
  3
C4
350
F2C
  3
C5
350
F2D
  3
C6
350
F2E
  3
C7
350
F2F
  3
C8
350
F30
  3
C9
350
F31
  3
D0
350
F32
  3
D1
350
F33
  3
D2
350
F34
  0
DICTIONARY
  5
EE1
330
C
100
AcDbDictionary
281
     1
  3
Standard
350
EE4
  3
Standard1
350
EE5
  0
DICTIONARY
  5
F01
102
{ACAD_REACTORS
330
C
102
}
330
C
100
AcDbDictionary
281
     1
  3
2dWireframe
350
F07
  3
3D Hidden
350
F09
  3
3dWireframe
350
F08
  3
Basic
350
F06
  3
Brighten
350
F0D
  3
ColorChange
350
F11
  3
Conceptual
350
F0A
  3
Dim
350
F0C
  3
Facepattern
350
F10
  3
Flat
350
F02
  3
FlatWithEdges
350
F03
  3
Gouraud
350
F04
  3
GouraudWithEdges
350
F05
  3
Linepattern
350
F0F
  3
Realistic
350
F0B
  3
Thicken
350
F0E
  0
XRECORD
  5
FE4
102
{ACAD_REACTORS
330
C
102
}
330
C
100
AcDbXrecord
280
     1
 90
        1
330
EE4
330
EE5
  0
DICTIONARY
  5
FDC
102
{ACAD_REACTORS
330
C
102
}
330
C
100
AcDbDictionary
281
     1
  3
CANNOSCALE
350
FDF
  3
CMLEADERSTYLE
350
FDE
  3
CTABLESTYLE
350
FDD
  0
DICTIONARY
  5
F94
102
{ACAD_REACTORS
330
C
102
}
330
C
100
AcDbDictionary
281
     1
  3
AcmStdDictionary
350
FA1
  0
DICTIONARY
  5
F3B
102
{ACAD_REACTORS
330
C
102
}
330
C
100
AcDbDictionary
281
     1
  0
DICTIONARY
  5
FD5
102
{ACAD_REACTORS
330
C
102
}
330
C
100
AcDbDictionary
281
     1
  0
LAYOUT
  5
EE3
102
{ACAD_REACTORS
330
1A
102
}
330
1A
100
AcDbPlotSettings
  1

  2
none_device
  4
ANSI_D_(34.00_x_22.00_Inches)
  6

 40
0.0
 41
0.0
 42
0.0
 43
0.0
 44
863.6000000000001
 45
558.8
 46
0.0
 47
0.0
 48
0.0
 49
0.0
140
0.0
141
0.0
142
1.0
143
1.0
 70
     0
 72
     0
 73
     0
 74
     0
  7

 75
     0
147
1.0
 76
     0
 77
     2
 78
   300
148
0.0
149
0.0
100
AcDbLayout
  1
Layout1
 70
     1
 71
     1
 10
0.0
 20
0.0
 11
12.0
 21
9.0
 12
0.0
 22
0.0
 32
0.0
 14
1.000000000000000E+20
 24
1.000000000000000E+20
 34
1.000000000000000E+20
 15
-1.000000000000000E+20
 25
-1.000000000000000E+20
 35
-1.000000000000000E+20
146
0.0
 13
0.0
 23
0.0
 33
0.0
 16
1.0
 26
0.0
 36
0.0
 17
0.0
 27
1.0
 37
0.0
 76
     0
330
21E
  0
LAYOUT
  5
EE2
102
{ACAD_REACTORS
330
1A
102
}
330
1A
100
AcDbPlotSettings
  1

  2
none_device
  4
ANSI_D_(34.00_x_22.00_Inches)
  6

 40
0.0
 41
0.0
 42
0.0
 43
0.0
 44
863.6000000000001
 45
558.8
 46
0.0
 47
0.0
 48
0.0
 49
0.0
140
0.0
141
0.0
142
1.0
143
1.0
 70
  1024
 72
     0
 73
     0
 74
     0
  7

 75
     0
147
1.0
 76
     0
 77
     2
 78
   300
148
0.0
149
0.0
100
AcDbLayout
  1
Model
 70
     0
 71
     0
 10
0.0
 20
0.0
 11
34.0
 21
22.0
 12
0.0
 22
0.0
 32
0.0
 14
0.0
 24
0.0
 34
0.0
 15
0.0
 25
0.0
 35
0.0
146
0.0
 13
0.0
 23
0.0
 33
0.0
 16
1.0
 26
0.0
 36
0.0
 17
0.0
 27
1.0
 37
0.0
 76
     0
330
21D
331
1F4
  0
MATERIAL
  5
EF1
102
{ACAD_XDICTIONARY
360
EF2
102
}
102
{ACAD_REACTORS
330
EE8
102
}
330
EE8
100
AcDbMaterial
  1
ByBlock
 72
     0
 43
0.0208333333333333
 43
0.0
 43
0.0
 43
0.0
 43
0.0
 43
0.0208333333333333
 43
0.0
 43
0.0
 43
0.0
 43
0.0
 43
1.0
 43
0.0
 43
0.0
 43
0.0
 43
0.0
 43
1.0
 77
     0
 47
0.0208333333333333
 47
0.0
 47
0.0
 47
0.0
 47
0.0
 47
0.0208333333333333
 47
0.0
 47
0.0
 47
0.0
 47
0.0
 47
1.0
 47
0.0
 47
0.0
 47
0.0
 47
0.0
 47
1.0
171
     0
 49
0.0208333333333333
 49
0.0
 49
0.0
 49
0.0
 49
0.0
 49
0.0208333333333333
 49
0.0
 49
0.0
 49
0.0
 49
0.0
 49
1.0
 49
0.0
 49
0.0
 49
0.0
 49
0.0
 49
1.0
175
     0
142
0.0208333333333333
142
0.0
142
0.0
142
0.0
142
0.0
142
0.0208333333333333
142
0.0
142
0.0
142
0.0
142
0.0
142
1.0
142
0.0
142
0.0
142
0.0
142
0.0
142
1.0
179
     0
144
0.0208333333333333
144
0.0
144
0.0
144
0.0
144
0.0
144
0.0208333333333333
144
0.0
144
0.0
144
0.0
144
0.0
144
1.0
144
0.0
144
0.0
144
0.0
144
0.0
144
1.0
147
0.0208333333333333
147
0.0
147
0.0
147
0.0
147
0.0
147
0.0208333333333333
147
0.0
147
0.0
147
0.0
147
0.0
147
1.0
147
0.0
147
0.0
147
0.0
147
0.0
147
1.0
  0
MATERIAL
  5
EE9
102
{ACAD_XDICTIONARY
360
EEA
102
}
102
{ACAD_REACTORS
330
EE8
102
}
330
EE8
100
AcDbMaterial
  1
ByLayer
 72
     0
 43
0.0208333333333333
 43
0.0
 43
0.0
 43
0.0
 43
0.0
 43
0.0208333333333333
 43
0.0
 43
0.0
 43
0.0
 43
0.0
 43
1.0
 43
0.0
 43
0.0
 43
0.0
 43
0.0
 43
1.0
 77
     0
 47
0.0208333333333333
 47
0.0
 47
0.0
 47
0.0
 47
0.0
 47
0.0208333333333333
 47
0.0
 47
0.0
 47
0.0
 47
0.0
 47
1.0
 47
0.0
 47
0.0
 47
0.0
 47
0.0
 47
1.0
171
     0
 49
0.0208333333333333
 49
0.0
 49
0.0
 49
0.0
 49
0.0
 49
0.0208333333333333
 49
0.0
 49
0.0
 49
0.0
 49
0.0
 49
1.0
 49
0.0
 49
0.0
 49
0.0
 49
0.0
 49
1.0
175
     0
142
0.0208333333333333
142
0.0
142
0.0
142
0.0
142
0.0
142
0.0208333333333333
142
0.0
142
0.0
142
0.0
142
0.0
142
1.0
142
0.0
142
0.0
142
0.0
142
0.0
142
1.0
179
     0
144
0.0208333333333333
144
0.0
144
0.0
144
0.0
144
0.0
144
0.0208333333333333
144
0.0
144
0.0
144
0.0
144
0.0
144
1.0
144
0.0
144
0.0
144
0.0
144
0.0
144
1.0
147
0.0208333333333333
147
0.0
147
0.0
147
0.0
147
0.0
147
0.0208333333333333
147
0.0
147
0.0
147
0.0
147
0.0
147
1.0
147
0.0
147
0.0
147
0.0
147
0.0
147
1.0
  0
MATERIAL
  5
EF9
102
{ACAD_XDICTIONARY
360
EFA
102
}
102
{ACAD_REACTORS
330
EE8
102
}
330
EE8
100
AcDbMaterial
  1
Global
 72
     0
 43
0.0208333333333333
 43
0.0
 43
0.0
 43
0.0
 43
0.0
 43
0.0208333333333333
 43
0.0
 43
0.0
 43
0.0
 43
0.0
 43
1.0
 43
0.0
 43
0.0
 43
0.0
 43
0.0
 43
1.0
 77
     0
 47
0.0208333333333333
 47
0.0
 47
0.0
 47
0.0
 47
0.0
 47
0.0208333333333333
 47
0.0
 47
0.0
 47
0.0
 47
0.0
 47
1.0
 47
0.0
 47
0.0
 47
0.0
 47
0.0
 47
1.0
171
     0
 49
0.0208333333333333
 49
0.0
 49
0.0
 49
0.0
 49
0.0
 49
0.0208333333333333
 49
0.0
 49
0.0
 49
0.0
 49
0.0
 49
1.0
 49
0.0
 49
0.0
 49
0.0
 49
0.0
 49
1.0
175
     0
142
0.0208333333333333
142
0.0
142
0.0
142
0.0
142
0.0
142
0.0208333333333333
142
0.0
142
0.0
142
0.0
142
0.0
142
1.0
142
0.0
142
0.0
142
0.0
142
0.0
142
1.0
179
     0
144
0.0208333333333333
144
0.0
144
0.0
144
0.0
144
0.0
144
0.0208333333333333
144
0.0
144
0.0
144
0.0
144
0.0
144
1.0
144
0.0
144
0.0
144
0.0
144
0.0
144
1.0
147
0.0208333333333333
147
0.0
147
0.0
147
0.0
147
0.0
147
0.0208333333333333
147
0.0
147
0.0
147
0.0
147
0.0
147
1.0
147
0.0
147
0.0
147
0.0
147
0.0
147
1.0
  0
MLEADERSTYLE
  5
F36
102
{ACAD_REACTORS
330
F35
102
}
330
F35
100
AcDbMLeaderStyle
170
     2
171
     1
172
     0
 90
        2
 40
0.0
 41
0.0
173
     1
 91
-1056964608
340
14
 92
       -2
290
     1
 42
0.09
291
     1
 43
0.36
  3
Standard
 44
0.18
300

342
11
174
     1
178
     6
175
     1
176
     0
 93
-1056964608
 45
0.18
292
     0
297
     0
 46
0.18
 94
-1056964608
 47
1.0
 49
1.0
140
1.0
293
     1
141
0.0
294
     1
177
     0
142
1.0
295
     0
296
     0
143
0.125
1001
ACAD_MLEADERVER
1070
     2
  0
MLINESTYLE
  5
18
102
{ACAD_REACTORS
330
17
102
}
330
17
100
AcDbMlineStyle
  2
STANDARD
 70
     0
  3

 62
   256
 51
90.0
 52
90.0
 71
     2
 49
0.5
 62
   256
  6
BYLAYER
 49
-0.5
 62
   256
  6
BYLAYER
  0
ACDBPLACEHOLDER
  5
F
102
{ACAD_REACTORS
330
E
102
}
330
E
  0
SCALE
  5
F14
102
{ACAD_REACTORS
330
F13
102
}
330
F13
100
AcDbScale
 70
     0
300
1:1
140
1.0
141
1.0
290
     1
  0
SCALE
  5
F15
102
{ACAD_REACTORS
330
F13
102
}
330
F13
100
AcDbScale
 70
     0
300
1:2
140
1.0
141
2.0
290
     0
  0
SCALE
  5
F16
102
{ACAD_REACTORS
330
F13
102
}
330
F13
100
AcDbScale
 70
     0
300
1:4
140
1.0
141
4.0
290
     0
  0
SCALE
  5
F17
102
{ACAD_REACTORS
330
F13
102
}
330
F13
100
AcDbScale
 70
     0
300
1:5
140
1.0
141
5.0
290
     0
  0
SCALE
  5
F18
102
{ACAD_REACTORS
330
F13
102
}
330
F13
100
AcDbScale
 70
     0
300
1:8
140
1.0
141
8.0
290
     0
  0
SCALE
  5
F19
102
{ACAD_REACTORS
330
F13
102
}
330
F13
100
AcDbScale
 70
     0
300
1:10
140
1.0
141
10.0
290
     0
  0
SCALE
  5
F1A
102
{ACAD_REACTORS
330
F13
102
}
330
F13
100
AcDbScale
 70
     0
300
1:16
140
1.0
141
16.0
290
     0
  0
SCALE
  5
F1B
102
{ACAD_REACTORS
330
F13
102
}
330
F13
100
AcDbScale
 70
     0
300
1:20
140
1.0
141
20.0
290
     0
  0
SCALE
  5
F1C
102
{ACAD_REACTORS
330
F13
102
}
330
F13
100
AcDbScale
 70
     0
300
1:30
140
1.0
141
30.0
290
     0
  0
SCALE
  5
F1D
102
{ACAD_REACTORS
330
F13
102
}
330
F13
100
AcDbScale
 70
     0
300
1:40
140
1.0
141
40.0
290
     0
  0
SCALE
  5
F1E
102
{ACAD_REACTORS
330
F13
102
}
330
F13
100
AcDbScale
 70
     0
300
1:50
140
1.0
141
50.0
290
     0
  0
SCALE
  5
F1F
102
{ACAD_REACTORS
330
F13
102
}
330
F13
100
AcDbScale
 70
     0
300
1:100
140
1.0
141
100.0
290
     0
  0
SCALE
  5
F20
102
{ACAD_REACTORS
330
F13
102
}
330
F13
100
AcDbScale
 70
     0
300
2:1
140
2.0
141
1.0
290
     0
  0
SCALE
  5
F21
102
{ACAD_REACTORS
330
F13
102
}
330
F13
100
AcDbScale
 70
     0
300
4:1
140
4.0
141
1.0
290
     0
  0
SCALE
  5
F22
102
{ACAD_REACTORS
330
F13
102
}
330
F13
100
AcDbScale
 70
     0
300
8:1
140
8.0
141
1.0
290
     0
  0
SCALE
  5
F23
102
{ACAD_REACTORS
330
F13
102
}
330
F13
100
AcDbScale
 70
     0
300
10:1
140
10.0
141
1.0
290
     0
  0
SCALE
  5
F24
102
{ACAD_REACTORS
330
F13
102
}
330
F13
100
AcDbScale
 70
     0
300
100:1
140
100.0
141
1.0
290
     0
  0
SCALE
  5
F25
102
{ACAD_REACTORS
330
F13
102
}
330
F13
100
AcDbScale
 70
     0
300
1/128" = 1'-0"
140
0.0078125
141
12.0
290
     0
  0
SCALE
  5
F26
102
{ACAD_REACTORS
330
F13
102
}
330
F13
100
AcDbScale
 70
     0
300
1/64" = 1'-0"
140
0.015625
141
12.0
290
     0
  0
SCALE
  5
F27
102
{ACAD_REACTORS
330
F13
102
}
330
F13
100
AcDbScale
 70
     0
300
1/32" = 1'-0"
140
0.03125
141
12.0
290
     0
  0
SCALE
  5
F28
102
{ACAD_REACTORS
330
F13
102
}
330
F13
100
AcDbScale
 70
     0
300
1/16" = 1'-0"
140
0.0625
141
12.0
290
     0
  0
SCALE
  5
F29
102
{ACAD_REACTORS
330
F13
102
}
330
F13
100
AcDbScale
 70
     0
300
3/32" = 1'-0"
140
0.09375
141
12.0
290
     0
  0
SCALE
  5
F2A
102
{ACAD_REACTORS
330
F13
102
}
330
F13
100
AcDbScale
 70
     0
300
1/8" = 1'-0"
140
0.125
141
12.0
290
     0
  0
SCALE
  5
F2B
102
{ACAD_REACTORS
330
F13
102
}
330
F13
100
AcDbScale
 70
     0
300
3/16" = 1'-0"
140
0.1875
141
12.0
290
     0
  0
SCALE
  5
F2C
102
{ACAD_REACTORS
330
F13
102
}
330
F13
100
AcDbScale
 70
     0
300
1/4" = 1'-0"
140
0.25
141
12.0
290
     0
  0
SCALE
  5
F2D
102
{ACAD_REACTORS
330
F13
102
}
330
F13
100
AcDbScale
 70
     0
300
3/8" = 1'-0"
140
0.375
141
12.0
290
     0
  0
SCALE
  5
F2E
102
{ACAD_REACTORS
330
F13
102
}
330
F13
100
AcDbScale
 70
     0
300
1/2" = 1'-0"
140
0.5
141
12.0
290
     0
  0
SCALE
  5
F2F
102
{ACAD_REACTORS
330
F13
102
}
330
F13
100
AcDbScale
 70
     0
300
3/4" = 1'-0"
140
0.75
141
12.0
290
     0
  0
SCALE
  5
F30
102
{ACAD_REACTORS
330
F13
102
}
330
F13
100
AcDbScale
 70
     0
300
1" = 1'-0"
140
1.0
141
12.0
290
     0
  0
SCALE
  5
F31
102
{ACAD_REACTORS
330
F13
102
}
330
F13
100
AcDbScale
 70
     0
300
1-1/2" = 1'-0"
140
1.5
141
12.0
290
     0
  0
SCALE
  5
F32
102
{ACAD_REACTORS
330
F13
102
}
330
F13
100
AcDbScale
 70
     0
300
3" = 1'-0"
140
3.0
141
12.0
290
     0
  0
SCALE
  5
F33
102
{ACAD_REACTORS
330
F13
102
}
330
F13
100
AcDbScale
 70
     0
300
6" = 1'-0"
140
6.0
141
12.0
290
     0
  0
SCALE
  5
F34
102
{ACAD_REACTORS
330
F13
102
}
330
F13
100
AcDbScale
 70
     0
300
1'-0" = 1'-0"
140
12.0
141
12.0
290
     0
  0
TABLESTYLE
  5
EE4
102
{ACAD_XDICTIONARY
360
FE0
102
}
102
{ACAD_REACTORS
330
EE1
102
}
330
EE1
100
AcDbTableStyle
  3
Standard
 70
     0
 71
     0
 40
0.06
 41
0.06
280
     1
281
     1
  7
STANDARD
140
0.18
170
     1
 62
     0
 63
     7
283
     0
 90
      512
 91
        0
  1

274
    -2
284
     1
 64
     0
275
    -2
285
     1
 65
     0
276
    -2
286
     1
 66
     0
277
    -2
287
     1
 67
     0
278
    -2
288
     1
 68
     0
279
    -2
289
     1
 69
     0
  7
STANDARD
140
0.18
170
     1
 62
     0
 63
     7
283
     0
 90
      512
 91
        0
  1

274
    -2
284
     1
 64
     0
275
    -2
285
     1
 65
     0
276
    -2
286
     1
 66
     0
277
    -2
287
     1
 67
     0
278
    -2
288
     1
 68
     0
279
    -2
289
     1
 69
     0
  7
STANDARD
140
0.18
170
     1
 62
     0
 63
     7
283
     0
 90
      512
 91
        0
  1

274
    -2
284
     1
 64
     0
275
    -2
285
     1
 65
     0
276
    -2
286
     1
 66
     0
277
    -2
287
     1
 67
     0
278
    -2
288
     1
 68
     0
279
    -2
289
     1
 69
     0
  0
TABLESTYLE
  5
EE5
102
{ACAD_XDICTIONARY
360
FE2
102
}
102
{ACAD_REACTORS
330
EE1
102
}
330
EE1
100
AcDbTableStyle
  3
Standard1
 70
     1
 71
     0
 40
0.06
 41
0.06
280
     1
281
     1
  7
STANDARD
140
0.18
170
     1
 62
     0
 63
     7
283
     0
 90
      512
 91
        0
  1

274
    -2
284
     1
 64
     0
275
    -2
285
     1
 65
     0
276
    -2
286
     1
 66
     0
277
    -2
287
     1
 67
     0
278
    -2
288
     1
 68
     0
279
    -2
289
     1
 69
     0
  7
STANDARD
140
0.18
170
     1
 62
     0
 63
     7
283
     0
 90
      512
 91
        0
  1

274
    -2
284
     1
 64
     0
275
    -2
285
     1
 65
     0
276
    -2
286
     1
 66
     0
277
    -2
287
     1
 67
     0
278
    -2
288
     1
 68
     0
279
    -2
289
     1
 69
     0
  7
STANDARD
140
0.18
170
     1
 62
     0
 63
     7
283
     0
 90
      512
 91
        0
  1

274
    -2
284
     1
 64
     0
275
    -2
285
     1
 65
     0
276
    -2
286
     1
 66
     0
277
    -2
287
     1
 67
     0
278
    -2
288
     1
 68
     0
279
    -2
289
     1
 69
     0
  0
VISUALSTYLE
  5
F07
102
{ACAD_REACTORS
330
F01
102
}
330
F01
100
AcDbVisualStyle
  2
2dWireframe
 70
     4
 71
     0
 72
     2
 73
     0
 90
        0
 40
-0.6
 41
-30.0
 62
     5
 63
     7
421
 16777215
 74
     1
 91
        4
 64
     7
 65
   257
 75
     1
175
     1
 42
1.0
 92
        0
 66
   257
 43
1.0
 76
     1
 77
     6
 78
     2
 67
     7
 79
     5
170
     0
171
     0
290
     0
174
     0
 93
        1
 44
0.0
173
     0
291
     0
 45
0.0
  0
VISUALSTYLE
  5
F09
102
{ACAD_REACTORS
330
F01
102
}
330
F01
100
AcDbVisualStyle
  2
3D Hidden
 70
     6
 71
     1
 72
     2
 73
     2
 90
        0
 40
-0.6
 41
-30.0
 62
     5
 63
     7
421
 16777215
 74
     2
 91
        2
 64
     7
 65
   257
 75
     2
175
     1
 42
40.0
 92
        0
 66
   257
 43
1.0
 76
     1
 77
     6
 78
     2
 67
     7
 79
     3
170
     0
171
     0
290
     0
174
     0
 93
        1
 44
0.0
173
     0
291
     0
 45
0.0
  0
VISUALSTYLE
  5
F08
102
{ACAD_REACTORS
330
F01
102
}
330
F01
100
AcDbVisualStyle
  2
3dWireframe
 70
     5
 71
     0
 72
     2
 73
     0
 90
        0
 40
-0.6
 41
-30.0
 62
     5
 63
     7
421
 16777215
 74
     1
 91
        4
 64
     7
 65
   257
 75
     1
175
     1
 42
1.0
 92
        0
 66
   257
 43
1.0
 76
     1
 77
     6
 78
     2
 67
     7
 79
     5
170
     0
171
     0
290
     0
174
     0
 93
        1
 44
0.0
173
     0
291
     0
 45
0.0
  0
VISUALSTYLE
  5
F06
102
{ACAD_REACTORS
330
F01
102
}
330
F01
100
AcDbVisualStyle
  2
Basic
 70
     7
 71
     1
 72
     0
 73
     1
 90
        0
 40
-0.6
 41
-30.0
 62
     5
 63
     7
421
 16777215
 74
     0
 91
        4
 64
     7
 65
   257
 75
     1
175
     1
 42
1.0
 92
        8
 66
     7
 43
1.0
 76
     1
 77
     6
 78
     2
 67
     7
 79
     5
170
     0
171
     0
290
     0
174
     0
 93
        1
 44
0.0
173
     0
291
     1
 45
0.0
  0
VISUALSTYLE
  5
F0D
102
{ACAD_REACTORS
330
F01
102
}
330
F01
100
AcDbVisualStyle
  2
Brighten
 70
    12
 71
     2
 72
     2
 73
     0
 90
        0
 40
-0.6
 41
-30.0
 62
     5
 63
     7
421
 16777215
 74
     1
 91
        4
 64
     7
 65
   257
 75
     1
175
     1
 42
1.0
 92
        8
 66
     7
 43
1.0
 76
     1
 77
     6
 78
     2
 67
     7
 79
     5
170
     0
171
     0
290
     0
174
     0
 93
        1
 44
50.0
173
     0
291
     1
 45
0.0
  0
VISUALSTYLE
  5
F11
102
{ACAD_REACTORS
330
F01
102
}
330
F01
100
AcDbVisualStyle
  2
ColorChange
 70
    16
 71
     2
 72
     2
 73
     3
 90
        0
 40
-0.6
 41
-30.0
 62
     5
 63
     8
421
  8421504
 74
     1
 91
        4
 64
     7
 65
   257
 75
     1
175
     1
 42
1.0
 92
        8
 66
     8
424
  8421504
 43
1.0
 76
     1
 77
     6
 78
     2
 67
     7
 79
     5
170
     0
171
     0
290
     0
174
     0
 93
        1
 44
0.0
173
     0
291
     1
 45
0.0
  0
VISUALSTYLE
  5
F0A
102
{ACAD_REACTORS
330
F01
102
}
330
F01
100
AcDbVisualStyle
  2
Conceptual
 70
     9
 71
     3
 72
     2
 73
     0
 90
        0
 40
-0.6
 41
-30.0
 62
     5
 63
     7
421
 16777215
 74
     2
 91
        2
 64
     7
 65
   257
 75
     1
175
     1
 42
40.0
 92
        8
 66
     7
 43
1.0
 76
     1
 77
     6
 78
     2
 67
     7
 79
     3
170
     0
171
     0
290
     0
174
     0
 93
        1
 44
0.0
173
     0
291
     0
 45
0.0
  0
VISUALSTYLE
  5
F0C
102
{ACAD_REACTORS
330
F01
102
}
330
F01
100
AcDbVisualStyle
  2
Dim
 70
    11
 71
     2
 72
     2
 73
     0
 90
        0
 40
-0.6
 41
-30.0
 62
     5
 63
     7
421
 16777215
 74
     1
 91
        4
 64
     7
 65
   257
 75
     1
175
     1
 42
1.0
 92
        8
 66
     7
 43
1.0
 76
     1
 77
     6
 78
     2
 67
     7
 79
     5
170
     0
171
     0
290
     0
174
     0
 93
        1
 44
-50.0
173
     0
291
     1
 45
0.0
  0
VISUALSTYLE
  5
F10
102
{ACAD_REACTORS
330
F01
102
}
330
F01
100
AcDbVisualStyle
  2
Facepattern
 70
    15
 71
     2
 72
     2
 73
     0
 90
        0
 40
-0.6
 41
-30.0
 62
     5
 63
     7
421
 16777215
 74
     1
 91
        4
 64
     7
 65
   257
 75
     1
175
     1
 42
1.0
 92
        8
 66
     7
 43
1.0
 76
     1
 77
     6
 78
     2
 67
     7
 79
     5
170
     0
171
     0
290
     0
174
     0
 93
        1
 44
0.0
173
     0
291
     1
 45
0.0
  0
VISUALSTYLE
  5
F02
102
{ACAD_REACTORS
330
F01
102
}
330
F01
100
AcDbVisualStyle
  2
Flat
 70
     0
 71
     2
 72
     1
 73
     1
 90
        2
 40
-0.6
 41
30.0
 62
     5
 63
     7
421
 16777215
 74
     0
 91
        4
 64
     7
 65
   257
 75
     1
175
     1
 42
1.0
 92
        8
 66
     7
 43
1.0
 76
     1
 77
     6
 78
     2
 67
     7
 79
     5
170
     0
171
     0
290
     0
174
     0
 93
       13
 44
0.0
173
     0
291
     1
 45
0.0
  0
VISUALSTYLE
  5
F03
102
{ACAD_REACTORS
330
F01
102
}
330
F01
100
AcDbVisualStyle
  2
FlatWithEdges
 70
     1
 71
     2
 72
     1
 73
     1
 90
        2
 40
-0.6
 41
30.0
 62
     5
 63
     7
421
 16777215
 74
     1
 91
        4
 64
     7
 65
   257
 75
     1
175
     1
 42
1.0
 92
        0
 66
   257
 43
1.0
 76
     1
 77
     6
 78
     2
 67
     7
 79
     5
170
     0
171
     0
290
     0
174
     0
 93
       13
 44
0.0
173
     0
291
     1
 45
0.0
  0
VISUALSTYLE
  5
F04
102
{ACAD_REACTORS
330
F01
102
}
330
F01
100
AcDbVisualStyle
  2
Gouraud
 70
     2
 71
     2
 72
     2
 73
     1
 90
        2
 40
-0.6
 41
30.0
 62
     5
 63
     7
421
 16777215
 74
     0
 91
        4
 64
     7
 65
   257
 75
     1
175
     1
 42
1.0
 92
        0
 66
     7
 43
1.0
 76
     1
 77
     6
 78
     2
 67
     7
 79
     5
170
     0
171
     0
290
     0
174
     0
 93
       13
 44
0.0
173
     0
291
     1
 45
0.0
  0
VISUALSTYLE
  5
F05
102
{ACAD_REACTORS
330
F01
102
}
330
F01
100
AcDbVisualStyle
  2
GouraudWithEdges
 70
     3
 71
     2
 72
     2
 73
     1
 90
        2
 40
-0.6
 41
30.0
 62
     5
 63
     7
421
 16777215
 74
     1
 91
        4
 64
     7
 65
   257
 75
     1
175
     1
 42
1.0
 92
        0
 66
   257
 43
1.0
 76
     1
 77
     6
 78
     2
 67
     7
 79
     5
170
     0
171
     0
290
     0
174
     0
 93
       13
 44
0.0
173
     0
291
     1
 45
0.0
  0
VISUALSTYLE
  5
F0F
102
{ACAD_REACTORS
330
F01
102
}
330
F01
100
AcDbVisualStyle
  2
Linepattern
 70
    14
 71
     2
 72
     2
 73
     0
 90
        0
 40
-0.6
 41
-30.0
 62
     5
 63
     7
421
 16777215
 74
     1
 91
        4
 64
     7
 65
   257
 75
     7
175
     7
 42
1.0
 92
        8
 66
     7
 43
1.0
 76
     1
 77
     6
 78
     2
 67
     7
 79
     5
170
     0
171
     0
290
     0
174
     0
 93
        1
 44
0.0
173
     0
291
     1
 45
0.0
  0
VISUALSTYLE
  5
F0B
102
{ACAD_REACTORS
330
F01
102
}
330
F01
100
AcDbVisualStyle
  2
Realistic
 70
     8
 71
     2
 72
     2
 73
     0
 90
        0
 40
-0.6
 41
-30.0
 62
     5
 63
     7
421
 16777215
 74
     1
 91
        0
 64
     7
 65
   257
 75
     1
175
     1
 42
1.0
 92
        8
 66
     8
424
  7895160
 43
1.0
 76
     1
 77
     6
 78
     2
 67
     7
 79
     5
170
     0
171
     0
290
     0
174
     0
 93
       13
 44
0.0
173
     0
291
     0
 45
0.0
  0
VISUALSTYLE
  5
F0E
102
{ACAD_REACTORS
330
F01
102
}
330
F01
100
AcDbVisualStyle
  2
Thicken
 70
    13
 71
     2
 72
     2
 73
     0
 90
        0
 40
-0.6
 41
-30.0
 62
     5
 63
     7
421
 16777215
 74
     1
 91
        4
 64
     7
 65
   257
 75
     1
175
     1
 42
1.0
 92
       12
 66
     7
 43
1.0
 76
     1
 77
     6
 78
     2
 67
     7
 79
     5
170
     0
171
     0
290
     0
174
     0
 93
        1
 44
0.0
173
     0
291
     1
 45
0.0
  0
DICTIONARYVAR
  5
FDF
102
{ACAD_REACTORS
330
FDC
102
}
330
FDC
100
DictionaryVariables
280
     0
  1
1:1
  0
DICTIONARYVAR
  5
FDE
102
{ACAD_REACTORS
330
FDC
102
}
330
FDC
100
DictionaryVariables
280
     0
  1
STANDARD
  0
DICTIONARYVAR
  5
FDD
102
{ACAD_REACTORS
330
FDC
102
}
330
FDC
100
DictionaryVariables
280
     0
  1
STANDARD
  0
DICTIONARY
  5
FA1
102
{ACAD_REACTORS
330
F94
102
}
330
F94
100
AcDbDictionary
281
     1
  0
DICTIONARY
  5
EF2
330
EF1
100
AcDbDictionary
280
     1
281
     1
  3
BUMPTILE
360
EF4
  3
DIFFUSETILE
360
EF3
  3
OPACITYTILE
360
EF7
  3
REFLECTIONTILE
360
EF6
  3
REFRACTIONTILE
360
EF8
  3
SPECULARTILE
360
EF5
  0
DICTIONARY
  5
EEA
330
EE9
100
AcDbDictionary
280
     1
281
     1
  3
BUMPTILE
360
EEC
  3
DIFFUSETILE
360
EEB
  3
OPACITYTILE
360
EEF
  3
REFLECTIONTILE
360
EEE
  3
REFRACTIONTILE
360
EF0
  3
SPECULARTILE
360
EED
  0
DICTIONARY
  5
EFA
330
EF9
100
AcDbDictionary
280
     1
281
     1
  3
BUMPTILE
360
EFC
  3
DIFFUSETILE
360
EFB
  3
OPACITYTILE
360
EFF
  3
REFLECTIONTILE
360
EFE
  3
REFRACTIONTILE
360
F00
  3
SPECULARTILE
360
EFD
  0
DICTIONARY
  5
FE0
330
EE4
100
AcDbDictionary
280
     1
281
     1
  3
ACAD_ROUNDTRIP_2008_TABLESTYLE_CELLSTYLEMAP
360
10E3
  0
DICTIONARY
  5
FE2
330
EE5
100
AcDbDictionary
280
     1
281
     1
  3
ACAD_ROUNDTRIP_2008_TABLESTYLE_CELLSTYLEMAP
360
10E4
  0
XRECORD
  5
EF4
102
{ACAD_REACTORS
330
EF2
102
}
330
EF2
100
AcDbXrecord
280
     1
270
     1
271
     1
  0
XRECORD
  5
EF3
102
{ACAD_REACTORS
330
EF2
102
}
330
EF2
100
AcDbXrecord
280
     1
270
     1
271
     1
  0
XRECORD
  5
EF7
102
{ACAD_REACTORS
330
EF2
102
}
330
EF2
100
AcDbXrecord
280
     1
270
     1
271
     1
  0
XRECORD
  5
EF6
102
{ACAD_REACTORS
330
EF2
102
}
330
EF2
100
AcDbXrecord
280
     1
270
     1
271
     1
  0
XRECORD
  5
EF8
102
{ACAD_REACTORS
330
EF2
102
}
330
EF2
100
AcDbXrecord
280
     1
270
     1
271
     1
  0
XRECORD
  5
EF5
102
{ACAD_REACTORS
330
EF2
102
}
330
EF2
100
AcDbXrecord
280
     1
270
     1
271
     1
  0
XRECORD
  5
EEC
102
{ACAD_REACTORS
330
EEA
102
}
330
EEA
100
AcDbXrecord
280
     1
270
     1
271
     1
  0
XRECORD
  5
EEB
102
{ACAD_REACTORS
330
EEA
102
}
330
EEA
100
AcDbXrecord
280
     1
270
     1
271
     1
  0
XRECORD
  5
EEF
102
{ACAD_REACTORS
330
EEA
102
}
330
EEA
100
AcDbXrecord
280
     1
270
     1
271
     1
  0
XRECORD
  5
EEE
102
{ACAD_REACTORS
330
EEA
102
}
330
EEA
100
AcDbXrecord
280
     1
270
     1
271
     1
  0
XRECORD
  5
EF0
102
{ACAD_REACTORS
330
EEA
102
}
330
EEA
100
AcDbXrecord
280
     1
270
     1
271
     1
  0
XRECORD
  5
EED
102
{ACAD_REACTORS
330
EEA
102
}
330
EEA
100
AcDbXrecord
280
     1
270
     1
271
     1
  0
XRECORD
  5
EFC
102
{ACAD_REACTORS
330
EFA
102
}
330
EFA
100
AcDbXrecord
280
     1
270
     1
271
     1
  0
XRECORD
  5
EFB
102
{ACAD_REACTORS
330
EFA
102
}
330
EFA
100
AcDbXrecord
280
     1
270
     1
271
     1
  0
XRECORD
  5
EFF
102
{ACAD_REACTORS
330
EFA
102
}
330
EFA
100
AcDbXrecord
280
     1
270
     1
271
     1
  0
XRECORD
  5
EFE
102
{ACAD_REACTORS
330
EFA
102
}
330
EFA
100
AcDbXrecord
280
     1
270
     1
271
     1
  0
XRECORD
  5
F00
102
{ACAD_REACTORS
330
EFA
102
}
330
EFA
100
AcDbXrecord
280
     1
270
     1
271
     1
  0
XRECORD
  5
EFD
102
{ACAD_REACTORS
330
EFA
102
}
330
EFA
100
AcDbXrecord
280
     1
270
     1
271
     1
  0
CELLSTYLEMAP
  5
10E3
102
{ACAD_REACTORS
330
FE0
102
}
330
FE0
100
AcDbCellStyleMap
 90
        3
300
CELLSTYLE
  1
TABLEFORMAT_BEGIN
 90
        5
170
     1
 91
        0
 92
    32768
 62
   257
 93
        1
300
CONTENTFORMAT
  1
CONTENTFORMAT_BEGIN
 90
        0
 91
        0
 92
      512
 93
        0
300

 40
0.0
140
1.0
 94
        1
 62
     0
340
11
144
0.18
309
CONTENTFORMAT_END
171
     1
301
MARGIN
  1
CELLMARGIN_BEGIN
 40
0.06
 40
0.06
 40
0.06
 40
0.06
 40
0.18
 40
0.18
309
CELLMARGIN_END
 94
        6
 95
        1
302
GRIDFORMAT
  1
GRIDFORMAT_BEGIN
 90
        0
 91
        1
 62
     0
 92
       -2
340
0
 93
        0
 40
0.045
309
GRIDFORMAT_END
 95
        2
302
GRIDFORMAT
  1
GRIDFORMAT_BEGIN
 90
        0
 91
        1
 62
     0
 92
       -2
340
0
 93
        0
 40
0.045
309
GRIDFORMAT_END
 95
        4
302
GRIDFORMAT
  1
GRIDFORMAT_BEGIN
 90
        0
 91
        1
 62
     0
 92
       -2
340
0
 93
        0
 40
0.045
309
GRIDFORMAT_END
 95
        8
302
GRIDFORMAT
  1
GRIDFORMAT_BEGIN
 90
        0
 91
        1
 62
     0
 92
       -2
340
0
 93
        0
 40
0.045
309
GRIDFORMAT_END
 95
       16
302
GRIDFORMAT
  1
GRIDFORMAT_BEGIN
 90
        0
 91
        1
 62
     0
 92
       -2
340
0
 93
        0
 40
0.045
309
GRIDFORMAT_END
 95
       32
302
GRIDFORMAT
  1
GRIDFORMAT_BEGIN
 90
        0
 91
        1
 62
     0
 92
       -2
340
0
 93
        0
 40
0.045
309
GRIDFORMAT_END
309
TABLEFORMAT_END
  1
CELLSTYLE_BEGIN
 90
        1
 91
        1
300
_TITLE
309
CELLSTYLE_END
300
CELLSTYLE
  1
TABLEFORMAT_BEGIN
 90
        5
170
     1
 91
        0
 92
        0
 62
   257
 93
        1
300
CONTENTFORMAT
  1
CONTENTFORMAT_BEGIN
 90
        0
 91
        0
 92
      512
 93
        0
300

 40
0.0
140
1.0
 94
        1
 62
     0
340
11
144
0.18
309
CONTENTFORMAT_END
171
     1
301
MARGIN
  1
CELLMARGIN_BEGIN
 40
0.06
 40
0.06
 40
0.06
 40
0.06
 40
0.18
 40
0.18
309
CELLMARGIN_END
 94
        6
 95
        1
302
GRIDFORMAT
  1
GRIDFORMAT_BEGIN
 90
        0
 91
        1
 62
     0
 92
       -2
340
0
 93
        0
 40
0.045
309
GRIDFORMAT_END
 95
        2
302
GRIDFORMAT
  1
GRIDFORMAT_BEGIN
 90
        0
 91
        1
 62
     0
 92
       -2
340
0
 93
        0
 40
0.045
309
GRIDFORMAT_END
 95
        4
302
GRIDFORMAT
  1
GRIDFORMAT_BEGIN
 90
        0
 91
        1
 62
     0
 92
       -2
340
0
 93
        0
 40
0.045
309
GRIDFORMAT_END
 95
        8
302
GRIDFORMAT
  1
GRIDFORMAT_BEGIN
 90
        0
 91
        1
 62
     0
 92
       -2
340
0
 93
        0
 40
0.045
309
GRIDFORMAT_END
 95
       16
302
GRIDFORMAT
  1
GRIDFORMAT_BEGIN
 90
        0
 91
        1
 62
     0
 92
       -2
340
0
 93
        0
 40
0.045
309
GRIDFORMAT_END
 95
       32
302
GRIDFORMAT
  1
GRIDFORMAT_BEGIN
 90
        0
 91
        1
 62
     0
 92
       -2
340
0
 93
        0
 40
0.045
309
GRIDFORMAT_END
309
TABLEFORMAT_END
  1
CELLSTYLE_BEGIN
 90
        2
 91
        1
300
_HEADER
309
CELLSTYLE_END
300
CELLSTYLE
  1
TABLEFORMAT_BEGIN
 90
        5
170
     1
 91
        0
 92
        0
 62
   257
 93
        1
300
CONTENTFORMAT
  1
CONTENTFORMAT_BEGIN
 90
        0
 91
        0
 92
      512
 93
        0
300

 40
0.0
140
1.0
 94
        1
 62
     0
340
11
144
0.18
309
CONTENTFORMAT_END
171
     1
301
MARGIN
  1
CELLMARGIN_BEGIN
 40
0.06
 40
0.06
 40
0.06
 40
0.06
 40
0.18
 40
0.18
309
CELLMARGIN_END
 94
        6
 95
        1
302
GRIDFORMAT
  1
GRIDFORMAT_BEGIN
 90
        0
 91
        1
 62
     0
 92
       -2
340
0
 93
        0
 40
0.045
309
GRIDFORMAT_END
 95
        2
302
GRIDFORMAT
  1
GRIDFORMAT_BEGIN
 90
        0
 91
        1
 62
     0
 92
       -2
340
0
 93
        0
 40
0.045
309
GRIDFORMAT_END
 95
        4
302
GRIDFORMAT
  1
GRIDFORMAT_BEGIN
 90
        0
 91
        1
 62
     0
 92
       -2
340
0
 93
        0
 40
0.045
309
GRIDFORMAT_END
 95
        8
302
GRIDFORMAT
  1
GRIDFORMAT_BEGIN
 90
        0
 91
        1
 62
     0
 92
       -2
340
0
 93
        0
 40
0.045
309
GRIDFORMAT_END
 95
       16
302
GRIDFORMAT
  1
GRIDFORMAT_BEGIN
 90
        0
 91
        1
 62
     0
 92
       -2
340
0
 93
        0
 40
0.045
309
GRIDFORMAT_END
 95
       32
302
GRIDFORMAT
  1
GRIDFORMAT_BEGIN
 90
        0
 91
        1
 62
     0
 92
       -2
340
0
 93
        0
 40
0.045
309
GRIDFORMAT_END
309
TABLEFORMAT_END
  1
CELLSTYLE_BEGIN
 90
        3
 91
        2
300
_DATA
309
CELLSTYLE_END
  0
CELLSTYLEMAP
  5
10E4
102
{ACAD_REACTORS
330
FE2
102
}
330
FE2
100
AcDbCellStyleMap
 90
        3
300
CELLSTYLE
  1
TABLEFORMAT_BEGIN
 90
        5
170
     1
 91
        0
 92
    32768
 62
   257
 93
        1
300
CONTENTFORMAT
  1
CONTENTFORMAT_BEGIN
 90
        0
 91
        0
 92
      512
 93
        0
300

 40
0.0
140
1.0
 94
        1
 62
     0
340
11
144
0.18
309
CONTENTFORMAT_END
171
     1
301
MARGIN
  1
CELLMARGIN_BEGIN
 40
0.06
 40
0.06
 40
0.06
 40
0.06
 40
0.18
 40
0.18
309
CELLMARGIN_END
 94
        6
 95
        1
302
GRIDFORMAT
  1
GRIDFORMAT_BEGIN
 90
        0
 91
        1
 62
     0
 92
       -2
340
0
 93
        0
 40
0.045
309
GRIDFORMAT_END
 95
        2
302
GRIDFORMAT
  1
GRIDFORMAT_BEGIN
 90
        0
 91
        1
 62
     0
 92
       -2
340
0
 93
        0
 40
0.045
309
GRIDFORMAT_END
 95
        4
302
GRIDFORMAT
  1
GRIDFORMAT_BEGIN
 90
        0
 91
        1
 62
     0
 92
       -2
340
0
 93
        0
 40
0.045
309
GRIDFORMAT_END
 95
        8
302
GRIDFORMAT
  1
GRIDFORMAT_BEGIN
 90
        0
 91
        1
 62
     0
 92
       -2
340
0
 93
        0
 40
0.045
309
GRIDFORMAT_END
 95
       16
302
GRIDFORMAT
  1
GRIDFORMAT_BEGIN
 90
        0
 91
        1
 62
     0
 92
       -2
340
0
 93
        0
 40
0.045
309
GRIDFORMAT_END
 95
       32
302
GRIDFORMAT
  1
GRIDFORMAT_BEGIN
 90
        0
 91
        1
 62
     0
 92
       -2
340
0
 93
        0
 40
0.045
309
GRIDFORMAT_END
309
TABLEFORMAT_END
  1
CELLSTYLE_BEGIN
 90
        1
 91
        1
300
_TITLE
309
CELLSTYLE_END
300
CELLSTYLE
  1
TABLEFORMAT_BEGIN
 90
        5
170
     1
 91
        0
 92
        0
 62
   257
 93
        1
300
CONTENTFORMAT
  1
CONTENTFORMAT_BEGIN
 90
        0
 91
        0
 92
      512
 93
        0
300

 40
0.0
140
1.0
 94
        1
 62
     0
340
11
144
0.18
309
CONTENTFORMAT_END
171
     1
301
MARGIN
  1
CELLMARGIN_BEGIN
 40
0.06
 40
0.06
 40
0.06
 40
0.06
 40
0.18
 40
0.18
309
CELLMARGIN_END
 94
        6
 95
        1
302
GRIDFORMAT
  1
GRIDFORMAT_BEGIN
 90
        0
 91
        1
 62
     0
 92
       -2
340
0
 93
        0
 40
0.045
309
GRIDFORMAT_END
 95
        2
302
GRIDFORMAT
  1
GRIDFORMAT_BEGIN
 90
        0
 91
        1
 62
     0
 92
       -2
340
0
 93
        0
 40
0.045
309
GRIDFORMAT_END
 95
        4
302
GRIDFORMAT
  1
GRIDFORMAT_BEGIN
 90
        0
 91
        1
 62
     0
 92
       -2
340
0
 93
        0
 40
0.045
309
GRIDFORMAT_END
 95
        8
302
GRIDFORMAT
  1
GRIDFORMAT_BEGIN
 90
        0
 91
        1
 62
     0
 92
       -2
340
0
 93
        0
 40
0.045
309
GRIDFORMAT_END
 95
       16
302
GRIDFORMAT
  1
GRIDFORMAT_BEGIN
 90
        0
 91
        1
 62
     0
 92
       -2
340
0
 93
        0
 40
0.045
309
GRIDFORMAT_END
 95
       32
302
GRIDFORMAT
  1
GRIDFORMAT_BEGIN
 90
        0
 91
        1
 62
     0
 92
       -2
340
0
 93
        0
 40
0.045
309
GRIDFORMAT_END
309
TABLEFORMAT_END
  1
CELLSTYLE_BEGIN
 90
        2
 91
        1
300
_HEADER
309
CELLSTYLE_END
300
CELLSTYLE
  1
TABLEFORMAT_BEGIN
 90
        5
170
     1
 91
        0
 92
        0
 62
   257
 93
        1
300
CONTENTFORMAT
  1
CONTENTFORMAT_BEGIN
 90
        0
 91
        0
 92
      512
 93
        0
300

 40
0.0
140
1.0
 94
        1
 62
     0
340
11
144
0.18
309
CONTENTFORMAT_END
171
     1
301
MARGIN
  1
CELLMARGIN_BEGIN
 40
0.06
 40
0.06
 40
0.06
 40
0.06
 40
0.18
 40
0.18
309
CELLMARGIN_END
 94
        6
 95
        1
302
GRIDFORMAT
  1
GRIDFORMAT_BEGIN
 90
        0
 91
        1
 62
     0
 92
       -2
340
0
 93
        0
 40
0.045
309
GRIDFORMAT_END
 95
        2
302
GRIDFORMAT
  1
GRIDFORMAT_BEGIN
 90
        0
 91
        1
 62
     0
 92
       -2
340
0
 93
        0
 40
0.045
309
GRIDFORMAT_END
 95
        4
302
GRIDFORMAT
  1
GRIDFORMAT_BEGIN
 90
        0
 91
        1
 62
     0
 92
       -2
340
0
 93
        0
 40
0.045
309
GRIDFORMAT_END
 95
        8
302
GRIDFORMAT
  1
GRIDFORMAT_BEGIN
 90
        0
 91
        1
 62
     0
 92
       -2
340
0
 93
        0
 40
0.045
309
GRIDFORMAT_END
 95
       16
302
GRIDFORMAT
  1
GRIDFORMAT_BEGIN
 90
        0
 91
        1
 62
     0
 92
       -2
340
0
 93
        0
 40
0.045
309
GRIDFORMAT_END
 95
       32
302
GRIDFORMAT
  1
GRIDFORMAT_BEGIN
 90
        0
 91
        1
 62
     0
 92
       -2
340
0
 93
        0
 40
0.045
309
GRIDFORMAT_END
309
TABLEFORMAT_END
  1
CELLSTYLE_BEGIN
 90
        3
 91
        2
300
_DATA
309
CELLSTYLE_END
  0
ENDSEC
  0
EOF
