  0
SECTION
  2
HEADER
  9
$ACADVER
  1
AC1009
  9
$INSBASE
 10
0.0
 20
0.0
 30
0.0
  9
$EXTMIN
 10
-0.3108235521
 20
-0.2306124013860533
 30
0.0
  9
$EXTMAX
 10
2.5687913339000001
 20
4.8924603847999988
 30
0.0
  9
$LIMMIN
 10
0.0
 20
0.0
  9
$LIMMAX
 10
2.6800000000000002
 20
4.9000000000000004
  9
$ORTHOMODE
 70
     0
  9
$REGENMODE
 70
     1
  9
$FILLMODE
 70
     1
  9
$QTEXTMODE
 70
     0
  9
$MIRRTEXT
 70
     1
  9
$DRAGMODE
 70
     2
  9
$LTSCALE
 40
0.3194074074
  9
$OSMODE
 70
    37
  9
$ATTMODE
 70
     1
  9
$TEXTSIZE
 40
0.001
  9
$TRACEWID
 40
0.05
  9
$TEXTSTYLE
  7
STANDARD
  9
$CLAYER
  8
0
  9
$CELTYPE
  6
BYLAYER
  9
$CECOLOR
 62
   256
  9
$DIMSCALE
 40
1.0
  9
$DIMASZ
 40
0.1875
  9
$DIMEXO
 40
0.0362962963
  9
$DIMDLI
 40
0.2206814815
  9
$DIMRND
 40
0.0
  9
$DIMDLE
 40
0.0
  9
$DIMEXE
 40
0.1045333333
  9
$DIMTP
 40
0.01
  9
$DIMTM
 40
0.01
  9
$DIMTXT
 40
0.15625
  9
$DIMCEN
 40
0.0522666667
  9
$DIMTSZ
 40
0.0
  9
$DIMTOL
 70
     1
  9
$DIMLIM
 70
     0
  9
$DIMTIH
 70
     1
  9
$DIMTOH
 70
     1
  9
$DIMSE1
 70
     0
  9
$DIMSE2
 70
     0
  9
$DIMTAD
 70
     0
  9
$DIMZIN
 70
     0
  9
$DIMBLK
  1

  9
$DIMASO
 70
     1
  9
$DIMSHO
 70
     1
  9
$DIMPOST
  1

  9
$DIMAPOST
  1

  9
$DIMALT
 70
     0
  9
$DIMALTD
 70
     2
  9
$DIMALTF
 40
25.399999999999999
  9
$DIMLFAC
 40
1.0
  9
$DIMTOFL
 70
     0
  9
$DIMTVP
 40
0.0
  9
$DIMTIX
 70
     0
  9
$DIMSOXD
 70
     0
  9
$DIMSAH
 70
     0
  9
$DIMBLK1
  1

  9
$DIMBLK2
  1

  9
$DIMSTYLE
  2
STANDARD
  9
$DIMCLRD
 70
     0
  9
$DIMCLRE
 70
     0
  9
$DIMCLRT
 70
     0
  9
$DIMTFAC
 40
1.0
  9
$DIMGAP
 40
0.09
  9
$LUNITS
 70
     2
  9
$LUPREC
 70
     4
  9
$SKETCHINC
 40
0.1
  9
$FILLETRAD
 40
0.0
  9
$AUNITS
 70
     0
  9
$AUPREC
 70
     0
  9
$MENU
  1
acad
  9
$ELEVATION
 40
0.0
  9
$PELEVATION
 40
0.0
  9
$THICKNESS
 40
0.0
  9
$LIMCHECK
 70
     0
  9
$BLIPMODE
 70
     0
  9
$CHAMFERA
 40
0.0
  9
$CHAMFERB
 40
0.0
  9
$SKPOLY
 70
     0
  9
$TDCREATE
 40
2453514.5098876851
  9
$TDUPDATE
 40
2453514.512611215
  9
$TDINDWG
 40
0.0027238889
  9
$TDUSRTIMER
 40
0.0027238889
  9
$USRTIMER
 70
     1
  9
$ANGBASE
 50
0.0
  9
$ANGDIR
 70
     0
  9
$PDMODE
 70
     3
  9
$PDSIZE
 40
0.3125
  9
$PLINEWID
 40
0.0
  9
$COORDS
 70
     1
  9
$SPLFRAME
 70
     0
  9
$SPLINETYPE
 70
     6
  9
$SPLINESEGS
 70
     8
  9
$ATTDIA
 70
     0
  9
$ATTREQ
 70
     1
  9
$HANDLING
 70
     1
  9
$HANDSEED
  5
44A
  9
$SURFTAB1
 70
     6
  9
$SURFTAB2
 70
     6
  9
$SURFTYPE
 70
     6
  9
$SURFU
 70
     6
  9
$SURFV
 70
     6
  9
$UCSNAME
  2

  9
$UCSORG
 10
0.0
 20
0.0
 30
0.0
  9
$UCSXDIR
 10
1.0
 20
0.0
 30
0.0
  9
$UCSYDIR
 10
0.0
 20
1.0
 30
0.0
  9
$PUCSNAME
  2

  9
$PUCSORG
 10
0.0
 20
0.0
 30
0.0
  9
$PUCSXDIR
 10
1.0
 20
0.0
 30
0.0
  9
$PUCSYDIR
 10
0.0
 20
1.0
 30
0.0
  9
$USERI1
 70
     0
  9
$USERI2
 70
     0
  9
$USERI3
 70
     0
  9
$USERI4
 70
     0
  9
$USERI5
 70
     0
  9
$USERR1
 40
0.0
  9
$USERR2
 40
0.0
  9
$USERR3
 40
0.0
  9
$USERR4
 40
0.0
  9
$USERR5
 40
0.0
  9
$WORLDVIEW
 70
     1
  9
$SHADEDGE
 70
     3
  9
$SHADEDIF
 70
    70
  9
$TILEMODE
 70
     1
  9
$MAXACTVP
 70
    16
  9
$PLIMCHECK
 70
     0
  9
$PEXTMIN
 10
1.0000000000000000E+020
 20
1.0000000000000000E+020
 30
1.0000000000000000E+020
  9
$PEXTMAX
 10
-1.0000000000000000E+020
 20
-1.0000000000000000E+020
 30
-1.0000000000000000E+020
  9
$PLIMMIN
 10
0.0
 20
0.0
  9
$PLIMMAX
 10
12.0
 20
9.0
  9
$UNITMODE
 70
     0
  9
$VISRETAIN
 70
     0
  9
$PLINEGEN
 70
     1
  9
$PSLTSCALE
 70
     0
  0
ENDSEC
  0
SECTION
  2
TABLES
  0
TABLE
  2
VPORT
 70
     3
  0
VPORT
  2
*ACTIVE
 70
     0
 10
0.0
 20
0.0
 11
1.0
 21
1.0
 12
1.2288875498203251
 22
2.615322068069017
 13
0.0
 23
0.0
 14
1.0
 24
1.0
 15
0.0
 25
0.0
 16
0.0
 26
0.0
 36
1.0
 17
0.0
 27
0.0
 37
0.0
 40
6.1522261988585258
 41
1.628879892037786
 42
50.0
 43
0.0
 44
0.0
 50
0.0
 51
0.0
 71
     0
 72
   100
 73
     1
 74
     1
 75
     0
 76
     0
 77
     0
 78
     0
  0
ENDTAB
  0
TABLE
  2
LTYPE
 70
     6
  0
LTYPE
  2
CONTINUOUS
 70
     0
  3
Solid line
 72
    65
 73
     0
 40
0.0
  0
LTYPE
  2
CENTER
 70
     0
  3
____ _ ____ _ ____ _ ____ _ ____ _ ____ _ ____
 72
    65
 73
     4
 40
0.6
 49
0.375
 49
-0.075
 49
0.075
 49
-0.075
  0
LTYPE
  2
HIDDEN
 70
     0
  3
- - - - - - - - - - - - - - - - - - - -
 72
    65
 73
     2
 40
0.2
 49
0.1
 49
-0.1
  0
LTYPE
  2
PHANTOM
 70
     0
  3
_____ _ _ _____ _ _ _____ _ _ _____
 72
    65
 73
     6
 40
0.8
 49
0.45
 49
-0.05
 49
0.1
 49
-0.05
 49
0.1
 49
-0.05
  0
LTYPE
  2
DOT
 70
     0
  3
. . . . . . . . . . . . . . . . . . . .
 72
    65
 73
     2
 40
0.2
 49
0.1
 49
-0.1
  0
LTYPE
  2
DASHED
 70
     0
  3
- - - - - - - - - - - - - - - - - - - -
 72
    65
 73
     2
 40
0.2
 49
0.1
 49
-0.1
  0
ENDTAB
  0
TABLE
  2
LAYER
 70
    26
  0
LAYER
  2
0
 70
     0
 62
     7
  6
CONTINUOUS
  0
LAYER
  2
DEFAULT_1
 70
     0
 62
     7
  6
CENTER
  0
LAYER
  2
DEFAULT_2
 70
     0
 62
     8
  6
HIDDEN
  0
LAYER
  2
DEFAULT_3
 70
     0
 62
     7
  6
PHANTOM
  0
LAYER
  2
_BLACK_HOLE
 70
     0
 62
     7
  6
CONTINUOUS
  0
LAYER
  2
AXIS
 70
     0
 62
     7
  6
CONTINUOUS
  0
LAYER
  2
COSM_SKETCH
 70
     0
 62
     7
  6
CONTINUOUS
  0
LAYER
  2
CURVE
 70
     0
 62
     7
  6
CONTINUOUS
  0
LAYER
  2
DATUMS
 70
     0
 62
     7
  6
CONTINUOUS
  0
LAYER
  2
DATUM_AXIS
 70
     0
 62
     7
  6
CONTINUOUS
  0
LAYER
  2
DATUM_CSYS
 70
     0
 62
     7
  6
CONTINUOUS
  0
LAYER
  2
DATUM_PLANE
 70
     0
 62
     7
  6
CONTINUOUS
  0
LAYER
  2
DATUM_PLN
 70
     0
 62
     7
  6
CONTINUOUS
  0
LAYER
  2
DATUM_POINT
 70
     0
 62
     7
  6
CONTINUOUS
  0
LAYER
  2
PARAM_DIM
 70
     0
 62
     7
  6
CONTINUOUS
  0
LAYER
  2
SURFACE
 70
     0
 62
     7
  6
CONTINUOUS
  0
LAYER
  2
WHITE
 70
     0
 62
     7
  6
CONTINUOUS
  0
LAYER
  2
XSEC_DATUMS
 70
     0
 62
     7
  6
CONTINUOUS
  0
LAYER
  2
_CURVE
 70
     0
 62
     7
  6
CONTINUOUS
  0
LAYER
  2
_SURFACE
 70
     0
 62
     7
  6
CONTINUOUS
  0
LAYER
  2
__REF_CURVE
 70
     0
 62
     7
  6
CONTINUOUS
  0
LAYER
  2
__REF_SURFACE
 70
     0
 62
     7
  6
CONTINUOUS
  0
LAYER
  2
___COSMETIC_SKETCH
 70
     0
 62
     7
  6
CONTINUOUS
  0
LAYER
  2
___COSMETIC_THREAD
 70
     0
 62
     7
  6
CONTINUOUS
  0
LAYER
  2
___GDT
 70
     0
 62
     7
  6
CONTINUOUS
  0
LAYER
  2
___NOTE
 70
     0
 62
     7
  6
CONTINUOUS
  0
ENDTAB
  0
TABLE
  2
STYLE
 70
     1
  0
STYLE
  2
STANDARD
 70
     0
 40
0.0
 41
0.8
 50
0.0
 71
     0
 42
0.001
  3
txt
  4

  0
ENDTAB
  0
TABLE
  2
VIEW
 70
     0
  0
ENDTAB
  0
TABLE
  2
UCS
 70
     0
  0
ENDTAB
  0
TABLE
  2
APPID
 70
     2
  0
APPID
  2
ACAD
 70
     0
  0
APPID
  2
DCO15
 70
     0
  0
ENDTAB
  0
TABLE
  2
DIMSTYLE
 70
     1
  0
DIMSTYLE
  2
STANDARD
 70
     0
  3

  4

  5

  6

  7

 40
1.0
 41
0.1875
 42
0.0625
 43
0.38
 44
0.18
 45
0.0
 46
0.0
 47
0.01
 48
0.01
140
0.15625
141
0.09
142
0.0
143
25.399999999999999
144
1.0
145
0.0
146
1.0
147
0.09
 71
     1
 72
     0
 73
     1
 74
     1
 75
     0
 76
     0
 77
     0
 78
     4
170
     0
171
     2
172
     0
173
     0
174
     0
175
     0
176
     0
177
     0
178
     0
  0
ENDTAB
  0
ENDSEC
  0
SECTION
  2
BLOCKS
  0
BLOCK
  8
0
  2
$MODEL_SPACE
 70
     0
 10
0.0
 20
0.0
 30
0.0
  3
$MODEL_SPACE
  1

  0
ENDBLK
  5
21
  8
0
  0
BLOCK
 67
     1
  8
0
  2
$PAPER_SPACE
 70
     0
 10
0.0
 20
0.0
 30
0.0
  3
$PAPER_SPACE
  1

  0
ENDBLK
  5
1D
 67
     1
  8
0
  0
ENDSEC
  0
SECTION
  2
ENTITIES
  0
LINE
  5
215
  8
0
  6
CONTINUOUS
 62
     7
 10
-0.1788773656
 20
0.0062465353
 30
0.0
 11
-0.1790072025
 21
0.0062510693
 31
0.0
  0
LINE
  5
216
  8
0
  6
CONTINUOUS
 62
     7
 10
-0.1777376196
 20
0.0062067345
 30
0.0
 11
0.0
 21
0.0
 31
0.0
  0
LINE
  5
217
  8
0
  6
CONTINUOUS
 62
     7
 10
0.0
 20
0.0799512662
 30
0.0
 11
0.0013959799
 21
0.0799512662
 31
0.0
  0
LINE
  5
218
  8
0
  6
CONTINUOUS
 62
     7
 10
0.0013959799
 20
0.6762118359000001
 30
0.0
 11
0.3915098181999999
 21
0.7034912529000001
 31
0.0
  0
LINE
  5
219
  8
0
  6
CONTINUOUS
 62
     7
 10
-0.2567312736
 20
0.0889142383
 30
0.0
 11
-0.255920036
 21
0.0793290222
 31
0.0
  0
LINE
  5
21A
  8
0
  6
CONTINUOUS
 62
     7
 10
-0.2575973611
 20
0.0997119032
 30
0.0
 11
-0.2567312736
 21
0.0889142383
 31
0.0
  0
LINE
  5
21B
  8
0
  6
CONTINUOUS
 62
     7
 10
-0.2571392049
 20
0.0976877438
 30
0.0
 11
-0.2558672461
 21
0.0802931448
 31
0.0
  0
LINE
  5
21C
  8
0
  6
CONTINUOUS
 62
     7
 10
-0.2583997267
 20
0.1105275181
 30
0.0
 11
-0.2575973611
 21
0.0997119032
 31
0.0
  0
LINE
  5
21D
  8
0
  6
CONTINUOUS
 62
     7
 10
-0.259106944
 20
0.1210230292
 30
0.0
 11
-0.2583997267
 21
0.1105275181
 31
0.0
  0
LINE
  5
21E
  8
0
  6
CONTINUOUS
 62
     7
 10
-0.2585897041
 20
4.7792167178999989
 30
0.0
 11
-0.2591655032
 21
4.7705166806999992
 31
0.0
  0
LINE
  5
21F
  8
0
  6
CONTINUOUS
 62
     7
 10
-0.2579239244
 20
4.7884608548999994
 30
0.0
 11
-0.2585897041
 21
4.7792167178999989
 31
0.0
  0
LINE
  5
220
  8
0
  6
CONTINUOUS
 62
     7
 10
-0.2572062231
 20
4.7977154732999994
 30
0.0
 11
-0.2579239244
 21
4.7884608548999994
 31
0.0
  0
POLYLINE
  5
221
  8
0
  6
CONTINUOUS
 62
     7
 66
     1
 10
0.0
 20
0.0
 30
0.0
  0
VERTEX
  5
30B
  8
0
  6
CONTINUOUS
 62
     7
 10
-0.255920012
 20
4.8131316454999986
 30
0.0
  0
VERTEX
  5
30C
  8
0
  6
CONTINUOUS
 62
     7
 10
-0.2561452216
 20
4.8105080727999994
 30
0.0
  0
VERTEX
  5
30D
  8
0
  6
CONTINUOUS
 62
     7
 10
-0.2572062231
 20
4.7977154732999994
 30
0.0
  0
SEQEND
  5
30E
  8
0
  6
CONTINUOUS
 62
     7
  0
LINE
  5
222
  8
0
  6
CONTINUOUS
 62
     7
 10
-0.3084423601
 20
3.3684269912999998
 30
0.0
 11
-0.3078718309
 21
3.3731862528000001
 31
0.0
  0
POLYLINE
  5
223
  8
0
  6
CONTINUOUS
 62
     7
 66
     1
 10
0.0
 20
0.0
 30
0.0
  0
VERTEX
  5
30F
  8
0
  6
CONTINUOUS
 62
     7
 10
-0.3078718309
 20
3.3731862528000001
 30
0.0
  0
VERTEX
  5
310
  8
0
  6
CONTINUOUS
 62
     7
 10
-0.307282463
 20
3.3776573328000001
 30
0.0
  0
VERTEX
  5
311
  8
0
  6
CONTINUOUS
 62
     7
 10
-0.3066852549
 20
3.3818028836999998
 30
0.0
  0
VERTEX
  5
312
  8
0
  6
CONTINUOUS
 62
     7
 10
-0.3060875749
 20
3.3856128666999998
 30
0.0
  0
SEQEND
  5
313
  8
0
  6
CONTINUOUS
 62
     7
  0
POLYLINE
  5
224
  8
0
  6
CONTINUOUS
 62
     7
 66
     1
 10
0.0
 20
0.0
 30
0.0
  0
VERTEX
  5
314
  8
0
  6
CONTINUOUS
 62
     7
 10
-0.3060875749
 20
3.3856128666999998
 30
0.0
  0
VERTEX
  5
315
  8
0
  6
CONTINUOUS
 62
     7
 10
-0.3054921951
 20
3.3891027499000002
 30
0.0
  0
VERTEX
  5
316
  8
0
  6
CONTINUOUS
 62
     7
 10
-0.3049042414
 20
3.3922697135000002
 30
0.0
  0
VERTEX
  5
317
  8
0
  6
CONTINUOUS
 62
     7
 10
-0.3043271153
 20
3.3951201138
 30
0.0
  0
SEQEND
  5
318
  8
0
  6
CONTINUOUS
 62
     7
  0
POLYLINE
  5
227
  8
0
  6
CONTINUOUS
 62
     7
 66
     1
 10
0.0
 20
0.0
 30
0.0
  0
VERTEX
  5
319
  8
0
  6
CONTINUOUS
 62
     7
 10
-0.3043271153
 20
3.3951201138
 30
0.0
  0
VERTEX
  5
31A
  8
0
  6
CONTINUOUS
 62
     7
 10
-0.3037558501
 20
3.3976963135
 30
0.0
  0
VERTEX
  5
31B
  8
0
  6
CONTINUOUS
 62
     7
 10
-0.3031914445
 20
3.4000055994
 30
0.0
  0
VERTEX
  5
31C
  8
0
  6
CONTINUOUS
 62
     7
 10
-0.3026299961
 20
3.4020729172999991
 30
0.0
  0
VERTEX
  5
31D
  8
0
  6
CONTINUOUS
 62
     7
 10
-0.3020448784
 20
3.4039887698000002
 30
0.0
  0
VERTEX
  5
31E
  8
0
  6
CONTINUOUS
 62
     7
 10
-0.3014165073
 20
3.4057869551999991
 30
0.0
  0
VERTEX
  5
31F
  8
0
  6
CONTINUOUS
 62
     7
 10
-0.3007257561
 20
3.4074818624000001
 30
0.0
  0
VERTEX
  5
320
  8
0
  6
CONTINUOUS
 62
     7
 10
-0.2999080589
 20
3.4091649842999998
 30
0.0
  0
VERTEX
  5
321
  8
0
  6
CONTINUOUS
 62
     7
 10
-0.2988815804
 20
3.4108922109000002
 30
0.0
  0
VERTEX
  5
322
  8
0
  6
CONTINUOUS
 62
     7
 10
-0.2975958061
 20
3.4126189322
 30
0.0
  0
VERTEX
  5
323
  8
0
  6
CONTINUOUS
 62
     7
 10
-0.2960191156
 20
3.4142744297999998
 30
0.0
  0
VERTEX
  5
324
  8
0
  6
CONTINUOUS
 62
     7
 10
-0.294106313
 20
3.4158022337
 30
0.0
  0
VERTEX
  5
325
  8
0
  6
CONTINUOUS
 62
     7
 10
-0.2918347459000001
 20
3.4171157627999991
 30
0.0
  0
VERTEX
  5
326
  8
0
  6
CONTINUOUS
 62
     7
 10
-0.2892683356
 20
3.418091085199999
 30
0.0
  0
VERTEX
  5
327
  8
0
  6
CONTINUOUS
 62
     7
 10
-0.2864552641
 20
3.4186416043999999
 30
0.0
  0
VERTEX
  5
328
  8
0
  6
CONTINUOUS
 62
     7
 10
-0.2859246477
 20
3.4186894633999998
 30
0.0
  0
SEQEND
  5
329
  8
0
  6
CONTINUOUS
 62
     7
  0
POLYLINE
  5
22A
  8
0
  6
CONTINUOUS
 62
     7
 66
     1
 10
0.0
 20
0.0
 30
0.0
  0
VERTEX
  5
32A
  8
0
  6
CONTINUOUS
 62
     7
 10
-0.3062003418
 20
1.507542074499999
 30
0.0
  0
VERTEX
  5
32B
  8
0
  6
CONTINUOUS
 62
     7
 10
-0.3069257409
 20
1.512283856299999
 30
0.0
  0
VERTEX
  5
32C
  8
0
  6
CONTINUOUS
 62
     7
 10
-0.3076426929
 20
1.5174869458999991
 30
0.0
  0
VERTEX
  5
32D
  8
0
  6
CONTINUOUS
 62
     7
 10
-0.3083342342
 20
1.5230943123
 30
0.0
  0
SEQEND
  5
32E
  8
0
  6
CONTINUOUS
 62
     7
  0
LINE
  5
22B
  8
0
  6
CONTINUOUS
 62
     7
 10
-0.3083342342
 20
1.5230943123
 30
0.0
 11
-0.3089828047
 21
1.529038445399999
 31
0.0
  0
POLYLINE
  5
22C
  8
0
  6
CONTINUOUS
 62
     7
 66
     1
 10
0.0
 20
0.0
 30
0.0
  0
VERTEX
  5
32F
  8
0
  6
CONTINUOUS
 62
     7
 10
-0.3089828047
 20
1.529038445399999
 30
0.0
  0
VERTEX
  5
330
  8
0
  6
CONTINUOUS
 62
     7
 10
-0.309464119
 20
1.5340495276999999
 30
0.0
  0
VERTEX
  5
331
  8
0
  6
CONTINUOUS
 62
     7
 10
-0.3098663382
 20
1.5388259586999991
 30
0.0
  0
SEQEND
  5
332
  8
0
  6
CONTINUOUS
 62
     7
  0
POLYLINE
  5
22D
  8
0
  6
CONTINUOUS
 62
     7
 66
     1
 10
0.0
 20
0.0
 30
0.0
  0
VERTEX
  5
333
  8
0
  6
CONTINUOUS
 62
     7
 10
-0.305711644
 20
1.9685291931
 30
0.0
  0
VERTEX
  5
334
  8
0
  6
CONTINUOUS
 62
     7
 10
-0.3061742768
 20
1.9735133666
 30
0.0
  0
VERTEX
  5
335
  8
0
  6
CONTINUOUS
 62
     7
 10
-0.3065920013
 20
1.9790202300999999
 30
0.0
  0
VERTEX
  5
336
  8
0
  6
CONTINUOUS
 62
     7
 10
-0.3069486454
 20
1.984984032599999
 30
0.0
  0
SEQEND
  5
337
  8
0
  6
CONTINUOUS
 62
     7
  0
POLYLINE
  5
230
  8
0
  6
CONTINUOUS
 62
     7
 66
     1
 10
0.0
 20
0.0
 30
0.0
  0
VERTEX
  5
338
  8
0
  6
CONTINUOUS
 62
     7
 10
-0.3098663382
 20
1.5388259586999991
 30
0.0
  0
VERTEX
  5
339
  8
0
  6
CONTINUOUS
 62
     7
 10
-0.3101919166
 20
1.543323948199999
 30
0.0
  0
VERTEX
  5
33A
  8
0
  6
CONTINUOUS
 62
     7
 10
-0.3104440852
 20
1.547504696999999
 30
0.0
  0
VERTEX
  5
33B
  8
0
  6
CONTINUOUS
 62
     7
 10
-0.3106280332
 20
1.5513568852999999
 30
0.0
  0
SEQEND
  5
33C
  8
0
  6
CONTINUOUS
 62
     7
  0
LINE
  5
231
  8
0
  6
CONTINUOUS
 62
     7
 10
-0.2597093991
 20
0.1309547203
 30
0.0
 11
-0.259106944
 21
0.1210230292
 31
0.0
  0
POLYLINE
  5
232
  8
0
  6
CONTINUOUS
 62
     7
 66
     1
 10
0.0
 20
0.0
 30
0.0
  0
VERTEX
  5
33D
  8
0
  6
CONTINUOUS
 62
     7
 10
-0.3063445374
 20
2.4234370097000002
 30
0.0
  0
VERTEX
  5
33E
  8
0
  6
CONTINUOUS
 62
     7
 10
-0.3066283977
 20
2.4284286634000001
 30
0.0
  0
VERTEX
  5
33F
  8
0
  6
CONTINUOUS
 62
     7
 10
-0.3068479442
 20
2.4339373603999999
 30
0.0
  0
VERTEX
  5
340
  8
0
  6
CONTINUOUS
 62
     7
 10
-0.3069893763
 20
2.4398973032999991
 30
0.0
  0
SEQEND
  5
341
  8
0
  6
CONTINUOUS
 62
     7
  0
POLYLINE
  5
233
  8
0
  6
CONTINUOUS
 62
     7
 66
     1
 10
0.0
 20
0.0
 30
0.0
  0
VERTEX
  5
342
  8
0
  6
CONTINUOUS
 62
     7
 10
-0.2604700474
 20
0.1516317662
 30
0.0
  0
VERTEX
  5
343
  8
0
  6
CONTINUOUS
 62
     7
 10
-0.2594653611
 20
0.1334539954
 30
0.0
  0
VERTEX
  5
344
  8
0
  6
CONTINUOUS
 62
     7
 10
-0.2583485604
 20
0.1154547346
 30
0.0
  0
VERTEX
  5
345
  8
0
  6
CONTINUOUS
 62
     7
 10
-0.2571392049
 20
0.0976877438
 30
0.0
  0
SEQEND
  5
346
  8
0
  6
CONTINUOUS
 62
     7
  0
LINE
  5
234
  8
0
  6
CONTINUOUS
 62
     7
 10
-0.2602363494
 20
0.140614319
 30
0.0
 11
-0.2597093991
 21
0.1309547203
 31
0.0
  0
LINE
  5
235
  8
0
  6
CONTINUOUS
 62
     7
 10
-0.2607001138
 20
0.1500257383
 30
0.0
 11
-0.2602363494
 21
0.140614319
 31
0.0
  0
LINE
  5
236
  8
0
  6
CONTINUOUS
 62
     7
 10
-0.3069486454
 20
1.984984032599999
 30
0.0
 11
-0.307228153
 21
1.9913263499999989
 31
0.0
  0
LINE
  5
237
  8
0
  6
CONTINUOUS
 62
     7
 10
-0.261292603
 20
0.1634496905
 30
0.0
 11
-0.2607001138
 21
0.1500257383
 31
0.0
  0
POLYLINE
  5
238
  8
0
  6
CONTINUOUS
 62
     7
 66
     1
 10
0.0
 20
0.0
 30
0.0
  0
VERTEX
  5
347
  8
0
  6
CONTINUOUS
 62
     7
 10
-0.2621334889
 20
0.1888688546
 30
0.0
  0
VERTEX
  5
348
  8
0
  6
CONTINUOUS
 62
     7
 10
-0.2613557973
 20
0.1700388889
 30
0.0
  0
VERTEX
  5
349
  8
0
  6
CONTINUOUS
 62
     7
 10
-0.2604700474
 20
0.1516317662
 30
0.0
  0
SEQEND
  5
34A
  8
0
  6
CONTINUOUS
 62
     7
  0
LINE
  5
239
  8
0
  6
CONTINUOUS
 62
     7
 10
-0.2618931574
 20
0.1784421124
 30
0.0
 11
-0.261292603
 21
0.1634496905
 31
0.0
  0
POLYLINE
  5
23A
  8
0
  6
CONTINUOUS
 62
     7
 66
     1
 10
0.0
 20
0.0
 30
0.0
  0
VERTEX
  5
34B
  8
0
  6
CONTINUOUS
 62
     7
 10
-0.3106280332
 20
1.5513568852999999
 30
0.0
  0
VERTEX
  5
34C
  8
0
  6
CONTINUOUS
 62
     7
 10
-0.3107495991
 20
1.5548951029
 30
0.0
  0
VERTEX
  5
34D
  8
0
  6
CONTINUOUS
 62
     7
 10
-0.3108132338
 20
1.558115552899999
 30
0.0
  0
VERTEX
  5
34E
  8
0
  6
CONTINUOUS
 62
     7
 10
-0.3108235521
 20
1.5610237740999999
 30
0.0
  0
SEQEND
  5
34F
  8
0
  6
CONTINUOUS
 62
     7
  0
LINE
  5
23B
  8
0
  6
CONTINUOUS
 62
     7
 10
-0.2628679419
 20
0.2069306971
 30
0.0
 11
-0.2618931574
 21
0.1784421124
 31
0.0
  0
POLYLINE
  5
23C
  8
0
  6
CONTINUOUS
 62
     7
 66
     1
 10
0.0
 20
0.0
 30
0.0
  0
VERTEX
  5
350
  8
0
  6
CONTINUOUS
 62
     7
 10
-0.307228153
 20
1.9913263499999989
 30
0.0
  0
VERTEX
  5
351
  8
0
  6
CONTINUOUS
 62
     7
 10
-0.3073879309
 20
1.9967375613999989
 30
0.0
  0
VERTEX
  5
352
  8
0
  6
CONTINUOUS
 62
     7
 10
-0.3074712024
 20
2.001871745099999
 30
0.0
  0
SEQEND
  5
353
  8
0
  6
CONTINUOUS
 62
     7
  0
LINE
  5
23D
  8
0
  6
CONTINUOUS
 62
     7
 10
-0.2636274445
 20
0.2346096394
 30
0.0
 11
-0.2628679419
 21
0.2069306971
 31
0.0
  0
POLYLINE
  5
242
  8
0
  6
CONTINUOUS
 62
     7
 66
     1
 10
0.0
 20
0.0
 30
0.0
  0
VERTEX
  5
354
  8
0
  6
CONTINUOUS
 62
     7
 10
-0.3073645895
 20
2.8782869022000002
 30
0.0
  0
VERTEX
  5
355
  8
0
  6
CONTINUOUS
 62
     7
 10
-0.3074654933
 20
2.8832914833999999
 30
0.0
  0
VERTEX
  5
356
  8
0
  6
CONTINUOUS
 62
     7
 10
-0.3074837988
 20
2.8888141371999998
 30
0.0
  0
VERTEX
  5
357
  8
0
  6
CONTINUOUS
 62
     7
 10
-0.3074081326
 20
2.8947881148999999
 30
0.0
  0
SEQEND
  5
358
  8
0
  6
CONTINUOUS
 62
     7
  0
POLYLINE
  5
243
  8
0
  6
CONTINUOUS
 62
     7
 66
     1
 10
0.0
 20
0.0
 30
0.0
  0
VERTEX
  5
359
  8
0
  6
CONTINUOUS
 62
     7
 10
-0.2648169931
 20
0.3125058056
 30
0.0
  0
VERTEX
  5
35A
  8
0
  6
CONTINUOUS
 62
     7
 10
-0.2645807902
 20
0.2873481275
 30
0.0
  0
VERTEX
  5
35B
  8
0
  6
CONTINUOUS
 62
     7
 10
-0.264191318
 20
0.2614122704000001
 30
0.0
  0
VERTEX
  5
35C
  8
0
  6
CONTINUOUS
 62
     7
 10
-0.2636274445
 20
0.2346096394
 30
0.0
  0
SEQEND
  5
35D
  8
0
  6
CONTINUOUS
 62
     7
  0
LINE
  5
244
  8
0
  6
CONTINUOUS
 62
     7
 10
-0.3069893763
 20
2.4398973032999991
 30
0.0
 11
-0.3070394626000001
 21
2.446230193299999
 31
0.0
  0
LINE
  5
245
  8
0
  6
CONTINUOUS
 62
     7
 10
-0.2648898749
 20
4.526831067399999
 30
0.0
 11
-0.2641156162
 21
4.4227399743999989
 31
0.0
  0
LINE
  5
246
  8
0
  6
CONTINUOUS
 62
     7
 10
-0.2649734646000001
 20
0.7613009357000001
 30
0.0
 11
-0.2640080696
 21
0.6060283627000001
 31
0.0
  0
POLYLINE
  5
247
  8
0
  6
CONTINUOUS
 62
     7
 66
     1
 10
0.0
 20
0.0
 30
0.0
  0
VERTEX
  5
35E
  8
0
  6
CONTINUOUS
 62
     7
 10
-0.3074712024
 20
2.001871745099999
 30
0.0
  0
VERTEX
  5
35F
  8
0
  6
CONTINUOUS
 62
     7
 10
-0.3074849423
 20
2.0066768389999989
 30
0.0
  0
VERTEX
  5
360
  8
0
  6
CONTINUOUS
 62
     7
 10
-0.3074367066
 20
2.0111077362000001
 30
0.0
  0
VERTEX
  5
361
  8
0
  6
CONTINUOUS
 62
     7
 10
-0.3073340849
 20
2.015153645199999
 30
0.0
  0
SEQEND
  5
362
  8
0
  6
CONTINUOUS
 62
     7
  0
LINE
  5
248
  8
0
  6
CONTINUOUS
 62
     7
 10
-0.2641156162
 20
4.4227399743999989
 30
0.0
 11
-0.2638642826
 21
4.366824059299999
 31
0.0
  0
LINE
  5
249
  8
0
  6
CONTINUOUS
 62
     7
 10
-0.2640080696
 20
0.6060283627000001
 30
0.0
 11
-0.26385896
 21
0.5650537225000001
 31
0.0
  0
LINE
  5
24A
  8
0
  6
CONTINUOUS
 62
     7
 10
-0.2649265965
 20
0.3453440212
 30
0.0
 11
-0.2648169931
 21
0.3125058056
 31
0.0
  0
LINE
  5
24B
  8
0
  6
CONTINUOUS
 62
     7
 10
-0.2638642826
 20
4.366824059299999
 30
0.0
 11
-0.26385896
 21
4.3274066622999987
 31
0.0
  0
LINE
  5
24C
  8
0
  6
CONTINUOUS
 62
     7
 10
-0.26385896
 20
0.5650537225000001
 30
0.0
 11
-0.2638642826
 21
0.5256363255000001
 31
0.0
  0
LINE
  5
24D
  8
0
  6
CONTINUOUS
 62
     7
 10
-0.2648898749
 20
0.3656293174
 30
0.0
 11
-0.2649265576
 21
0.3450172802
 31
0.0
  0
LINE
  5
24E
  8
0
  6
CONTINUOUS
 62
     7
 10
-0.2648900242
 20
4.1542801036999988
 30
0.0
 11
-0.2649734646000001
 21
0.7613009357000001
 31
0.0
  0
LINE
  5
24F
  8
0
  6
CONTINUOUS
 62
     7
 10
-0.26385896
 20
4.3274066622999987
 30
0.0
 11
-0.2641367428
 21
4.2651779403000001
 31
0.0
  0
LINE
  5
250
  8
0
  6
CONTINUOUS
 62
     7
 10
-0.2638642826
 20
0.5256363255000001
 30
0.0
 11
-0.2641156162
 21
0.4697204104
 31
0.0
  0
POLYLINE
  5
251
  8
0
  6
CONTINUOUS
 62
     7
 66
     1
 10
0.0
 20
0.0
 30
0.0
  0
VERTEX
  5
363
  8
0
  6
CONTINUOUS
 62
     7
 10
-0.3070394626000001
 20
2.446230193299999
 30
0.0
  0
VERTEX
  5
364
  8
0
  6
CONTINUOUS
 62
     7
 10
-0.3070029002
 20
2.4516448245000002
 30
0.0
  0
VERTEX
  5
365
  8
0
  6
CONTINUOUS
 62
     7
 10
-0.3068991494
 20
2.4567803835999991
 30
0.0
  0
SEQEND
  5
366
  8
0
  6
CONTINUOUS
 62
     7
  0
LINE
  5
252
  8
0
  6
CONTINUOUS
 62
     7
 10
-0.2641367428
 20
4.2651779403000001
 30
0.0
 11
-0.2648900242
 21
4.1542801036999988
 31
0.0
  0
LINE
  5
253
  8
0
  6
CONTINUOUS
 62
     7
 10
-0.2641156162
 20
0.4697204104
 30
0.0
 11
-0.2648898749
 21
0.3656293174
 31
0.0
  0
POLYLINE
  5
256
  8
0
  6
CONTINUOUS
 62
     7
 66
     1
 10
0.0
 20
0.0
 30
0.0
  0
VERTEX
  5
367
  8
0
  6
CONTINUOUS
 62
     7
 10
-0.3108235521
 20
1.5610237740999999
 30
0.0
  0
VERTEX
  5
368
  8
0
  6
CONTINUOUS
 62
     7
 10
-0.3107842436
 20
1.5636622592
 30
0.0
  0
VERTEX
  5
369
  8
0
  6
CONTINUOUS
 62
     7
 10
-0.310697758
 20
1.5660379433
 30
0.0
  0
VERTEX
  5
36A
  8
0
  6
CONTINUOUS
 62
     7
 10
-0.31056531
 20
1.5681760465000001
 30
0.0
  0
VERTEX
  5
36B
  8
0
  6
CONTINUOUS
 62
     7
 10
-0.3103790962000001
 20
1.5701705834999991
 30
0.0
  0
VERTEX
  5
36C
  8
0
  6
CONTINUOUS
 62
     7
 10
-0.3101267606
 20
1.5720586110000001
 30
0.0
  0
VERTEX
  5
36D
  8
0
  6
CONTINUOUS
 62
     7
 10
-0.3097924755
 20
1.5738580834999989
 30
0.0
  0
VERTEX
  5
36E
  8
0
  6
CONTINUOUS
 62
     7
 10
-0.3093314797
 20
1.5756716464
 30
0.0
  0
VERTEX
  5
36F
  8
0
  6
CONTINUOUS
 62
     7
 10
-0.3086749088
 20
1.5775705631000001
 30
0.0
  0
VERTEX
  5
370
  8
0
  6
CONTINUOUS
 62
     7
 10
-0.3077642811
 20
1.5795213422000001
 30
0.0
  0
VERTEX
  5
371
  8
0
  6
CONTINUOUS
 62
     7
 10
-0.306554348
 20
1.5814611068999991
 30
0.0
  0
VERTEX
  5
372
  8
0
  6
CONTINUOUS
 62
     7
 10
-0.304989442
 20
1.5833436764
 30
0.0
  0
VERTEX
  5
373
  8
0
  6
CONTINUOUS
 62
     7
 10
-0.3030298948
 20
1.585088826999999
 30
0.0
  0
VERTEX
  5
374
  8
0
  6
CONTINUOUS
 62
     7
 10
-0.3007132864
 20
1.5865622723999999
 30
0.0
  0
VERTEX
  5
375
  8
0
  6
CONTINUOUS
 62
     7
 10
-0.2980693209
 20
1.587669470999999
 30
0.0
  0
VERTEX
  5
376
  8
0
  6
CONTINUOUS
 62
     7
 10
-0.2975592981
 20
1.5878234870000001
 30
0.0
  0
SEQEND
  5
377
  8
0
  6
CONTINUOUS
 62
     7
  0
POLYLINE
  5
257
  8
0
  6
CONTINUOUS
 62
     7
 66
     1
 10
0.0
 20
0.0
 30
0.0
  0
VERTEX
  5
378
  8
0
  6
CONTINUOUS
 62
     7
 10
-0.2636274445
 20
4.6578507453999993
 30
0.0
  0
VERTEX
  5
379
  8
0
  6
CONTINUOUS
 62
     7
 10
-0.264191318
 20
4.6310481143999986
 30
0.0
  0
VERTEX
  5
37A
  8
0
  6
CONTINUOUS
 62
     7
 10
-0.2645807902
 20
4.6051122573000001
 30
0.0
  0
VERTEX
  5
37B
  8
0
  6
CONTINUOUS
 62
     7
 10
-0.2648169931
 20
4.5799545791999989
 30
0.0
  0
VERTEX
  5
37C
  8
0
  6
CONTINUOUS
 62
     7
 10
-0.264919098
 20
4.5555502152999994
 30
0.0
  0
VERTEX
  5
37D
  8
0
  6
CONTINUOUS
 62
     7
 10
-0.2648898749
 20
4.526831067399999
 30
0.0
  0
SEQEND
  5
37E
  8
0
  6
CONTINUOUS
 62
     7
  0
LINE
  5
258
  8
0
  6
CONTINUOUS
 62
     7
 10
-0.2628679419
 20
4.685529687699999
 30
0.0
 11
-0.2636274445
 21
4.6578507453999993
 31
0.0
  0
LINE
  5
259
  8
0
  6
CONTINUOUS
 62
     7
 10
-0.3074081326
 20
2.8947881148999999
 30
0.0
 11
-0.3072281529
 21
2.9011340364999998
 31
0.0
  0
POLYLINE
  5
25A
  8
0
  6
CONTINUOUS
 62
     7
 66
     1
 10
0.0
 20
0.0
 30
0.0
  0
VERTEX
  5
37F
  8
0
  6
CONTINUOUS
 62
     7
 10
-0.3068991494
 20
2.4567803835999991
 30
0.0
  0
VERTEX
  5
380
  8
0
  6
CONTINUOUS
 62
     7
 10
-0.3067371397
 20
2.4615851565999991
 30
0.0
  0
VERTEX
  5
381
  8
0
  6
CONTINUOUS
 62
     7
 10
-0.3065261296
 20
2.4660143953999998
 30
0.0
  0
VERTEX
  5
382
  8
0
  6
CONTINUOUS
 62
     7
 10
-0.3062741615
 20
2.4700574928000001
 30
0.0
  0
SEQEND
  5
383
  8
0
  6
CONTINUOUS
 62
     7
  0
LINE
  5
25B
  8
0
  6
CONTINUOUS
 62
     7
 10
-0.2618931574
 20
4.7140182723999988
 30
0.0
 11
-0.2628679419
 21
4.685529687699999
 31
0.0
  0
POLYLINE
  5
25C
  8
0
  6
CONTINUOUS
 62
     7
 66
     1
 10
0.0
 20
0.0
 30
0.0
  0
VERTEX
  5
384
  8
0
  6
CONTINUOUS
 62
     7
 10
-0.3073340849
 20
2.015153645199999
 30
0.0
  0
VERTEX
  5
385
  8
0
  6
CONTINUOUS
 62
     7
 10
-0.3071829503
 20
2.0188368135000001
 30
0.0
  0
VERTEX
  5
386
  8
0
  6
CONTINUOUS
 62
     7
 10
-0.3069890151
 20
2.022155291499999
 30
0.0
  0
SEQEND
  5
387
  8
0
  6
CONTINUOUS
 62
     7
  0
LINE
  5
25F
  8
0
  6
CONTINUOUS
 62
     7
 10
-0.2610947134
 20
4.7336737680000001
 30
0.0
 11
-0.2618931574
 21
4.7140182723999988
 31
0.0
  0
POLYLINE
  5
260
  8
0
  6
CONTINUOUS
 62
     7
 66
     1
 10
0.0
 20
0.0
 30
0.0
  0
VERTEX
  5
388
  8
0
  6
CONTINUOUS
 62
     7
 10
-0.3072281529
 20
2.9011340364999998
 30
0.0
  0
VERTEX
  5
389
  8
0
  6
CONTINUOUS
 62
     7
 10
-0.3069961063
 20
2.9065426308000002
 30
0.0
  0
VERTEX
  5
38A
  8
0
  6
CONTINUOUS
 62
     7
 10
-0.3067077919
 20
2.9116693891000001
 30
0.0
  0
SEQEND
  5
38B
  8
0
  6
CONTINUOUS
 62
     7
  0
LINE
  5
263
  8
0
  6
CONTINUOUS
 62
     7
 10
-0.2605455095
 20
4.7456747761999987
 30
0.0
 11
-0.2610947134
 21
4.7336737680000001
 31
0.0
  0
POLYLINE
  5
264
  8
0
  6
CONTINUOUS
 62
     7
 66
     1
 10
0.0
 20
0.0
 30
0.0
  0
VERTEX
  5
38C
  8
0
  6
CONTINUOUS
 62
     7
 10
-0.3105982316
 20
3.3418065193999991
 30
0.0
  0
VERTEX
  5
38D
  8
0
  6
CONTINUOUS
 62
     7
 10
-0.3103512218
 20
3.3465971023000001
 30
0.0
  0
VERTEX
  5
38E
  8
0
  6
CONTINUOUS
 62
     7
 10
-0.3100027909
 20
3.3518377851999999
 30
0.0
  0
VERTEX
  5
38F
  8
0
  6
CONTINUOUS
 62
     7
 10
-0.3095478408
 20
3.3574692866000002
 30
0.0
  0
SEQEND
  5
390
  8
0
  6
CONTINUOUS
 62
     7
  0
LINE
  5
265
  8
0
  6
CONTINUOUS
 62
     7
 10
-0.2601339729
 20
4.7538036707999991
 30
0.0
 11
-0.2605455095
 21
4.7456747761999987
 31
0.0
  0
LINE
  5
266
  8
0
  6
CONTINUOUS
 62
     7
 10
-0.2596768242
 20
4.762070722999999
 30
0.0
 11
-0.2601339729
 21
4.7538036707999991
 31
0.0
  0
LINE
  5
267
  8
0
  6
CONTINUOUS
 62
     7
 10
-0.2591655032
 20
4.7705166806999992
 30
0.0
 11
-0.2596768242
 21
4.762070722999999
 31
0.0
  0
POLYLINE
  5
268
  8
0
  6
CONTINUOUS
 62
     7
 66
     1
 10
0.0
 20
0.0
 30
0.0
  0
VERTEX
  5
391
  8
0
  6
CONTINUOUS
 62
     7
 10
-0.3067077919
 20
2.9116693891000001
 30
0.0
  0
VERTEX
  5
392
  8
0
  6
CONTINUOUS
 62
     7
 10
-0.3063739318
 20
2.9164628903000001
 30
0.0
  0
VERTEX
  5
393
  8
0
  6
CONTINUOUS
 62
     7
 10
-0.3060053249
 20
2.9208786922000001
 30
0.0
  0
SEQEND
  5
394
  8
0
  6
CONTINUOUS
 62
     7
  0
POLYLINE
  5
26B
  8
0
  6
CONTINUOUS
 62
     7
 66
     1
 10
0.0
 20
0.0
 30
0.0
  0
VERTEX
  5
395
  8
0
  6
CONTINUOUS
 62
     7
 10
-0.3069890151
 20
2.022155291499999
 30
0.0
  0
VERTEX
  5
396
  8
0
  6
CONTINUOUS
 62
     7
 10
-0.3067571159
 20
2.0251204606000002
 30
0.0
  0
VERTEX
  5
397
  8
0
  6
CONTINUOUS
 62
     7
 10
-0.306486014
 20
2.0277956222000002
 30
0.0
  0
VERTEX
  5
398
  8
0
  6
CONTINUOUS
 62
     7
 10
-0.3061758357
 20
2.0301948632000002
 30
0.0
  0
VERTEX
  5
399
  8
0
  6
CONTINUOUS
 62
     7
 10
-0.3058228034
 20
2.0323506294999989
 30
0.0
  0
VERTEX
  5
39A
  8
0
  6
CONTINUOUS
 62
     7
 10
-0.3053975128
 20
2.0343941228000002
 30
0.0
  0
VERTEX
  5
39B
  8
0
  6
CONTINUOUS
 62
     7
 10
-0.3048589911
 20
2.0364003270999991
 30
0.0
  0
VERTEX
  5
39C
  8
0
  6
CONTINUOUS
 62
     7
 10
-0.3041699509
 20
2.0383669322000002
 30
0.0
  0
VERTEX
  5
39D
  8
0
  6
CONTINUOUS
 62
     7
 10
-0.3032632775000001
 20
2.0403373661000002
 30
0.0
  0
VERTEX
  5
39E
  8
0
  6
CONTINUOUS
 62
     7
 10
-0.3020491457
 20
2.042335856799999
 30
0.0
  0
VERTEX
  5
39F
  8
0
  6
CONTINUOUS
 62
     7
 10
-0.3004572459
 20
2.044302991399999
 30
0.0
  0
VERTEX
  5
3A0
  8
0
  6
CONTINUOUS
 62
     7
 10
-0.2984624544
 20
2.0461217644
 30
0.0
  0
VERTEX
  5
3A1
  8
0
  6
CONTINUOUS
 62
     7
 10
-0.2960398317
 20
2.047687226899999
 30
0.0
  0
VERTEX
  5
3A2
  8
0
  6
CONTINUOUS
 62
     7
 10
-0.2932009625
 20
2.048869053899999
 30
0.0
  0
VERTEX
  5
3A3
  8
0
  6
CONTINUOUS
 62
     7
 10
-0.291773212
 20
2.0492439076000002
 30
0.0
  0
SEQEND
  5
3A4
  8
0
  6
CONTINUOUS
 62
     7
  0
POLYLINE
  5
26C
  8
0
  6
CONTINUOUS
 62
     7
 66
     1
 10
0.0
 20
0.0
 30
0.0
  0
VERTEX
  5
3A5
  8
0
  6
CONTINUOUS
 62
     7
 10
-0.3062741615
 20
2.4700574928000001
 30
0.0
  0
VERTEX
  5
3A6
  8
0
  6
CONTINUOUS
 62
     7
 10
-0.3059863388
 20
2.4737367572000002
 30
0.0
  0
VERTEX
  5
3A7
  8
0
  6
CONTINUOUS
 62
     7
 10
-0.3056684815
 20
2.4770504065000001
 30
0.0
  0
SEQEND
  5
3A8
  8
0
  6
CONTINUOUS
 62
     7
  0
LINE
  5
26D
  8
0
  6
CONTINUOUS
 62
     7
 10
-0.3095478408
 20
3.3574692866000002
 30
0.0
 11
-0.3089828046
 21
3.363421941099999
 31
0.0
  0
LINE
  5
26E
  8
0
  6
CONTINUOUS
 62
     7
 10
-0.3060053249
 20
2.9208786922000001
 30
0.0
 11
-0.3056103218
 21
2.9249065804000001
 31
0.0
  0
LINE
  5
26F
  8
0
  6
CONTINUOUS
 62
     7
 10
-0.3089828046
 20
3.363421941099999
 30
0.0
 11
-0.3084423601
 21
3.3684269912999998
 31
0.0
  0
POLYLINE
  5
274
  8
0
  6
CONTINUOUS
 62
     7
 66
     1
 10
0.0
 20
0.0
 30
0.0
  0
VERTEX
  5
3A9
  8
0
  6
CONTINUOUS
 62
     7
 10
-0.3056103218
 20
2.9249065804000001
 30
0.0
  0
VERTEX
  5
3AA
  8
0
  6
CONTINUOUS
 62
     7
 10
-0.3051931706
 20
2.9285691689000002
 30
0.0
  0
VERTEX
  5
3AB
  8
0
  6
CONTINUOUS
 62
     7
 10
-0.3047597098
 20
2.9318649266999999
 30
0.0
  0
SEQEND
  5
3AC
  8
0
  6
CONTINUOUS
 62
     7
  0
POLYLINE
  5
275
  8
0
  6
CONTINUOUS
 62
     7
 66
     1
 10
0.0
 20
0.0
 30
0.0
  0
VERTEX
  5
3AD
  8
0
  6
CONTINUOUS
 62
     7
 10
-0.3056684815
 20
2.4770504065000001
 30
0.0
  0
VERTEX
  5
3AE
  8
0
  6
CONTINUOUS
 62
     7
 10
-0.3053250303
 20
2.4800099776999991
 30
0.0
  0
VERTEX
  5
3AF
  8
0
  6
CONTINUOUS
 62
     7
 10
-0.3049523533
 20
2.4826788318999991
 30
0.0
  0
VERTEX
  5
3B0
  8
0
  6
CONTINUOUS
 62
     7
 10
-0.3045499492
 20
2.4850713137999998
 30
0.0
  0
VERTEX
  5
3B1
  8
0
  6
CONTINUOUS
 62
     7
 10
-0.3041127376
 20
2.4872195431000002
 30
0.0
  0
VERTEX
  5
3B2
  8
0
  6
CONTINUOUS
 62
     7
 10
-0.3036061311
 20
2.4892532964999998
 30
0.0
  0
VERTEX
  5
3B3
  8
0
  6
CONTINUOUS
 62
     7
 10
-0.3029856174
 20
2.4912466773999991
 30
0.0
  0
VERTEX
  5
3B4
  8
0
  6
CONTINUOUS
 62
     7
 10
-0.3022136688
 20
2.4931950247999999
 30
0.0
  0
VERTEX
  5
3B5
  8
0
  6
CONTINUOUS
 62
     7
 10
-0.3012223868
 20
2.4951360648000001
 30
0.0
  0
VERTEX
  5
3B6
  8
0
  6
CONTINUOUS
 62
     7
 10
-0.2999219859
 20
2.4970892092999999
 30
0.0
  0
VERTEX
  5
3B7
  8
0
  6
CONTINUOUS
 62
     7
 10
-0.2982451174
 20
2.4989926196000001
 30
0.0
  0
VERTEX
  5
3B8
  8
0
  6
CONTINUOUS
 62
     7
 10
-0.296172993
 20
2.5007280611999998
 30
0.0
  0
VERTEX
  5
3B9
  8
0
  6
CONTINUOUS
 62
     7
 10
-0.2936867331
 20
2.5021901567999998
 30
0.0
  0
VERTEX
  5
3BA
  8
0
  6
CONTINUOUS
 62
     7
 10
-0.290803732
 20
2.5032509895000001
 30
0.0
  0
VERTEX
  5
3BB
  8
0
  6
CONTINUOUS
 62
     7
 10
-0.2894514925
 20
2.503550244099999
 30
0.0
  0
SEQEND
  5
3BC
  8
0
  6
CONTINUOUS
 62
     7
  0
POLYLINE
  5
276
  8
0
  6
CONTINUOUS
 62
     7
 66
     1
 10
0.0
 20
0.0
 30
0.0
  0
VERTEX
  5
3BD
  8
0
  6
CONTINUOUS
 62
     7
 10
-0.3047597098
 20
2.9318649266999999
 30
0.0
  0
VERTEX
  5
3BE
  8
0
  6
CONTINUOUS
 62
     7
 10
-0.3043139403
 20
2.9348055549000001
 30
0.0
  0
VERTEX
  5
3BF
  8
0
  6
CONTINUOUS
 62
     7
 10
-0.3038500477
 20
2.9374540997
 30
0.0
  0
VERTEX
  5
3C0
  8
0
  6
CONTINUOUS
 62
     7
 10
-0.303367139
 20
2.9398246200999991
 30
0.0
  0
VERTEX
  5
3C1
  8
0
  6
CONTINUOUS
 62
     7
 10
-0.3028590996
 20
2.9419492039000001
 30
0.0
  0
VERTEX
  5
3C2
  8
0
  6
CONTINUOUS
 62
     7
 10
-0.3022871123
 20
2.9439565821999998
 30
0.0
  0
VERTEX
  5
3C3
  8
0
  6
CONTINUOUS
 62
     7
 10
-0.3016048876
 20
2.9459185788000002
 30
0.0
  0
VERTEX
  5
3C4
  8
0
  6
CONTINUOUS
 62
     7
 10
-0.300775403
 20
2.9478301926000001
 30
0.0
  0
VERTEX
  5
3C5
  8
0
  6
CONTINUOUS
 62
     7
 10
-0.2997285783
 20
2.9497298831999998
 30
0.0
  0
VERTEX
  5
3C6
  8
0
  6
CONTINUOUS
 62
     7
 10
-0.2983730712
 20
2.9516353180000001
 30
0.0
  0
VERTEX
  5
3C7
  8
0
  6
CONTINUOUS
 62
     7
 10
-0.2966430537
 20
2.9534821538999991
 30
0.0
  0
VERTEX
  5
3C8
  8
0
  6
CONTINUOUS
 62
     7
 10
-0.2945219311
 20
2.9551518745999998
 30
0.0
  0
VERTEX
  5
3C9
  8
0
  6
CONTINUOUS
 62
     7
 10
-0.2919924206
 20
2.9565380023999999
 30
0.0
  0
VERTEX
  5
3CA
  8
0
  6
CONTINUOUS
 62
     7
 10
-0.2890755032
 20
2.9575113915000002
 30
0.0
  0
VERTEX
  5
3CB
  8
0
  6
CONTINUOUS
 62
     7
 10
-0.2876243785
 20
2.9577819907
 30
0.0
  0
SEQEND
  5
3CC
  8
0
  6
CONTINUOUS
 62
     7
  0
LINE
  5
277
  8
0
  6
CONTINUOUS
 62
     7
 10
1.7264942921999999
 20
1.1571658005000001
 30
0.0
 11
2.3004747227999989
 21
1.2791691072999991
 31
0.0
  0
LINE
  5
278
  8
0
  6
CONTINUOUS
 62
     7
 10
0.7935660313
 20
1.068117927299999
 30
0.0
 11
1.1879503688999999
 21
1.129247499599999
 31
0.0
  0
POLYLINE
  5
279
  8
0
  6
CONTINUOUS
 62
     7
 66
     1
 10
0.0
 20
0.0
 30
0.0
  0
VERTEX
  5
3CD
  8
0
  6
CONTINUOUS
 62
     7
 10
1.1879528945999991
 20
1.1292413516999991
 30
0.0
  0
VERTEX
  5
3CE
  8
0
  6
CONTINUOUS
 62
     7
 10
1.1983007434999999
 20
1.1306612054
 30
0.0
  0
VERTEX
  5
3CF
  8
0
  6
CONTINUOUS
 62
     7
 10
1.2112054349000001
 20
1.1319212212
 30
0.0
  0
VERTEX
  5
3D0
  8
0
  6
CONTINUOUS
 62
     7
 10
1.2242342482999999
 20
1.1326249687000001
 30
0.0
  0
VERTEX
  5
3D1
  8
0
  6
CONTINUOUS
 62
     7
 10
1.2312758289000001
 20
1.1327691177999999
 30
0.0
  0
SEQEND
  5
3D2
  8
0
  6
CONTINUOUS
 62
     7
  0
LINE
  5
27A
  8
0
  6
CONTINUOUS
 62
     7
 10
1.52730918
 20
1.135351476899999
 30
0.0
 11
1.7264942921999999
 21
1.1571658005000001
 31
0.0
  0
POLYLINE
  5
27B
  8
0
  6
CONTINUOUS
 62
     7
 66
     1
 10
0.0
 20
0.0
 30
0.0
  0
VERTEX
  5
3D3
  8
0
  6
CONTINUOUS
 62
     7
 10
0.7528549398
 20
1.0646274722999991
 30
0.0
  0
VERTEX
  5
3D4
  8
0
  6
CONTINUOUS
 62
     7
 10
0.7766911819
 20
1.0659938160999991
 30
0.0
  0
VERTEX
  5
3D5
  8
0
  6
CONTINUOUS
 62
     7
 10
0.7935682811
 20
1.0681217618000001
 30
0.0
  0
SEQEND
  5
3D6
  8
0
  6
CONTINUOUS
 62
     7
  0
LINE
  5
27C
  8
0
  6
CONTINUOUS
 62
     7
 10
0.7528245495000001
 20
1.064626941899999
 30
0.0
 11
0.545
 21
1.0609993508999991
 31
0.0
  0
LINE
  5
27D
  8
0
  6
CONTINUOUS
 62
     7
 10
1.2331993077000001
 20
1.1327848190000001
 30
0.0
 11
1.52730918
 21
1.135351476899999
 31
0.0
  0
POLYLINE
  5
27E
  8
0
  6
CONTINUOUS
 62
     7
 66
     1
 10
0.0
 20
0.0
 30
0.0
  0
VERTEX
  5
3D7
  8
0
  6
CONTINUOUS
 62
     7
 10
0.0019057939
 20
0.0599351841
 30
0.0
  0
VERTEX
  5
3D8
  8
0
  6
CONTINUOUS
 62
     7
 10
0.0017965535
 20
0.06625399
 30
0.0
  0
VERTEX
  5
3D9
  8
0
  6
CONTINUOUS
 62
     7
 10
0.0016283343
 20
0.0729939908
 30
0.0
  0
VERTEX
  5
3DA
  8
0
  6
CONTINUOUS
 62
     7
 10
0.0013959799
 20
0.0799512662
 30
0.0
  0
SEQEND
  5
3DB
  8
0
  6
CONTINUOUS
 62
     7
  0
POLYLINE
  5
27F
  8
0
  6
CONTINUOUS
 62
     7
 66
     1
 10
0.0
 20
0.0
 30
0.0
  0
VERTEX
  5
3DC
  8
0
  6
CONTINUOUS
 62
     7
 10
0.0019057939
 20
4.8325252006999992
 30
0.0
  0
VERTEX
  5
3DD
  8
0
  6
CONTINUOUS
 62
     7
 10
0.0017965535
 20
4.8262063948999989
 30
0.0
  0
VERTEX
  5
3DE
  8
0
  6
CONTINUOUS
 62
     7
 10
0.0016283343
 20
4.8194663939999991
 30
0.0
  0
VERTEX
  5
3DF
  8
0
  6
CONTINUOUS
 62
     7
 10
0.0013959799
 20
4.8125091185999986
 30
0.0
  0
SEQEND
  5
3E0
  8
0
  6
CONTINUOUS
 62
     7
  0
POLYLINE
  5
281
  8
0
  6
CONTINUOUS
 62
     7
 66
     1
 10
0.0
 20
0.0
 30
0.0
  0
VERTEX
  5
3E1
  8
0
  6
CONTINUOUS
 62
     7
 10
-0.2859261480000001
 20
1.4737710329999989
 30
0.0
  0
VERTEX
  5
3E2
  8
0
  6
CONTINUOUS
 62
     7
 10
-0.2888671914
 20
1.4742593000999991
 30
0.0
  0
VERTEX
  5
3E3
  8
0
  6
CONTINUOUS
 62
     7
 10
-0.2919491103
 20
1.4754000186999989
 30
0.0
  0
VERTEX
  5
3E4
  8
0
  6
CONTINUOUS
 62
     7
 10
-0.2946320819
 20
1.477034506799999
 30
0.0
  0
VERTEX
  5
3E5
  8
0
  6
CONTINUOUS
 62
     7
 10
-0.2968979459
 20
1.479056660199999
 30
0.0
  0
VERTEX
  5
3E6
  8
0
  6
CONTINUOUS
 62
     7
 10
-0.2987514741
 20
1.4813747466999989
 30
0.0
  0
VERTEX
  5
3E7
  8
0
  6
CONTINUOUS
 62
     7
 10
-0.3001229224
 20
1.4837077396999989
 30
0.0
  0
VERTEX
  5
3E8
  8
0
  6
CONTINUOUS
 62
     7
 10
-0.301104977
 20
1.485874830999999
 30
0.0
  0
VERTEX
  5
3E9
  8
0
  6
CONTINUOUS
 62
     7
 10
-0.3019038493
 20
1.4880453109
 30
0.0
  0
VERTEX
  5
3EA
  8
0
  6
CONTINUOUS
 62
     7
 10
-0.3026451895
 20
1.4904403353
 30
0.0
  0
VERTEX
  5
3EB
  8
0
  6
CONTINUOUS
 62
     7
 10
-0.3033558883
 20
1.4931038468999991
 30
0.0
  0
VERTEX
  5
3EC
  8
0
  6
CONTINUOUS
 62
     7
 10
-0.3040510153
 20
1.496064996499999
 30
0.0
  0
VERTEX
  5
3ED
  8
0
  6
CONTINUOUS
 62
     7
 10
-0.304758478
 20
1.4994469369000001
 30
0.0
  0
VERTEX
  5
3EE
  8
0
  6
CONTINUOUS
 62
     7
 10
-0.3054773389
 20
1.5032742841
 30
0.0
  0
VERTEX
  5
3EF
  8
0
  6
CONTINUOUS
 62
     7
 10
-0.3062003418
 20
1.507542074499999
 30
0.0
  0
SEQEND
  5
3F0
  8
0
  6
CONTINUOUS
 62
     7
  0
LINE
  5
283
  8
0
  6
CONTINUOUS
 62
     7
 10
0.0018241896
 20
4.849434605099999
 30
0.0
 11
0.00116569
 21
4.863416182099999
 31
0.0
  0
POLYLINE
  5
284
  8
0
  6
CONTINUOUS
 62
     7
 66
     1
 10
0.0
 20
0.0
 30
0.0
  0
VERTEX
  5
3F1
  8
0
  6
CONTINUOUS
 62
     7
 10
0.0018301461
 20
4.8494348966
 30
0.0
  0
VERTEX
  5
3F2
  8
0
  6
CONTINUOUS
 62
     7
 10
0.0019057941
 20
4.8471445604999994
 30
0.0
  0
VERTEX
  5
3F3
  8
0
  6
CONTINUOUS
 62
     7
 10
0.0019595624
 20
4.8431522199999986
 30
0.0
  0
SEQEND
  5
3F4
  8
0
  6
CONTINUOUS
 62
     7
  0
LINE
  5
285
  8
0
  6
CONTINUOUS
 62
     7
 10
0.0019595623
 20
0.054229783
 30
0.0
 11
0.0019057939
 21
0.0599351841
 31
0.0
  0
LINE
  5
286
  8
0
  6
CONTINUOUS
 62
     7
 10
0.0013959799
 20
0.0799512662
 30
0.0
 11
0.0013959799
 21
4.8125091185999986
 31
0.0
  0
LINE
  5
287
  8
0
  6
CONTINUOUS
 62
     7
 10
0.0019595624
 20
4.8431522199999986
 30
0.0
 11
0.0019595623
 21
4.8382306017999994
 31
0.0
  0
LINE
  5
288
  8
0
  6
CONTINUOUS
 62
     7
 10
0.0019595624
 20
0.0493081648
 30
0.0
 11
0.0019595623
 21
0.054229783
 31
0.0
  0
LINE
  5
289
  8
0
  6
CONTINUOUS
 62
     7
 10
0.0
 20
0.0
 30
0.0
 11
0.0000000027
 21
4.8924603847999988
 31
0.0
  0
LINE
  5
28A
  8
0
  6
CONTINUOUS
 62
     7
 10
0.0019595623
 20
4.8382306017999994
 30
0.0
 11
0.0019057939
 21
4.8325252006999992
 31
0.0
  0
POLYLINE
  5
28B
  8
0
  6
CONTINUOUS
 62
     7
 66
     1
 10
0.0
 20
0.0
 30
0.0
  0
VERTEX
  5
3F5
  8
0
  6
CONTINUOUS
 62
     7
 10
0.0018300604
 20
0.0430236242
 30
0.0
  0
VERTEX
  5
3F6
  8
0
  6
CONTINUOUS
 62
     7
 10
0.0019057941
 20
0.0453158243
 30
0.0
  0
VERTEX
  5
3F7
  8
0
  6
CONTINUOUS
 62
     7
 10
0.0019595624
 20
0.0493081648
 30
0.0
  0
SEQEND
  5
3F8
  8
0
  6
CONTINUOUS
 62
     7
  0
LINE
  5
28C
  8
0
  6
CONTINUOUS
 62
     7
 10
0.0011938387
 20
0.029670255
 30
0.0
 11
0.0015324771
 21
0.0369965664
 31
0.0
  0
LINE
  5
28D
  8
0
  6
CONTINUOUS
 62
     7
 10
0.0016759578
 20
0.039962087
 30
0.0
 11
0.0018240982
 21
0.0430239159
 31
0.0
  0
LINE
  5
28F
  8
0
  6
CONTINUOUS
 62
     7
 10
-0.2859251962
 20
1.4737709617000001
 30
0.0
 11
-0.265
 21
1.472224313499999
 31
0.0
  0
POLYLINE
  5
291
  8
0
  6
CONTINUOUS
 62
     7
 66
     1
 10
0.0
 20
0.0
 30
0.0
  0
VERTEX
  5
3F9
  8
0
  6
CONTINUOUS
 62
     7
 10
-0.3052019273
 20
1.5830880581999991
 30
0.0
  0
VERTEX
  5
3FA
  8
0
  6
CONTINUOUS
 62
     7
 10
-0.3048148093
 20
1.583781427099999
 30
0.0
  0
VERTEX
  5
3FB
  8
0
  6
CONTINUOUS
 62
     7
 10
-0.303706867
 20
1.585319592399999
 30
0.0
  0
VERTEX
  5
3FC
  8
0
  6
CONTINUOUS
 62
     7
 10
-0.3024345545
 20
1.5867093849999989
 30
0.0
  0
VERTEX
  5
3FD
  8
0
  6
CONTINUOUS
 62
     7
 10
-0.3009579588
 20
1.5879798621000001
 30
0.0
  0
VERTEX
  5
3FE
  8
0
  6
CONTINUOUS
 62
     7
 10
-0.2992110551
 20
1.589136290099999
 30
0.0
  0
VERTEX
  5
3FF
  8
0
  6
CONTINUOUS
 62
     7
 10
-0.2971534511
 20
1.5901262301000001
 30
0.0
  0
SEQEND
  5
400
  8
0
  6
CONTINUOUS
 62
     7
  0
POLYLINE
  5
298
  8
0
  6
CONTINUOUS
 62
     7
 66
     1
 10
0.0
 20
0.0
 30
0.0
  0
VERTEX
  5
401
  8
0
  6
CONTINUOUS
 62
     7
 10
-0.2876147793
 20
1.9346770512999989
 30
0.0
  0
VERTEX
  5
402
  8
0
  6
CONTINUOUS
 62
     7
 10
-0.290399346
 20
1.9353164331999999
 30
0.0
  0
VERTEX
  5
403
  8
0
  6
CONTINUOUS
 62
     7
 10
-0.2935294466
 20
1.936696326799999
 30
0.0
  0
VERTEX
  5
404
  8
0
  6
CONTINUOUS
 62
     7
 10
-0.2962771658
 20
1.9386501191000001
 30
0.0
  0
VERTEX
  5
405
  8
0
  6
CONTINUOUS
 62
     7
 10
-0.298558637
 20
1.9410578609999991
 30
0.0
  0
VERTEX
  5
406
  8
0
  6
CONTINUOUS
 62
     7
 10
-0.3002169777
 20
1.9435588971999991
 30
0.0
  0
VERTEX
  5
407
  8
0
  6
CONTINUOUS
 62
     7
 10
-0.3013596109
 20
1.9459294262
 30
0.0
  0
VERTEX
  5
408
  8
0
  6
CONTINUOUS
 62
     7
 10
-0.3022257388
 20
1.9483101873999999
 30
0.0
  0
VERTEX
  5
409
  8
0
  6
CONTINUOUS
 62
     7
 10
-0.3029493518000001
 20
1.9508632246999991
 30
0.0
  0
VERTEX
  5
40A
  8
0
  6
CONTINUOUS
 62
     7
 10
-0.303574625
 20
1.953610150699999
 30
0.0
  0
VERTEX
  5
40B
  8
0
  6
CONTINUOUS
 62
     7
 10
-0.304143307
 20
1.9566350497
 30
0.0
  0
VERTEX
  5
40C
  8
0
  6
CONTINUOUS
 62
     7
 10
-0.3046908242000001
 20
1.960113215499999
 30
0.0
  0
VERTEX
  5
40D
  8
0
  6
CONTINUOUS
 62
     7
 10
-0.3052160555
 20
1.9640788137
 30
0.0
  0
VERTEX
  5
40E
  8
0
  6
CONTINUOUS
 62
     7
 10
-0.305711644
 20
1.9685291931
 30
0.0
  0
SEQEND
  5
40F
  8
0
  6
CONTINUOUS
 62
     7
  0
LINE
  5
2A1
  8
0
  6
CONTINUOUS
 62
     7
 10
-0.2876198984
 20
1.9346777500000001
 30
0.0
 11
-0.265
 21
1.9315052974
 31
0.0
  0
LINE
  5
2A3
  8
0
  6
CONTINUOUS
 62
     7
 10
0.545
 20
0.8680893212
 30
0.0
 11
0.545
 21
4.0243710636000003
 31
0.0
  0
LINE
  5
2A9
  8
0
  6
CONTINUOUS
 62
     7
 10
-0.2975598269000001
 20
1.5878233368000001
 30
0.0
 11
-0.265
 21
1.5970838503999989
 31
0.0
  0
POLYLINE
  5
2AA
  8
0
  6
CONTINUOUS
 62
     7
 66
     1
 10
0.0
 20
0.0
 30
0.0
  0
VERTEX
  5
410
  8
0
  6
CONTINUOUS
 62
     7
 10
-0.2894421023
 20
2.3889084756000001
 30
0.0
  0
VERTEX
  5
411
  8
0
  6
CONTINUOUS
 62
     7
 10
-0.2922639923
 20
2.3896709069000002
 30
0.0
  0
VERTEX
  5
412
  8
0
  6
CONTINUOUS
 62
     7
 10
-0.295329116
 20
2.3911703465
 30
0.0
  0
VERTEX
  5
413
  8
0
  6
CONTINUOUS
 62
     7
 10
-0.297991835
 20
2.3932244867999999
 30
0.0
  0
VERTEX
  5
414
  8
0
  6
CONTINUOUS
 62
     7
 10
-0.3001748718
 20
2.3957116149000002
 30
0.0
  0
VERTEX
  5
415
  8
0
  6
CONTINUOUS
 62
     7
 10
-0.3017369268
 20
2.3982690497000001
 30
0.0
  0
VERTEX
  5
416
  8
0
  6
CONTINUOUS
 62
     7
 10
-0.3027923977
 20
2.400678942499999
 30
0.0
  0
VERTEX
  5
417
  8
0
  6
CONTINUOUS
 62
     7
 10
-0.3035734617
 20
2.4030904660000001
 30
0.0
  0
VERTEX
  5
418
  8
0
  6
CONTINUOUS
 62
     7
 10
-0.3042073111
 20
2.4056709238999998
 30
0.0
  0
VERTEX
  5
419
  8
0
  6
CONTINUOUS
 62
     7
 10
-0.3047365783
 20
2.4084439283000001
 30
0.0
  0
VERTEX
  5
41A
  8
0
  6
CONTINUOUS
 62
     7
 10
-0.3051991211
 20
2.4114928711000001
 30
0.0
  0
VERTEX
  5
41B
  8
0
  6
CONTINUOUS
 62
     7
 10
-0.3056237012
 20
2.4149917080000001
 30
0.0
  0
VERTEX
  5
41C
  8
0
  6
CONTINUOUS
 62
     7
 10
-0.3060079304
 20
2.4189740656000001
 30
0.0
  0
VERTEX
  5
41D
  8
0
  6
CONTINUOUS
 62
     7
 10
-0.3063445374
 20
2.4234370097000002
 30
0.0
  0
SEQEND
  5
41E
  8
0
  6
CONTINUOUS
 62
     7
  0
POLYLINE
  5
2AE
  8
0
  6
CONTINUOUS
 62
     7
 66
     1
 10
0.0
 20
0.0
 30
0.0
  0
VERTEX
  5
41F
  8
0
  6
CONTINUOUS
 62
     7
 10
-0.2946091819
 20
2.048282809299999
 30
0.0
  0
VERTEX
  5
420
  8
0
  6
CONTINUOUS
 62
     7
 10
-0.2926591376
 20
2.0491895580000001
 30
0.0
  0
VERTEX
  5
421
  8
0
  6
CONTINUOUS
 62
     7
 10
-0.2904494637
 20
2.049851987499999
 30
0.0
  0
SEQEND
  5
422
  8
0
  6
CONTINUOUS
 62
     7
  0
LINE
  5
2B0
  8
0
  6
CONTINUOUS
 62
     7
 10
-0.2894469206
 20
2.3889093134000001
 30
0.0
 11
-0.265
 21
2.3845727092999991
 31
0.0
  0
LINE
  5
2B2
  8
0
  6
CONTINUOUS
 62
     7
 10
-0.2904491164
 20
2.0498520658000001
 30
0.0
 11
-0.265
 21
2.0555292287000002
 31
0.0
  0
LINE
  5
2B3
  8
0
  6
CONTINUOUS
 62
     7
 10
-0.2917687939
 20
2.0492448733000002
 30
0.0
 11
-0.265
 21
2.0549990749
 31
0.0
  0
POLYLINE
  5
2B6
  8
0
  6
CONTINUOUS
 62
     7
 66
     1
 10
0.0
 20
0.0
 30
0.0
  0
VERTEX
  5
423
  8
0
  6
CONTINUOUS
 62
     7
 10
-0.2917637351
 20
2.8432144434999991
 30
0.0
  0
VERTEX
  5
424
  8
0
  6
CONTINUOUS
 62
     7
 10
-0.2944947598
 20
2.8440535649999998
 30
0.0
  0
VERTEX
  5
425
  8
0
  6
CONTINUOUS
 62
     7
 10
-0.2975168503
 20
2.845656251799999
 30
0.0
  0
VERTEX
  5
426
  8
0
  6
CONTINUOUS
 62
     7
 10
-0.3001160495000001
 20
2.8478036754999998
 30
0.0
  0
VERTEX
  5
427
  8
0
  6
CONTINUOUS
 62
     7
 10
-0.3022173869
 20
2.850370134799999
 30
0.0
  0
VERTEX
  5
428
  8
0
  6
CONTINUOUS
 62
     7
 10
-0.3036904777
 20
2.8529845715
 30
0.0
  0
VERTEX
  5
429
  8
0
  6
CONTINUOUS
 62
     7
 10
-0.3046586518
 20
2.8554315405000001
 30
0.0
  0
VERTEX
  5
42A
  8
0
  6
CONTINUOUS
 62
     7
 10
-0.3053503047
 20
2.8578687145999999
 30
0.0
  0
VERTEX
  5
42B
  8
0
  6
CONTINUOUS
 62
     7
 10
-0.305887355
 20
2.8604674050999992
 30
0.0
  0
VERTEX
  5
42C
  8
0
  6
CONTINUOUS
 62
     7
 10
-0.3063122985
 20
2.8632523632999991
 30
0.0
  0
VERTEX
  5
42D
  8
0
  6
CONTINUOUS
 62
     7
 10
-0.3066606927
 20
2.8663104729
 30
0.0
  0
VERTEX
  5
42E
  8
0
  6
CONTINUOUS
 62
     7
 10
-0.3069551917
 20
2.8698191311999999
 30
0.0
  0
VERTEX
  5
42F
  8
0
  6
CONTINUOUS
 62
     7
 10
-0.3071922058
 20
2.8738123331000001
 30
0.0
  0
VERTEX
  5
430
  8
0
  6
CONTINUOUS
 62
     7
 10
-0.3073645895
 20
2.8782869022000002
 30
0.0
  0
SEQEND
  5
431
  8
0
  6
CONTINUOUS
 62
     7
  0
LINE
  5
2BA
  8
0
  6
CONTINUOUS
 62
     7
 10
-0.2917687897
 20
2.8432155105999999
 30
0.0
 11
-0.265
 21
2.8374613100000001
 31
0.0
  0
LINE
  5
2BC
  8
0
  6
CONTINUOUS
 62
     7
 10
-0.2971534511
 20
1.5901262301000001
 30
0.0
 11
-0.2956957733
 21
1.5906243929999999
 31
0.0
  0
LINE
  5
2BD
  8
0
  6
CONTINUOUS
 62
     7
 10
-0.289446925
 20
2.503551070699999
 30
0.0
 11
-0.265
 21
2.5078876755000001
 31
0.0
  0
POLYLINE
  5
2BE
  8
0
  6
CONTINUOUS
 62
     7
 66
     1
 10
0.0
 20
0.0
 30
0.0
  0
VERTEX
  5
432
  8
0
  6
CONTINUOUS
 62
     7
 10
-0.2975607449
 20
3.3046373099999991
 30
0.0
  0
VERTEX
  5
433
  8
0
  6
CONTINUOUS
 62
     7
 10
-0.3003426164
 20
3.3057093791000001
 30
0.0
  0
VERTEX
  5
434
  8
0
  6
CONTINUOUS
 62
     7
 10
-0.3031307177
 20
3.3074489059999999
 30
0.0
  0
VERTEX
  5
435
  8
0
  6
CONTINUOUS
 62
     7
 10
-0.3054283867
 20
3.3095914758
 30
0.0
  0
VERTEX
  5
436
  8
0
  6
CONTINUOUS
 62
     7
 10
-0.3072392619
 20
3.3120295027000002
 30
0.0
  0
VERTEX
  5
437
  8
0
  6
CONTINUOUS
 62
     7
 10
-0.3085865395
 20
3.3146741075000001
 30
0.0
  0
VERTEX
  5
438
  8
0
  6
CONTINUOUS
 62
     7
 10
-0.3094586573
 20
3.3172359696
 30
0.0
  0
VERTEX
  5
439
  8
0
  6
CONTINUOUS
 62
     7
 10
-0.3099829013
 20
3.3195567204
 30
0.0
  0
VERTEX
  5
43A
  8
0
  6
CONTINUOUS
 62
     7
 10
-0.310327052
 20
3.3218438015
 30
0.0
  0
VERTEX
  5
43B
  8
0
  6
CONTINUOUS
 62
     7
 10
-0.3105695154
 20
3.324339184999999
 30
0.0
  0
VERTEX
  5
43C
  8
0
  6
CONTINUOUS
 62
     7
 10
-0.3107277551
 20
3.3270913381999998
 30
0.0
  0
VERTEX
  5
43D
  8
0
  6
CONTINUOUS
 62
     7
 10
-0.3108106444
 20
3.3301318541999998
 30
0.0
  0
VERTEX
  5
43E
  8
0
  6
CONTINUOUS
 62
     7
 10
-0.3108206487
 20
3.3335869844000001
 30
0.0
  0
VERTEX
  5
43F
  8
0
  6
CONTINUOUS
 62
     7
 10
-0.3107518792
 20
3.3374806483000001
 30
0.0
  0
VERTEX
  5
440
  8
0
  6
CONTINUOUS
 62
     7
 10
-0.3105982316
 20
3.3418065193999991
 30
0.0
  0
SEQEND
  5
441
  8
0
  6
CONTINUOUS
 62
     7
  0
LINE
  5
2BF
  8
0
  6
CONTINUOUS
 62
     7
 10
-0.2954969113
 20
1.5909657276999991
 30
0.0
 11
-0.265
 21
1.5998119305
 31
0.0
  0
LINE
  5
2C0
  8
0
  6
CONTINUOUS
 62
     7
 10
-0.2956956241
 20
1.5906244365
 30
0.0
 11
-0.265
 21
1.5994945579999991
 31
0.0
  0
LINE
  5
2C1
  8
0
  6
CONTINUOUS
 62
     7
 10
-0.2975598233
 20
3.3046370469999991
 30
0.0
 11
-0.265
 21
3.2953765343999999
 31
0.0
  0
LINE
  5
2C5
  8
0
  6
CONTINUOUS
 62
     7
 10
-0.2876199028
 20
2.9577826341999991
 30
0.0
 11
-0.265
 21
2.960955087399999
 31
0.0
  0
LINE
  5
2CD
  8
0
  6
CONTINUOUS
 62
     7
 10
-0.2859252004
 20
3.4186894227999991
 30
0.0
 11
-0.265
 21
3.4202360713000002
 31
0.0
  0
LINE
  5
2CE
  8
0
  6
CONTINUOUS
 62
     7
 10
2.347999999999999
 20
3.5511856843
 30
0.0
 11
2.347999999999999
 21
1.337857958799999
 31
0.0
  0
LINE
  5
2D1
  8
0
  6
CONTINUOUS
 62
     7
 10
1.2330676074999991
 20
3.759676715199999
 30
0.0
 11
1.5273091689
 21
3.7571089080000002
 31
0.0
  0
POLYLINE
  5
2D2
  8
0
  6
CONTINUOUS
 62
     7
 66
     1
 10
0.0
 20
0.0
 30
0.0
  0
VERTEX
  5
442
  8
0
  6
CONTINUOUS
 62
     7
 10
1.2312347249999991
 20
3.7596925616000001
 30
0.0
  0
VERTEX
  5
443
  8
0
  6
CONTINUOUS
 62
     7
 10
1.2185113979999991
 20
3.7600736645000001
 30
0.0
  0
VERTEX
  5
444
  8
0
  6
CONTINUOUS
 62
     7
 10
1.1879031169000001
 20
3.7632210784999991
 30
0.0
  0
SEQEND
  5
445
  8
0
  6
CONTINUOUS
 62
     7
  0
POLYLINE
  5
2D3
  8
0
  6
CONTINUOUS
 62
     7
 66
     1
 10
0.0
 20
0.0
 30
0.0
  0
VERTEX
  5
446
  8
0
  6
CONTINUOUS
 62
     7
 10
0.7935682812
 20
3.824338623
 30
0.0
  0
VERTEX
  5
447
  8
0
  6
CONTINUOUS
 62
     7
 10
0.776691182
 20
3.826466568699999
 30
0.0
  0
VERTEX
  5
448
  8
0
  6
CONTINUOUS
 62
     7
 10
0.7528549399
 20
3.827832912499999
 30
0.0
  0
SEQEND
  5
449
  8
0
  6
CONTINUOUS
 62
     7
  0
LINE
  5
2D4
  8
0
  6
CONTINUOUS
 62
     7
 10
1.1879026920999991
 20
3.7632202751000001
 30
0.0
 11
0.7935660314
 21
3.8243424574999998
 31
0.0
  0
LINE
  5
2D5
  8
0
  6
CONTINUOUS
 62
     7
 10
0.7528245497999999
 20
3.8278334429999998
 30
0.0
 11
0.545
 21
3.8314610340000002
 31
0.0
  0
LINE
  5
2D6
  8
0
  6
CONTINUOUS
 62
     7
 10
1.5273091689
 20
3.7571089080000002
 30
0.0
 11
1.7264942904999989
 21
3.7352945847000001
 31
0.0
  0
LINE
  5
2D7
  8
0
  6
CONTINUOUS
 62
     7
 10
1.7264942904999989
 20
3.7352945847000001
 30
0.0
 11
2.3004747153
 21
3.6132912790999998
 31
0.0
  0
LINE
  5
2D8
  8
0
  6
CONTINUOUS
 62
     7
 10
0.3915098181999999
 20
4.1889691318999986
 30
0.0
 11
0.0013959799
 21
4.2162485489000003
 31
0.0
  0
LINE
  5
2D9
  8
0
  6
CONTINUOUS
 62
     7
 10
0.0
 20
4.8125091185999986
 30
0.0
 11
0.0013959799
 21
4.8125091185999986
 31
0.0
  0
LINE
  5
2DA
  8
0
  6
CONTINUOUS
 62
     7
 10
-0.1777376196
 20
4.8862536502999987
 30
0.0
 11
0.0
 21
4.8924603847999988
 31
0.0
  0
LINE
  5
2DB
  8
0
  6
CONTINUOUS
 62
     7
 10
-0.1790072025
 20
4.8862093154999986
 30
0.0
 11
-0.178876838
 21
4.8862138679999987
 31
0.0
  0
ARC
  5
2DD
  8
0
  6
CONTINUOUS
 62
     7
 10
-0.2910394626
 20
1.5755991681999999
 30
0.0
 40
0.016
 50
106.1761020937
 51
151.47854004210001
  0
ARC
  5
2DE
  8
0
  6
CONTINUOUS
 62
     7
 10
3.7099999999999991
 20
4.5387301924000001
 30
0.0
 40
3.9750000000000001
 50
179.6060690676
 51
180.6434463855
  0
ARC
  5
2DF
  8
0
  6
CONTINUOUS
 62
     7
 10
-0.1762152684
 20
0.0862023363
 30
0.0
 40
0.08
 50
184.92605768589999
 51
267.99999999959999
  0
ARC
  5
2E0
  8
0
  6
CONTINUOUS
 62
     7
 10
-0.1762152684
 20
4.8062580484999993
 30
0.0
 40
0.08
 50
92.000000000399993
 51
175.0739422995
  0
ARC
  5
2E1
  8
0
  6
CONTINUOUS
 62
     7
 10
3.7099999999999991
 20
0.3537301924
 30
0.0
 40
3.9750000000000001
 50
179.3565536145
 51
180.3939309324
  0
ARC
  5
2E2
  8
0
  6
CONTINUOUS
 62
     7
 10
-0.1760854097
 20
4.8062625831999988
 30
0.0
 40
0.08
 50
91.999997291300005
 51
175.6623094828
  0
ARC
  5
2E3
  8
0
  6
CONTINUOUS
 62
     7
 10
0.38
 20
4.0243710636000003
 30
0.0
 40
0.165
 50
0.0
 51
86.0
  0
ARC
  5
2E4
  8
0
  6
CONTINUOUS
 62
     7
 10
0.38
 20
0.8680893212
 30
0.0
 40
0.165
 50
274.0
 51
0.0
  0
ARC
  5
2E5
  8
0
  6
CONTINUOUS
 62
     7
 10
-0.1760854097
 20
0.0861978016
 30
0.0
 40
0.08
 50
184.3376905172
 51
268.00000270869998
  0
ARC
  5
2E6
  8
0
  6
CONTINUOUS
 62
     7
 10
2.2879999999999989
 20
3.5546024260000002
 30
0.0
 40
0.06
 50
0.0
 51
77.999986488000005
  0
ARC
  5
2E7
  8
0
  6
CONTINUOUS
 62
     7
 10
2.2879999999999989
 20
1.337857958799999
 30
0.0
 40
0.06
 50
282.00002085969999
 51
0.0
  0
ATTDEF
  5
2EE
  8
0
 10
0.0
 20
0.0
 30
0.0
 40
0.001
  1
K-8003
 41
0.8
  3

  2
MODELNUMBER
 70
     8
  0
ATTDEF
  5
2EF
  8
0
 10
0.0
 20
-0.0016666666666667
 30
0.0
 40
0.001
  1
WATERTIEL
 41
0.8
  3

  2
TRADENAME
 70
     8
  0
ATTDEF
  5
2F0
  8
0
 10
0.0
 20
-0.0033333333333333
 30
0.0
 40
0.001
  1
BODYSPRAY
 41
0.8
  3

  2
PRODUCT
 70
     8
  0
ATTDEF
  5
2F1
  8
0
 10
0.0
 20
-0.005
 30
0.0
 40
0.001
  1
BRASS
 41
0.8
  3

  2
MATERIAL
 70
     8
  0
ENDSEC
  0
EOF
