  0
SECTION
  2
HEADER
  9
$ACADVER
  1
AC1009
  9
$INSBASE
 10
0.0
 20
0.0
 30
0.0
  9
$EXTMIN
 10
-0.0876611731455076
 20
-0.0549057691
 30
0.0
  9
$EXTMAX
 10
4.8214651329428877
 20
2.6143113733789591
 30
0.0
  9
$LIMMIN
 10
0.0
 20
0.0
  9
$LIMMAX
 10
4.9000000000000004
 20
2.6800000000000002
  9
$ORTHOMODE
 70
     0
  9
$REGENMODE
 70
     1
  9
$FILLMODE
 70
     1
  9
$QTEXTMODE
 70
     0
  9
$MIRRTEXT
 70
     1
  9
$DRAGMODE
 70
     2
  9
$LTSCALE
 40
0.2695
  9
$OSMODE
 70
    37
  9
$ATTMODE
 70
     1
  9
$TEXTSIZE
 40
0.001
  9
$TRACEWID
 40
0.05
  9
$TEXTSTYLE
  7
STANDARD
  9
$CLAYER
  8
0
  9
$CELTYPE
  6
BYLAYER
  9
$CECOLOR
 62
   256
  9
$DIMSCALE
 40
1.0
  9
$DIMASZ
 40
0.1875
  9
$DIMEXO
 40
0.030625
  9
$DIMDLI
 40
0.1862
  9
$DIMRND
 40
0.0
  9
$DIMDLE
 40
0.0
  9
$DIMEXE
 40
0.0882
  9
$DIMTP
 40
0.01
  9
$DIMTM
 40
0.01
  9
$DIMTXT
 40
0.15625
  9
$DIMCEN
 40
0.0441
  9
$DIMTSZ
 40
0.0
  9
$DIMTOL
 70
     1
  9
$DIMLIM
 70
     0
  9
$DIMTIH
 70
     1
  9
$DIMTOH
 70
     1
  9
$DIMSE1
 70
     0
  9
$DIMSE2
 70
     0
  9
$DIMTAD
 70
     0
  9
$DIMZIN
 70
     0
  9
$DIMBLK
  1

  9
$DIMASO
 70
     1
  9
$DIMSHO
 70
     1
  9
$DIMPOST
  1

  9
$DIMAPOST
  1

  9
$DIMALT
 70
     0
  9
$DIMALTD
 70
     2
  9
$DIMALTF
 40
25.399999999999999
  9
$DIMLFAC
 40
1.0
  9
$DIMTOFL
 70
     0
  9
$DIMTVP
 40
0.0
  9
$DIMTIX
 70
     0
  9
$DIMSOXD
 70
     0
  9
$DIMSAH
 70
     0
  9
$DIMBLK1
  1

  9
$DIMBLK2
  1

  9
$DIMSTYLE
  2
STANDARD
  9
$DIMCLRD
 70
     0
  9
$DIMCLRE
 70
     0
  9
$DIMCLRT
 70
     0
  9
$DIMTFAC
 40
1.0
  9
$DIMGAP
 40
0.09
  9
$LUNITS
 70
     2
  9
$LUPREC
 70
     4
  9
$SKETCHINC
 40
0.1
  9
$FILLETRAD
 40
0.0
  9
$AUNITS
 70
     0
  9
$AUPREC
 70
     0
  9
$MENU
  1
acad
  9
$ELEVATION
 40
0.0
  9
$PELEVATION
 40
0.0
  9
$THICKNESS
 40
0.0
  9
$LIMCHECK
 70
     0
  9
$BLIPMODE
 70
     0
  9
$CHAMFERA
 40
0.0
  9
$CHAMFERB
 40
0.0
  9
$SKPOLY
 70
     0
  9
$TDCREATE
 40
2453514.4992089821
  9
$TDUPDATE
 40
2453514.5061031482
  9
$TDINDWG
 40
0.0062299421
  9
$TDUSRTIMER
 40
0.0062299421
  9
$USRTIMER
 70
     1
  9
$ANGBASE
 50
0.0
  9
$ANGDIR
 70
     0
  9
$PDMODE
 70
     3
  9
$PDSIZE
 40
0.3125
  9
$PLINEWID
 40
0.0
  9
$COORDS
 70
     1
  9
$SPLFRAME
 70
     0
  9
$SPLINETYPE
 70
     6
  9
$SPLINESEGS
 70
     8
  9
$ATTDIA
 70
     0
  9
$ATTREQ
 70
     1
  9
$HANDLING
 70
     1
  9
$HANDSEED
  5
47D
  9
$SURFTAB1
 70
     6
  9
$SURFTAB2
 70
     6
  9
$SURFTYPE
 70
     6
  9
$SURFU
 70
     6
  9
$SURFV
 70
     6
  9
$UCSNAME
  2

  9
$UCSORG
 10
0.0
 20
0.0
 30
0.0
  9
$UCSXDIR
 10
1.0
 20
0.0
 30
0.0
  9
$UCSYDIR
 10
0.0
 20
1.0
 30
0.0
  9
$PUCSNAME
  2

  9
$PUCSORG
 10
0.0
 20
0.0
 30
0.0
  9
$PUCSXDIR
 10
1.0
 20
0.0
 30
0.0
  9
$PUCSYDIR
 10
0.0
 20
1.0
 30
0.0
  9
$USERI1
 70
     0
  9
$USERI2
 70
     0
  9
$USERI3
 70
     0
  9
$USERI4
 70
     0
  9
$USERI5
 70
     0
  9
$USERR1
 40
0.0
  9
$USERR2
 40
0.0
  9
$USERR3
 40
0.0
  9
$USERR4
 40
0.0
  9
$USERR5
 40
0.0
  9
$WORLDVIEW
 70
     1
  9
$SHADEDGE
 70
     3
  9
$SHADEDIF
 70
    70
  9
$TILEMODE
 70
     1
  9
$MAXACTVP
 70
    16
  9
$PLIMCHECK
 70
     0
  9
$PEXTMIN
 10
1.0000000000000000E+020
 20
1.0000000000000000E+020
 30
1.0000000000000000E+020
  9
$PEXTMAX
 10
-1.0000000000000000E+020
 20
-1.0000000000000000E+020
 30
-1.0000000000000000E+020
  9
$PLIMMIN
 10
0.0
 20
0.0
  9
$PLIMMAX
 10
12.0
 20
9.0
  9
$UNITMODE
 70
     0
  9
$VISRETAIN
 70
     0
  9
$PLINEGEN
 70
     1
  9
$PSLTSCALE
 70
     0
  0
ENDSEC
  0
SECTION
  2
TABLES
  0
TABLE
  2
VPORT
 70
     2
  0
VPORT
  2
*ACTIVE
 70
     0
 10
0.0
 20
0.0
 11
1.0
 21
1.0
 12
2.7642942175712042
 22
1.131500482240807
 13
0.0
 23
0.0
 14
1.0
 24
1.0
 15
0.0
 25
0.0
 16
0.0
 26
0.0
 36
1.0
 17
0.0
 27
0.0
 37
0.0
 40
4.1239631595321757
 41
1.628879892037786
 42
50.0
 43
0.0
 44
0.0
 50
0.0
 51
0.0
 71
     0
 72
   100
 73
     1
 74
     1
 75
     0
 76
     0
 77
     0
 78
     0
  0
ENDTAB
  0
TABLE
  2
LTYPE
 70
     6
  0
LTYPE
  2
CONTINUOUS
 70
     0
  3
Solid line
 72
    65
 73
     0
 40
0.0
  0
LTYPE
  2
CENTER
 70
     0
  3
____ _ ____ _ ____ _ ____ _ ____ _ ____ _ ____
 72
    65
 73
     4
 40
0.6
 49
0.375
 49
-0.075
 49
0.075
 49
-0.075
  0
LTYPE
  2
HIDDEN
 70
     0
  3
- - - - - - - - - - - - - - - - - - - -
 72
    65
 73
     2
 40
0.2
 49
0.1
 49
-0.1
  0
LTYPE
  2
PHANTOM
 70
     0
  3
_____ _ _ _____ _ _ _____ _ _ _____
 72
    65
 73
     6
 40
0.8
 49
0.45
 49
-0.05
 49
0.1
 49
-0.05
 49
0.1
 49
-0.05
  0
LTYPE
  2
DOT
 70
     0
  3
. . . . . . . . . . . . . . . . . . . .
 72
    65
 73
     2
 40
0.2
 49
0.1
 49
-0.1
  0
LTYPE
  2
DASHED
 70
     0
  3
- - - - - - - - - - - - - - - - - - - -
 72
    65
 73
     2
 40
0.2
 49
0.1
 49
-0.1
  0
ENDTAB
  0
TABLE
  2
LAYER
 70
    26
  0
LAYER
  2
0
 70
     0
 62
     7
  6
CONTINUOUS
  0
LAYER
  2
DEFAULT_1
 70
     0
 62
     7
  6
CENTER
  0
LAYER
  2
DEFAULT_2
 70
     0
 62
     8
  6
HIDDEN
  0
LAYER
  2
DEFAULT_3
 70
     0
 62
     7
  6
PHANTOM
  0
LAYER
  2
_BLACK_HOLE
 70
     0
 62
     7
  6
CONTINUOUS
  0
LAYER
  2
AXIS
 70
     0
 62
     7
  6
CONTINUOUS
  0
LAYER
  2
COSM_SKETCH
 70
     0
 62
     7
  6
CONTINUOUS
  0
LAYER
  2
CURVE
 70
     0
 62
     7
  6
CONTINUOUS
  0
LAYER
  2
DATUMS
 70
     0
 62
     7
  6
CONTINUOUS
  0
LAYER
  2
DATUM_AXIS
 70
     0
 62
     7
  6
CONTINUOUS
  0
LAYER
  2
DATUM_CSYS
 70
     0
 62
     7
  6
CONTINUOUS
  0
LAYER
  2
DATUM_PLANE
 70
     0
 62
     7
  6
CONTINUOUS
  0
LAYER
  2
DATUM_PLN
 70
     0
 62
     7
  6
CONTINUOUS
  0
LAYER
  2
DATUM_POINT
 70
     0
 62
     7
  6
CONTINUOUS
  0
LAYER
  2
PARAM_DIM
 70
     0
 62
     7
  6
CONTINUOUS
  0
LAYER
  2
SURFACE
 70
     0
 62
     7
  6
CONTINUOUS
  0
LAYER
  2
WHITE
 70
     0
 62
     7
  6
CONTINUOUS
  0
LAYER
  2
XSEC_DATUMS
 70
     0
 62
     7
  6
CONTINUOUS
  0
LAYER
  2
_CURVE
 70
     0
 62
     7
  6
CONTINUOUS
  0
LAYER
  2
_SURFACE
 70
     0
 62
     7
  6
CONTINUOUS
  0
LAYER
  2
__REF_CURVE
 70
     0
 62
     7
  6
CONTINUOUS
  0
LAYER
  2
__REF_SURFACE
 70
     0
 62
     7
  6
CONTINUOUS
  0
LAYER
  2
___COSMETIC_SKETCH
 70
     0
 62
     7
  6
CONTINUOUS
  0
LAYER
  2
___COSMETIC_THREAD
 70
     0
 62
     7
  6
CONTINUOUS
  0
LAYER
  2
___GDT
 70
     0
 62
     7
  6
CONTINUOUS
  0
LAYER
  2
___NOTE
 70
     0
 62
     7
  6
CONTINUOUS
  0
ENDTAB
  0
TABLE
  2
STYLE
 70
     1
  0
STYLE
  2
STANDARD
 70
     0
 40
0.0
 41
0.8
 50
0.0
 71
     0
 42
0.001
  3
txt
  4

  0
ENDTAB
  0
TABLE
  2
VIEW
 70
     0
  0
ENDTAB
  0
TABLE
  2
UCS
 70
     0
  0
ENDTAB
  0
TABLE
  2
APPID
 70
     2
  0
APPID
  2
ACAD
 70
     0
  0
APPID
  2
DCO15
 70
     0
  0
ENDTAB
  0
TABLE
  2
DIMSTYLE
 70
     1
  0
DIMSTYLE
  2
STANDARD
 70
     0
  3

  4

  5

  6

  7

 40
1.0
 41
0.1875
 42
0.0625
 43
0.38
 44
0.18
 45
0.0
 46
0.0
 47
0.01
 48
0.01
140
0.15625
141
0.09
142
0.0
143
25.399999999999999
144
1.0
145
0.0
146
1.0
147
0.09
 71
     1
 72
     0
 73
     1
 74
     1
 75
     0
 76
     0
 77
     0
 78
     4
170
     0
171
     2
172
     0
173
     0
174
     0
175
     0
176
     0
177
     0
178
     0
  0
ENDTAB
  0
ENDSEC
  0
SECTION
  2
BLOCKS
  0
BLOCK
  8
0
  2
$MODEL_SPACE
 70
     0
 10
0.0
 20
0.0
 30
0.0
  3
$MODEL_SPACE
  1

  0
ENDBLK
  5
21
  8
0
  0
BLOCK
 67
     1
  8
0
  2
$PAPER_SPACE
 70
     0
 10
0.0
 20
0.0
 30
0.0
  3
$PAPER_SPACE
  1

  0
ENDBLK
  5
1D
 67
     1
  8
0
  0
ENDSEC
  0
SECTION
  2
ENTITIES
  0
LINE
  5
215
  8
0
  6
CONTINUOUS
 62
     7
 10
-0.0730816957
 20
0.0770431316
 30
0.0
 11
-0.0730771368
 21
0.0769125797
 31
0.0
  0
LINE
  5
216
  8
0
  6
CONTINUOUS
 62
     7
 10
-0.073121478
 20
0.078182347
 30
0.0
 11
-0.0793282125
 21
0.2559199665
 31
0.0
  0
LINE
  5
218
  8
0
  6
CONTINUOUS
 62
     7
 10
0.6241630404
 20
0.6474297847
 30
0.0
 11
0.5968836234000001
 21
0.2573159464
 31
0.0
  0
POLYLINE
  5
21B
  8
0
  6
CONTINUOUS
 62
     7
 66
     1
 10
0.0
 20
0.0
 30
0.0
  0
VERTEX
  5
343
  8
0
  6
CONTINUOUS
 62
     7
 10
3.303657306799999
 20
-0.0505850949
 30
0.0
  0
VERTEX
  5
344
  8
0
  6
CONTINUOUS
 62
     7
 10
3.2987118833999989
 20
-0.0513094874
 30
0.0
  0
VERTEX
  5
345
  8
0
  6
CONTINUOUS
 62
     7
 10
3.293365674099999
 20
-0.0520135314
 30
0.0
  0
SEQEND
  5
346
  8
0
  6
CONTINUOUS
 62
     7
  0
POLYLINE
  5
21C
  8
0
  6
CONTINUOUS
 62
     7
 66
     1
 10
0.0
 20
0.0
 30
0.0
  0
VERTEX
  5
347
  8
0
  6
CONTINUOUS
 62
     7
 10
3.293365674099999
 20
-0.0520135314
 30
0.0
  0
VERTEX
  5
348
  8
0
  6
CONTINUOUS
 62
     7
 10
3.2879973152999988
 20
-0.0526464851
 30
0.0
  0
VERTEX
  5
349
  8
0
  6
CONTINUOUS
 62
     7
 10
3.2827726996999989
 20
-0.0531955262
 30
0.0
  0
SEQEND
  5
34A
  8
0
  6
CONTINUOUS
 62
     7
  0
LINE
  5
21D
  8
0
  6
CONTINUOUS
 62
     7
 10
4.7242179339999986
 20
-0.0008113071
 30
0.0
 11
4.733803653799999
 21
-0.0000000261
 31
0.0
  0
LINE
  5
21E
  8
0
  6
CONTINUOUS
 62
     7
 10
4.7134202691000002
 20
-0.0016773945
 30
0.0
 11
4.7242179339999986
 21
-0.0008113071
 31
0.0
  0
LINE
  5
220
  8
0
  6
CONTINUOUS
 62
     7
 10
4.7026046541999991
 20
-0.0024797602
 30
0.0
 11
4.7134202691000002
 21
-0.0016773945
 31
0.0
  0
LINE
  5
221
  8
0
  6
CONTINUOUS
 62
     7
 10
4.6921091431999988
 20
-0.0031869775
 30
0.0
 11
4.7026046541999991
 21
-0.0024797602
 31
0.0
  0
LINE
  5
222
  8
0
  6
CONTINUOUS
 62
     7
 10
0.0339154544
 20
-0.0026697375
 30
0.0
 11
0.0426154916
 21
-0.0032455366
 31
0.0
  0
LINE
  5
223
  8
0
  6
CONTINUOUS
 62
     7
 10
0.0246713174
 20
-0.0020039579
 30
0.0
 11
0.0339154544
 21
-0.0026697375
 31
0.0
  0
LINE
  5
224
  8
0
  6
CONTINUOUS
 62
     7
 10
0.015416699
 20
-0.0012862566
 30
0.0
 11
0.0246713174
 21
-0.0020039579
 31
0.0
  0
POLYLINE
  5
225
  8
0
  6
CONTINUOUS
 62
     7
 66
     1
 10
0.0
 20
0.0
 30
0.0
  0
VERTEX
  5
34B
  8
0
  6
CONTINUOUS
 62
     7
 10
0.0
 20
0.0
 30
0.0
  0
VERTEX
  5
34C
  8
0
  6
CONTINUOUS
 62
     7
 10
0.0026240996
 20
-0.000225255
 30
0.0
  0
VERTEX
  5
34D
  8
0
  6
CONTINUOUS
 62
     7
 10
0.015416699
 20
-0.0012862566
 30
0.0
  0
SEQEND
  5
34E
  8
0
  6
CONTINUOUS
 62
     7
  0
POLYLINE
  5
226
  8
0
  6
CONTINUOUS
 62
     7
 66
     1
 10
0.0
 20
0.0
 30
0.0
  0
VERTEX
  5
34F
  8
0
  6
CONTINUOUS
 62
     7
 10
1.4296415389999999
 20
-0.050506712
 30
0.0
  0
VERTEX
  5
350
  8
0
  6
CONTINUOUS
 62
     7
 10
1.4259243065999989
 20
-0.0499016841
 30
0.0
  0
VERTEX
  5
351
  8
0
  6
CONTINUOUS
 62
     7
 10
1.4225494136000001
 20
-0.0493036922
 30
0.0
  0
VERTEX
  5
352
  8
0
  6
CONTINUOUS
 62
     7
 10
1.4194867826999999
 20
-0.048712092
 30
0.0
  0
SEQEND
  5
353
  8
0
  6
CONTINUOUS
 62
     7
  0
POLYLINE
  5
227
  8
0
  6
CONTINUOUS
 62
     7
 66
     1
 10
0.0
 20
0.0
 30
0.0
  0
VERTEX
  5
354
  8
0
  6
CONTINUOUS
 62
     7
 10
1.4194867826999999
 20
-0.048712092
 30
0.0
  0
VERTEX
  5
355
  8
0
  6
CONTINUOUS
 62
     7
 10
1.4167328951
 20
-0.048130195
 30
0.0
  0
VERTEX
  5
356
  8
0
  6
CONTINUOUS
 62
     7
 10
1.4142715283
 20
-0.047558423
 30
0.0
  0
VERTEX
  5
357
  8
0
  6
CONTINUOUS
 62
     7
 10
1.4120372701999999
 20
-0.0469833714
 30
0.0
  0
VERTEX
  5
358
  8
0
  6
CONTINUOUS
 62
     7
 10
1.4100137093
 20
-0.0463998422
 30
0.0
  0
VERTEX
  5
359
  8
0
  6
CONTINUOUS
 62
     7
 10
1.4081757316000001
 20
-0.0457980295
 30
0.0
  0
VERTEX
  5
35A
  8
0
  6
CONTINUOUS
 62
     7
 10
1.4064116645
 20
-0.0451300842
 30
0.0
  0
VERTEX
  5
35B
  8
0
  6
CONTINUOUS
 62
     7
 10
1.4046600667999991
 20
-0.0443433181
 30
0.0
  0
VERTEX
  5
35C
  8
0
  6
CONTINUOUS
 62
     7
 10
1.402932056
 20
-0.0433995774
 30
0.0
  0
VERTEX
  5
35D
  8
0
  6
CONTINUOUS
 62
     7
 10
1.4012133136
 20
-0.0422341942
 30
0.0
  0
VERTEX
  5
35E
  8
0
  6
CONTINUOUS
 62
     7
 10
1.3994953300999999
 20
-0.0407551794
 30
0.0
  0
VERTEX
  5
35F
  8
0
  6
CONTINUOUS
 62
     7
 10
1.397863598
 20
-0.0389199007
 30
0.0
  0
VERTEX
  5
360
  8
0
  6
CONTINUOUS
 62
     7
 10
1.3964583996
 20
-0.0367746199
 30
0.0
  0
VERTEX
  5
361
  8
0
  6
CONTINUOUS
 62
     7
 10
1.3953685701
 20
-0.0343617912
 30
0.0
  0
VERTEX
  5
362
  8
0
  6
CONTINUOUS
 62
     7
 10
1.3946541852000001
 20
-0.0316834931
 30
0.0
  0
VERTEX
  5
363
  8
0
  6
CONTINUOUS
 62
     7
 10
1.3944421416999999
 20
-0.0299960954
 30
0.0
  0
SEQEND
  5
364
  8
0
  6
CONTINUOUS
 62
     7
  0
LINE
  5
228
  8
0
  6
CONTINUOUS
 62
     7
 10
1.0534472624999991
 20
1.4880485665000001
 30
0.0
 11
1.056023264
 21
1.7832290932999999
 31
0.0
  0
LINE
  5
229
  8
0
  6
CONTINUOUS
 62
     7
 10
0.9852752959999998
 20
1.0074020197999991
 30
0.0
 11
0.9816711383999999
 21
0.8009199665
 31
0.0
  0
POLYLINE
  5
22A
  8
0
  6
CONTINUOUS
 62
     7
 66
     1
 10
0.0
 20
0.0
 30
0.0
  0
VERTEX
  5
365
  8
0
  6
CONTINUOUS
 62
     7
 10
1.0534465392000001
 20
1.4873824187
 30
0.0
  0
VERTEX
  5
366
  8
0
  6
CONTINUOUS
 62
     7
 10
1.0532941560999991
 20
1.4800905467000001
 30
0.0
  0
VERTEX
  5
367
  8
0
  6
CONTINUOUS
 62
     7
 10
1.0525711116000001
 20
1.4669586402999999
 30
0.0
  0
VERTEX
  5
368
  8
0
  6
CONTINUOUS
 62
     7
 10
1.0512846911
 20
1.4539703127000001
 30
0.0
  0
VERTEX
  5
369
  8
0
  6
CONTINUOUS
 62
     7
 10
1.0499212909999991
 20
1.4440907703000001
 30
0.0
  0
SEQEND
  5
36A
  8
0
  6
CONTINUOUS
 62
     7
  0
POLYLINE
  5
22B
  8
0
  6
CONTINUOUS
 62
     7
 66
     1
 10
0.0
 20
0.0
 30
0.0
  0
VERTEX
  5
36B
  8
0
  6
CONTINUOUS
 62
     7
 10
0.9852721899
 20
1.007220825599999
 30
0.0
  0
VERTEX
  5
36C
  8
0
  6
CONTINUOUS
 62
     7
 10
0.9851231160999999
 20
1.0031922203000001
 30
0.0
  0
VERTEX
  5
36D
  8
0
  6
CONTINUOUS
 62
     7
 10
0.9848102866999999
 20
0.9991575410999999
 30
0.0
  0
SEQEND
  5
36E
  8
0
  6
CONTINUOUS
 62
     7
  0
LINE
  5
22C
  8
0
  6
CONTINUOUS
 62
     7
 10
1.056023264
 20
1.7832290932999999
 30
0.0
 11
1.0778375862
 21
1.9824142504999991
 31
0.0
  0
POLYLINE
  5
22D
  8
0
  6
CONTINUOUS
 62
     7
 66
     1
 10
0.0
 20
0.0
 30
0.0
  0
VERTEX
  5
36F
  8
0
  6
CONTINUOUS
 62
     7
 10
0.9848102866999999
 20
0.9991575410999999
 30
0.0
  0
VERTEX
  5
370
  8
0
  6
CONTINUOUS
 62
     7
 10
0.9843323476
 20
0.9951235402000001
 30
0.0
  0
VERTEX
  5
371
  8
0
  6
CONTINUOUS
 62
     7
 10
0.9836882210999998
 20
0.9910970956999999
 30
0.0
  0
VERTEX
  5
372
  8
0
  6
CONTINUOUS
 62
     7
 10
0.9828771156999998
 20
0.9870852004999999
 30
0.0
  0
SEQEND
  5
373
  8
0
  6
CONTINUOUS
 62
     7
  0
POLYLINE
  5
22E
  8
0
  6
CONTINUOUS
 62
     7
 66
     1
 10
0.0
 20
0.0
 30
0.0
  0
VERTEX
  5
374
  8
0
  6
CONTINUOUS
 62
     7
 10
0.9887935492999999
 20
1.0494882479000001
 30
0.0
  0
VERTEX
  5
375
  8
0
  6
CONTINUOUS
 62
     7
 10
0.9866656035
 20
1.0326111479999991
 30
0.0
  0
VERTEX
  5
376
  8
0
  6
CONTINUOUS
 62
     7
 10
0.9852992598
 20
1.0087749066
 30
0.0
  0
SEQEND
  5
377
  8
0
  6
CONTINUOUS
 62
     7
  0
LINE
  5
22F
  8
0
  6
CONTINUOUS
 62
     7
 10
1.0499525305999999
 20
1.4440848099000001
 30
0.0
 11
0.9887897147999998
 21
1.0494859980999991
 31
0.0
  0
LINE
  5
230
  8
0
  6
CONTINUOUS
 62
     7
 10
1.0778375862
 20
1.9824142504999991
 30
0.0
 11
1.1998408903999991
 21
2.556394668399999
 31
0.0
  0
POLYLINE
  5
231
  8
0
  6
CONTINUOUS
 62
     7
 66
     1
 10
0.0
 20
0.0
 30
0.0
  0
VERTEX
  5
378
  8
0
  6
CONTINUOUS
 62
     7
 10
3.2827726996999989
 20
-0.0531955262
 30
0.0
  0
VERTEX
  5
379
  8
0
  6
CONTINUOUS
 62
     7
 10
3.2776816105999989
 20
-0.053667948
 30
0.0
  0
VERTEX
  5
37A
  8
0
  6
CONTINUOUS
 62
     7
 10
3.2728614008999992
 20
-0.0540567622
 30
0.0
  0
VERTEX
  5
37B
  8
0
  6
CONTINUOUS
 62
     7
 10
3.268390482
 20
-0.0543631746
 30
0.0
  0
VERTEX
  5
37C
  8
0
  6
CONTINUOUS
 62
     7
 10
3.2642593017999988
 20
-0.0545951049
 30
0.0
  0
SEQEND
  5
37D
  8
0
  6
CONTINUOUS
 62
     7
  0
POLYLINE
  5
232
  8
0
  6
CONTINUOUS
 62
     7
 66
     1
 10
0.0
 20
0.0
 30
0.0
  0
VERTEX
  5
37E
  8
0
  6
CONTINUOUS
 62
     7
 10
2.8429247641999988
 20
-0.049957363
 30
0.0
  0
VERTEX
  5
37F
  8
0
  6
CONTINUOUS
 62
     7
 10
2.8381218604999989
 20
-0.0503769118
 30
0.0
  0
VERTEX
  5
380
  8
0
  6
CONTINUOUS
 62
     7
 10
2.832908567
 20
-0.0507516581
 30
0.0
  0
VERTEX
  5
381
  8
0
  6
CONTINUOUS
 62
     7
 10
2.827610375399999
 20
-0.0510562837
 30
0.0
  0
VERTEX
  5
382
  8
0
  6
CONTINUOUS
 62
     7
 10
2.822356802399999
 20
-0.0512878593
 30
0.0
  0
SEQEND
  5
383
  8
0
  6
CONTINUOUS
 62
     7
  0
LINE
  5
233
  8
0
  6
CONTINUOUS
 62
     7
 10
4.6821774519999986
 20
-0.0037894325
 30
0.0
 11
4.6921091431999988
 21
-0.0031869775
 31
0.0
  0
LINE
  5
235
  8
0
  6
CONTINUOUS
 62
     7
 10
4.6725178532999987
 20
-0.0043163829
 30
0.0
 11
4.6821774519999986
 21
-0.0037894325
 31
0.0
  0
POLYLINE
  5
236
  8
0
  6
CONTINUOUS
 62
     7
 66
     1
 10
0.0
 20
0.0
 30
0.0
  0
VERTEX
  5
384
  8
0
  6
CONTINUOUS
 62
     7
 10
2.3883575952
 20
-0.0505094093
 30
0.0
  0
VERTEX
  5
385
  8
0
  6
CONTINUOUS
 62
     7
 10
2.3833466253999989
 20
-0.0507710405
 30
0.0
  0
VERTEX
  5
386
  8
0
  6
CONTINUOUS
 62
     7
 10
2.3778294817999992
 20
-0.0509688041
 30
0.0
  0
VERTEX
  5
387
  8
0
  6
CONTINUOUS
 62
     7
 10
2.3719670584999988
 20
-0.0510875173
 30
0.0
  0
VERTEX
  5
388
  8
0
  6
CONTINUOUS
 62
     7
 10
2.3662175656999991
 20
-0.051118914
 30
0.0
  0
SEQEND
  5
389
  8
0
  6
CONTINUOUS
 62
     7
  0
LINE
  5
237
  8
0
  6
CONTINUOUS
 62
     7
 10
4.6631064339999986
 20
-0.0047801472
 30
0.0
 11
4.6725178532999987
 21
-0.0043163829
 31
0.0
  0
POLYLINE
  5
238
  8
0
  6
CONTINUOUS
 62
     7
 66
     1
 10
0.0
 20
0.0
 30
0.0
  0
VERTEX
  5
38A
  8
0
  6
CONTINUOUS
 62
     7
 10
3.2642593017999988
 20
-0.0545951049
 30
0.0
  0
VERTEX
  5
38B
  8
0
  6
CONTINUOUS
 62
     7
 10
3.2604528811999991
 20
-0.0547592294
 30
0.0
  0
VERTEX
  5
38C
  8
0
  6
CONTINUOUS
 62
     7
 10
3.25697839
 20
-0.0548603354
 30
0.0
  0
VERTEX
  5
38D
  8
0
  6
CONTINUOUS
 62
     7
 10
3.2538361061000001
 20
-0.0549034325
 30
0.0
  0
VERTEX
  5
38E
  8
0
  6
CONTINUOUS
 62
     7
 10
3.2509871120999989
 20
-0.0548932358
 30
0.0
  0
SEQEND
  5
38F
  8
0
  6
CONTINUOUS
 62
     7
  0
LINE
  5
239
  8
0
  6
CONTINUOUS
 62
     7
 10
4.6496824818000002
 20
-0.0053726365
 30
0.0
 11
4.6631064339999986
 21
-0.0047801472
 31
0.0
  0
LINE
  5
23B
  8
0
  6
CONTINUOUS
 62
     7
 10
4.6346905509000003
 20
-0.0059731723
 30
0.0
 11
4.6496824818000002
 21
-0.0053726365
 31
0.0
  0
POLYLINE
  5
23C
  8
0
  6
CONTINUOUS
 62
     7
 66
     1
 10
0.0
 20
0.0
 30
0.0
  0
VERTEX
  5
390
  8
0
  6
CONTINUOUS
 62
     7
 10
2.822356802399999
 20
-0.0512878593
 30
0.0
  0
VERTEX
  5
391
  8
0
  6
CONTINUOUS
 62
     7
 10
2.817168047
 20
-0.0514495841
 30
0.0
  0
VERTEX
  5
392
  8
0
  6
CONTINUOUS
 62
     7
 10
2.8122341545
 20
-0.0515407173
 30
0.0
  0
VERTEX
  5
393
  8
0
  6
CONTINUOUS
 62
     7
 10
2.8076537719999992
 20
-0.0515676761
 30
0.0
  0
VERTEX
  5
394
  8
0
  6
CONTINUOUS
 62
     7
 10
2.8034049679999988
 20
-0.051538502
 30
0.0
  0
SEQEND
  5
395
  8
0
  6
CONTINUOUS
 62
     7
  0
POLYLINE
  5
23F
  8
0
  6
CONTINUOUS
 62
     7
 66
     1
 10
0.0
 20
0.0
 30
0.0
  0
VERTEX
  5
396
  8
0
  6
CONTINUOUS
 62
     7
 10
1.9341256424999991
 20
-0.0514646448
 30
0.0
  0
VERTEX
  5
397
  8
0
  6
CONTINUOUS
 62
     7
 10
1.9291839108
 20
-0.0515525172
 30
0.0
  0
VERTEX
  5
398
  8
0
  6
CONTINUOUS
 62
     7
 10
1.9237145148999999
 20
-0.0515605133
 30
0.0
  0
VERTEX
  5
399
  8
0
  6
CONTINUOUS
 62
     7
 10
1.9178787147
 20
-0.0514783853
 30
0.0
  0
VERTEX
  5
39A
  8
0
  6
CONTINUOUS
 62
     7
 10
1.9121316432
 20
-0.0513129992
 30
0.0
  0
SEQEND
  5
39B
  8
0
  6
CONTINUOUS
 62
     7
  0
POLYLINE
  5
240
  8
0
  6
CONTINUOUS
 62
     7
 66
     1
 10
0.0
 20
0.0
 30
0.0
  0
VERTEX
  5
39C
  8
0
  6
CONTINUOUS
 62
     7
 10
4.5006293229000001
 20
-0.0088970067
 30
0.0
  0
VERTEX
  5
39D
  8
0
  6
CONTINUOUS
 62
     7
 10
4.5257865364000001
 20
-0.0086607935
 30
0.0
  0
VERTEX
  5
39E
  8
0
  6
CONTINUOUS
 62
     7
 10
4.5517219173000001
 20
-0.0082713153
 30
0.0
  0
VERTEX
  5
39F
  8
0
  6
CONTINUOUS
 62
     7
 10
4.5785240552999991
 20
-0.0077074412
 30
0.0
  0
VERTEX
  5
3A0
  8
0
  6
CONTINUOUS
 62
     7
 10
4.6062024880000001
 20
-0.0069479443
 30
0.0
  0
VERTEX
  5
3A1
  8
0
  6
CONTINUOUS
 62
     7
 10
4.6346905509000003
 20
-0.0059731723
 30
0.0
  0
SEQEND
  5
3A2
  8
0
  6
CONTINUOUS
 62
     7
  0
LINE
  5
241
  8
0
  6
CONTINUOUS
 62
     7
 10
0.2862922164
 20
-0.0089699401
 30
0.0
 11
0.3903853173999999
 21
-0.0081956969
 31
0.0
  0
LINE
  5
242
  8
0
  6
CONTINUOUS
 62
     7
 10
4.0518322395999986
 20
-0.0090534955
 30
0.0
 11
4.2071082599
 21
-0.008088079
 31
0.0
  0
LINE
  5
243
  8
0
  6
CONTINUOUS
 62
     7
 10
0.3903853173999999
 20
-0.0081956969
 30
0.0
 11
0.44630205
 21
-0.0079443279
 31
0.0
  0
LINE
  5
244
  8
0
  6
CONTINUOUS
 62
     7
 10
4.2071082599
 20
-0.008088079
 30
0.0
 11
4.2480837243999989
 21
-0.0079389843
 31
0.0
  0
LINE
  5
245
  8
0
  6
CONTINUOUS
 62
     7
 10
4.4676780351999987
 20
-0.0090066363
 30
0.0
 11
4.5006293229000001
 21
-0.0088970067
 31
0.0
  0
LINE
  5
246
  8
0
  6
CONTINUOUS
 62
     7
 10
0.44630205
 20
-0.0079443279
 30
0.0
 11
0.4857202355
 21
-0.0079389843
 31
0.0
  0
LINE
  5
247
  8
0
  6
CONTINUOUS
 62
     7
 10
4.2480837243999989
 20
-0.0079389843
 30
0.0
 11
4.2875019098999987
 21
-0.0079443279
 31
0.0
  0
LINE
  5
248
  8
0
  6
CONTINUOUS
 62
     7
 10
4.4475117433999989
 20
-0.0089699401
 30
0.0
 11
4.4680053166000002
 21
-0.0090066026
 31
0.0
  0
LINE
  5
249
  8
0
  6
CONTINUOUS
 62
     7
 10
0.6588505235
 20
-0.0089700505
 30
0.0
 11
4.0518322395999986
 21
-0.0090534955
 31
0.0
  0
POLYLINE
  5
24A
  8
0
  6
CONTINUOUS
 62
     7
 66
     1
 10
0.0
 20
0.0
 30
0.0
  0
VERTEX
  5
3A3
  8
0
  6
CONTINUOUS
 62
     7
 10
0.2331746369
 20
-0.0088970067
 30
0.0
  0
VERTEX
  5
3A4
  8
0
  6
CONTINUOUS
 62
     7
 10
0.2575785474
 20
-0.0089991256
 30
0.0
  0
VERTEX
  5
3A5
  8
0
  6
CONTINUOUS
 62
     7
 10
0.2862922164
 20
-0.0089699401
 30
0.0
  0
SEQEND
  5
3A6
  8
0
  6
CONTINUOUS
 62
     7
  0
LINE
  5
24B
  8
0
  6
CONTINUOUS
 62
     7
 10
0.4857202355
 20
-0.0079389843
 30
0.0
 11
0.5479502143
 21
-0.0082167497
 31
0.0
  0
LINE
  5
24C
  8
0
  6
CONTINUOUS
 62
     7
 10
4.2875019098999987
 20
-0.0079443279
 30
0.0
 11
4.3434186423999988
 21
-0.0081956969
 31
0.0
  0
LINE
  5
24D
  8
0
  6
CONTINUOUS
 62
     7
 10
0.5479502143
 20
-0.0082167497
 30
0.0
 11
0.6588505235
 21
-0.0089700505
 31
0.0
  0
POLYLINE
  5
24E
  8
0
  6
CONTINUOUS
 62
     7
 66
     1
 10
0.0
 20
0.0
 30
0.0
  0
VERTEX
  5
3A7
  8
0
  6
CONTINUOUS
 62
     7
 10
2.3662175656999991
 20
-0.051118914
 30
0.0
  0
VERTEX
  5
3A8
  8
0
  6
CONTINUOUS
 62
     7
 10
2.360793683399999
 20
-0.0510729173
 30
0.0
  0
VERTEX
  5
3A9
  8
0
  6
CONTINUOUS
 62
     7
 10
2.355646136399999
 20
-0.0509594559
 30
0.0
  0
VERTEX
  5
3AA
  8
0
  6
CONTINUOUS
 62
     7
 10
2.3508430939
 20
-0.0507877873
 30
0.0
  0
VERTEX
  5
3AB
  8
0
  6
CONTINUOUS
 62
     7
 10
2.3464345649
 20
-0.0505678179
 30
0.0
  0
SEQEND
  5
3AC
  8
0
  6
CONTINUOUS
 62
     7
  0
LINE
  5
24F
  8
0
  6
CONTINUOUS
 62
     7
 10
4.3434186423999988
 20
-0.0081956969
 30
0.0
 11
4.4475117433999989
 21
-0.0089699401
 31
0.0
  0
LINE
  5
252
  8
0
  6
CONTINUOUS
 62
     7
 10
2.8034049679999988
 20
-0.051538502
 30
0.0
 11
2.7994767436999992
 21
-0.0514592355
 31
0.0
  0
POLYLINE
  5
253
  8
0
  6
CONTINUOUS
 62
     7
 66
     1
 10
0.0
 20
0.0
 30
0.0
  0
VERTEX
  5
3AD
  8
0
  6
CONTINUOUS
 62
     7
 10
3.2509871120999989
 20
-0.0548932358
 30
0.0
  0
VERTEX
  5
3AE
  8
0
  6
CONTINUOUS
 62
     7
 10
3.2484253094999991
 20
-0.0548330295
 30
0.0
  0
VERTEX
  5
3AF
  8
0
  6
CONTINUOUS
 62
     7
 10
3.2461283068999989
 20
-0.0547253038
 30
0.0
  0
VERTEX
  5
3B0
  8
0
  6
CONTINUOUS
 62
     7
 10
3.244010548599999
 20
-0.0545658186
 30
0.0
  0
VERTEX
  5
3B1
  8
0
  6
CONTINUOUS
 62
     7
 10
3.2420478873
 20
-0.0543477606
 30
0.0
  0
VERTEX
  5
3B2
  8
0
  6
CONTINUOUS
 62
     7
 10
3.2402110814
 20
-0.0540597706
 30
0.0
  0
VERTEX
  5
3B3
  8
0
  6
CONTINUOUS
 62
     7
 10
3.238367296599999
 20
-0.0536597704
 30
0.0
  0
VERTEX
  5
3B4
  8
0
  6
CONTINUOUS
 62
     7
 10
3.2364270576999989
 20
-0.0530790127
 30
0.0
  0
VERTEX
  5
3B5
  8
0
  6
CONTINUOUS
 62
     7
 10
3.234431086199999
 20
-0.0522601147
 30
0.0
  0
VERTEX
  5
3B6
  8
0
  6
CONTINUOUS
 62
     7
 10
3.2324399869999989
 20
-0.0511558477
 30
0.0
  0
VERTEX
  5
3B7
  8
0
  6
CONTINUOUS
 62
     7
 10
3.2304877787999988
 20
-0.0497046894
 30
0.0
  0
VERTEX
  5
3B8
  8
0
  6
CONTINUOUS
 62
     7
 10
3.2286443936999989
 20
-0.0478564175
 30
0.0
  0
VERTEX
  5
3B9
  8
0
  6
CONTINUOUS
 62
     7
 10
3.2270458462999989
 20
-0.0456384764
 30
0.0
  0
VERTEX
  5
3BA
  8
0
  6
CONTINUOUS
 62
     7
 10
3.225795393699999
 20
-0.0430902235
 30
0.0
  0
VERTEX
  5
3BB
  8
0
  6
CONTINUOUS
 62
     7
 10
3.225305158999999
 20
-0.0416263534
 30
0.0
  0
SEQEND
  5
3BC
  8
0
  6
CONTINUOUS
 62
     7
  0
POLYLINE
  5
254
  8
0
  6
CONTINUOUS
 62
     7
 66
     1
 10
0.0
 20
0.0
 30
0.0
  0
VERTEX
  5
3BD
  8
0
  6
CONTINUOUS
 62
     7
 10
0.099113409
 20
-0.0059731723
 30
0.0
  0
VERTEX
  5
3BE
  8
0
  6
CONTINUOUS
 62
     7
 10
0.1276014718
 20
-0.0069479443
 30
0.0
  0
VERTEX
  5
3BF
  8
0
  6
CONTINUOUS
 62
     7
 10
0.1552799045
 20
-0.0077074412
 30
0.0
  0
VERTEX
  5
3C0
  8
0
  6
CONTINUOUS
 62
     7
 10
0.1820820425
 20
-0.0082713153
 30
0.0
  0
VERTEX
  5
3C1
  8
0
  6
CONTINUOUS
 62
     7
 10
0.2080174235
 20
-0.0086607935
 30
0.0
  0
VERTEX
  5
3C2
  8
0
  6
CONTINUOUS
 62
     7
 10
0.2331746369
 20
-0.0088970067
 30
0.0
  0
SEQEND
  5
3C3
  8
0
  6
CONTINUOUS
 62
     7
  0
POLYLINE
  5
255
  8
0
  6
CONTINUOUS
 62
     7
 66
     1
 10
0.0
 20
0.0
 30
0.0
  0
VERTEX
  5
3C4
  8
0
  6
CONTINUOUS
 62
     7
 10
2.7994767436999992
 20
-0.0514592355
 30
0.0
  0
VERTEX
  5
3C5
  8
0
  6
CONTINUOUS
 62
     7
 10
2.7958790722999991
 20
-0.051335428
 30
0.0
  0
VERTEX
  5
3C6
  8
0
  6
CONTINUOUS
 62
     7
 10
2.7926151128999992
 20
-0.0511724464
 30
0.0
  0
VERTEX
  5
3C7
  8
0
  6
CONTINUOUS
 62
     7
 10
2.7896500842999989
 20
-0.050973015
 30
0.0
  0
VERTEX
  5
3C8
  8
0
  6
CONTINUOUS
 62
     7
 10
2.7869784035
 20
-0.0507403644
 30
0.0
  0
VERTEX
  5
3C9
  8
0
  6
CONTINUOUS
 62
     7
 10
2.784581200099999
 20
-0.0504762002
 30
0.0
  0
VERTEX
  5
3CA
  8
0
  6
CONTINUOUS
 62
     7
 10
2.782383306599999
 20
-0.050172848
 30
0.0
  0
VERTEX
  5
3CB
  8
0
  6
CONTINUOUS
 62
     7
 10
2.7803630449999992
 20
-0.0498239825
 30
0.0
  0
VERTEX
  5
3CC
  8
0
  6
CONTINUOUS
 62
     7
 10
2.778493228799999
 20
-0.0494190631
 30
0.0
  0
VERTEX
  5
3CD
  8
0
  6
CONTINUOUS
 62
     7
 10
2.7766535225999989
 20
-0.0489150842
 30
0.0
  0
VERTEX
  5
3CE
  8
0
  6
CONTINUOUS
 62
     7
 10
2.774772352599999
 20
-0.0482528007
 30
0.0
  0
VERTEX
  5
3CF
  8
0
  6
CONTINUOUS
 62
     7
 10
2.7728718006999991
 20
-0.0473835214
 30
0.0
  0
VERTEX
  5
3D0
  8
0
  6
CONTINUOUS
 62
     7
 10
2.7709691024000001
 20
-0.046248237
 30
0.0
  0
VERTEX
  5
3D1
  8
0
  6
CONTINUOUS
 62
     7
 10
2.7690740734999988
 20
-0.0447622813
 30
0.0
  0
VERTEX
  5
3D2
  8
0
  6
CONTINUOUS
 62
     7
 10
2.7672801623999992
 20
-0.0428811826
 30
0.0
  0
VERTEX
  5
3D3
  8
0
  6
CONTINUOUS
 62
     7
 10
2.7657440841000001
 20
-0.0406599969
 30
0.0
  0
VERTEX
  5
3D4
  8
0
  6
CONTINUOUS
 62
     7
 10
2.7645613513999989
 20
-0.0381531794
 30
0.0
  0
VERTEX
  5
3D5
  8
0
  6
CONTINUOUS
 62
     7
 10
2.763884057999999
 20
-0.0358328223
 30
0.0
  0
SEQEND
  5
3D6
  8
0
  6
CONTINUOUS
 62
     7
  0
LINE
  5
256
  8
0
  6
CONTINUOUS
 62
     7
 10
0.0794584044
 20
-0.0051747469
 30
0.0
 11
0.099113409
 21
-0.0059731723
 31
0.0
  0
POLYLINE
  5
257
  8
0
  6
CONTINUOUS
 62
     7
 66
     1
 10
0.0
 20
0.0
 30
0.0
  0
VERTEX
  5
3D7
  8
0
  6
CONTINUOUS
 62
     7
 10
1.9121316432
 20
-0.0513129992
 30
0.0
  0
VERTEX
  5
3D8
  8
0
  6
CONTINUOUS
 62
     7
 10
1.9066819874000001
 20
-0.0510807185
 30
0.0
  0
VERTEX
  5
3D9
  8
0
  6
CONTINUOUS
 62
     7
 10
1.901488371099999
 20
-0.0507894358
 30
0.0
  0
VERTEX
  5
3DA
  8
0
  6
CONTINUOUS
 62
     7
 10
1.8966370623
 20
-0.050451497
 30
0.0
  0
VERTEX
  5
3DB
  8
0
  6
CONTINUOUS
 62
     7
 10
1.892185049299999
 20
-0.0500791421
 30
0.0
  0
SEQEND
  5
3DC
  8
0
  6
CONTINUOUS
 62
     7
  0
LINE
  5
25A
  8
0
  6
CONTINUOUS
 62
     7
 10
0.0674573961
 20
-0.004625543
 30
0.0
 11
0.0794584044
 21
-0.0051747469
 31
0.0
  0
LINE
  5
25B
  8
0
  6
CONTINUOUS
 62
     7
 10
0.0593285015
 20
-0.0042140064
 30
0.0
 11
0.0674573961
 21
-0.004625543
 31
0.0
  0
LINE
  5
25C
  8
0
  6
CONTINUOUS
 62
     7
 10
0.0510614493
 20
-0.0037568577
 30
0.0
 11
0.0593285015
 21
-0.0042140064
 31
0.0
  0
LINE
  5
25D
  8
0
  6
CONTINUOUS
 62
     7
 10
1.4685407029999999
 20
-0.0545435981
 30
0.0
 11
1.4635770472
 21
-0.0542439335
 31
0.0
  0
LINE
  5
25E
  8
0
  6
CONTINUOUS
 62
     7
 10
0.0426154916
 20
-0.0032455366
 30
0.0
 11
0.0510614493
 21
-0.0037568577
 31
0.0
  0
POLYLINE
  5
25F
  8
0
  6
CONTINUOUS
 62
     7
 66
     1
 10
0.0
 20
0.0
 30
0.0
  0
VERTEX
  5
3DD
  8
0
  6
CONTINUOUS
 62
     7
 10
2.3464345649
 20
-0.0505678179
 30
0.0
  0
VERTEX
  5
3DE
  8
0
  6
CONTINUOUS
 62
     7
 10
2.3424221564000001
 20
-0.0503075366
 30
0.0
  0
VERTEX
  5
3DF
  8
0
  6
CONTINUOUS
 62
     7
 10
2.338777557699999
 20
-0.0500117118
 30
0.0
  0
VERTEX
  5
3E0
  8
0
  6
CONTINUOUS
 62
     7
 10
2.3355007300999988
 20
-0.0496859961
 30
0.0
  0
VERTEX
  5
3E1
  8
0
  6
CONTINUOUS
 62
     7
 10
2.3325791529999989
 20
-0.0493346512
 30
0.0
  0
VERTEX
  5
3E2
  8
0
  6
CONTINUOUS
 62
     7
 10
2.3299438964999988
 20
-0.048952835
 30
0.0
  0
VERTEX
  5
3E3
  8
0
  6
CONTINUOUS
 62
     7
 10
2.3275784334999989
 20
-0.0485389519
 30
0.0
  0
VERTEX
  5
3E4
  8
0
  6
CONTINUOUS
 62
     7
 10
2.3254499333999989
 20
-0.0480865877
 30
0.0
  0
VERTEX
  5
3E5
  8
0
  6
CONTINUOUS
 62
     7
 10
2.323422026999999
 20
-0.0475563708
 30
0.0
  0
VERTEX
  5
3E6
  8
0
  6
CONTINUOUS
 62
     7
 10
2.3214242752000001
 20
-0.046899708
 30
0.0
  0
VERTEX
  5
3E7
  8
0
  6
CONTINUOUS
 62
     7
 10
2.3194560623
 20
-0.0460712854
 30
0.0
  0
VERTEX
  5
3E8
  8
0
  6
CONTINUOUS
 62
     7
 10
2.317468278999999
 20
-0.0449849498
 30
0.0
  0
VERTEX
  5
3E9
  8
0
  6
CONTINUOUS
 62
     7
 10
2.3154286689999992
 20
-0.0435126905
 30
0.0
  0
VERTEX
  5
3EA
  8
0
  6
CONTINUOUS
 62
     7
 10
2.3134636511999989
 20
-0.0415956342
 30
0.0
  0
VERTEX
  5
3EB
  8
0
  6
CONTINUOUS
 62
     7
 10
2.3117759751999989
 20
-0.0393021078
 30
0.0
  0
VERTEX
  5
3EC
  8
0
  6
CONTINUOUS
 62
     7
 10
2.3104779049999991
 20
-0.0366990585
 30
0.0
  0
VERTEX
  5
3ED
  8
0
  6
CONTINUOUS
 62
     7
 10
2.3095777836999991
 20
-0.0335064877
 30
0.0
  0
SEQEND
  5
3EE
  8
0
  6
CONTINUOUS
 62
     7
  0
POLYLINE
  5
260
  8
0
  6
CONTINUOUS
 62
     7
 66
     1
 10
0.0
 20
0.0
 30
0.0
  0
VERTEX
  5
3EF
  8
0
  6
CONTINUOUS
 62
     7
 10
1.4635770472
 20
-0.0542439335
 30
0.0
  0
VERTEX
  5
3F0
  8
0
  6
CONTINUOUS
 62
     7
 10
1.4584289345999999
 20
-0.0538612836
 30
0.0
  0
VERTEX
  5
3F1
  8
0
  6
CONTINUOUS
 62
     7
 10
1.4531608620000001
 20
-0.0534006957
 30
0.0
  0
VERTEX
  5
3F2
  8
0
  6
CONTINUOUS
 62
     7
 10
1.4478469947999999
 20
-0.0528686418
 30
0.0
  0
SEQEND
  5
3F3
  8
0
  6
CONTINUOUS
 62
     7
  0
POLYLINE
  5
261
  8
0
  6
CONTINUOUS
 62
     7
 66
     1
 10
0.0
 20
0.0
 30
0.0
  0
VERTEX
  5
3F4
  8
0
  6
CONTINUOUS
 62
     7
 10
1.892185049299999
 20
-0.0500791421
 30
0.0
  0
VERTEX
  5
3F5
  8
0
  6
CONTINUOUS
 62
     7
 10
1.888130458799999
 20
-0.0496802664
 30
0.0
  0
VERTEX
  5
3F6
  8
0
  6
CONTINUOUS
 62
     7
 10
1.884446445699999
 20
-0.0492588895
 30
0.0
  0
VERTEX
  5
3F7
  8
0
  6
CONTINUOUS
 62
     7
 10
1.8811338547000001
 20
-0.048820841
 30
0.0
  0
VERTEX
  5
3F8
  8
0
  6
CONTINUOUS
 62
     7
 10
1.8781813668999989
 20
-0.0483702266
 30
0.0
  0
VERTEX
  5
3F9
  8
0
  6
CONTINUOUS
 62
     7
 10
1.8755228922
 20
-0.0479006557
 30
0.0
  0
VERTEX
  5
3FA
  8
0
  6
CONTINUOUS
 62
     7
 10
1.873143728099999
 20
-0.0474108515
 30
0.0
  0
VERTEX
  5
3FB
  8
0
  6
CONTINUOUS
 62
     7
 10
1.8710111724
 20
-0.046894128
 30
0.0
  0
VERTEX
  5
3FC
  8
0
  6
CONTINUOUS
 62
     7
 10
1.8689910110000001
 20
-0.0463088324
 30
0.0
  0
VERTEX
  5
3FD
  8
0
  6
CONTINUOUS
 62
     7
 10
1.8670163901000001
 20
-0.045607818
 30
0.0
  0
VERTEX
  5
3FE
  8
0
  6
CONTINUOUS
 62
     7
 10
1.8650852806999989
 20
-0.0447485381
 30
0.0
  0
VERTEX
  5
3FF
  8
0
  6
CONTINUOUS
 62
     7
 10
1.863140666499999
 20
-0.0436428538
 30
0.0
  0
VERTEX
  5
400
  8
0
  6
CONTINUOUS
 62
     7
 10
1.8611434503999991
 20
-0.0421588776
 30
0.0
  0
VERTEX
  5
401
  8
0
  6
CONTINUOUS
 62
     7
 10
1.8592202083
 20
-0.0402398657
 30
0.0
  0
VERTEX
  5
402
  8
0
  6
CONTINUOUS
 62
     7
 10
1.8575725917000001
 20
-0.0379584431
 30
0.0
  0
VERTEX
  5
403
  8
0
  6
CONTINUOUS
 62
     7
 10
1.8563086939
 20
-0.0353821102
 30
0.0
  0
VERTEX
  5
404
  8
0
  6
CONTINUOUS
 62
     7
 10
1.8554841045999999
 20
-0.032509869
 30
0.0
  0
VERTEX
  5
405
  8
0
  6
CONTINUOUS
 62
     7
 10
1.8553471813
 20
-0.031681264
 30
0.0
  0
SEQEND
  5
406
  8
0
  6
CONTINUOUS
 62
     7
  0
POLYLINE
  5
262
  8
0
  6
CONTINUOUS
 62
     7
 66
     1
 10
0.0
 20
0.0
 30
0.0
  0
VERTEX
  5
407
  8
0
  6
CONTINUOUS
 62
     7
 10
1.4478469947999999
 20
-0.0528686418
 30
0.0
  0
VERTEX
  5
408
  8
0
  6
CONTINUOUS
 62
     7
 10
1.4427708554000001
 20
-0.0522973154
 30
0.0
  0
VERTEX
  5
409
  8
0
  6
CONTINUOUS
 62
     7
 10
1.4380683138000001
 20
-0.05171091
 30
0.0
  0
VERTEX
  5
40A
  8
0
  6
CONTINUOUS
 62
     7
 10
1.4336941542999999
 20
-0.0511122889
 30
0.0
  0
VERTEX
  5
40B
  8
0
  6
CONTINUOUS
 62
     7
 10
1.4296415389999999
 20
-0.050506712
 30
0.0
  0
SEQEND
  5
40C
  8
0
  6
CONTINUOUS
 62
     7
  0
LINE
  5
263
  8
0
  6
CONTINUOUS
 62
     7
 10
0.9828771156999998
 20
0.9870852004999999
 30
0.0
 11
0.9818985341000001
 21
0.9830949511
 31
0.0
  0
LINE
  5
264
  8
0
  6
CONTINUOUS
 62
     7
 10
0.9819833671999999
 20
0.9834146355999999
 30
0.0
 11
0.9369729357999999
 21
0.8149199664999999
 31
0.0
  0
LINE
  5
268
  8
0
  6
CONTINUOUS
 62
     7
 10
1.3944427429999999
 20
-0.0300051454
 30
0.0
 11
1.3928961010000001
 21
-0.0090800335
 31
0.0
  0
LINE
  5
26C
  8
0
  6
CONTINUOUS
 62
     7
 10
4.8131321722999987
 20
0.2559199665
 30
0.0
 11
-0.0793282125
 21
0.2559199665
 31
0.0
  0
LINE
  5
276
  8
0
  6
CONTINUOUS
 62
     7
 10
1.8553495256999999
 20
-0.0316998479
 30
0.0
 11
1.852177084899999
 21
-0.0090800335
 31
0.0
  0
LINE
  5
281
  8
0
  6
CONTINUOUS
 62
     7
 10
1.5112962470999991
 20
-0.0397755775
 30
0.0
 11
1.5201663455000001
 21
-0.0090800335
 31
0.0
  0
POLYLINE
  5
283
  8
0
  6
CONTINUOUS
 62
     7
 66
     1
 10
0.0
 20
0.0
 30
0.0
  0
VERTEX
  5
40D
  8
0
  6
CONTINUOUS
 62
     7
 10
1.5112970620999999
 20
-0.039772525
 30
0.0
  0
VERTEX
  5
40E
  8
0
  6
CONTINUOUS
 62
     7
 10
1.5106571613999999
 20
-0.0415771675
 30
0.0
  0
VERTEX
  5
40F
  8
0
  6
CONTINUOUS
 62
     7
 10
1.5092200355000001
 20
-0.0442410034
 30
0.0
  0
VERTEX
  5
410
  8
0
  6
CONTINUOUS
 62
     7
 10
1.5073544348000001
 20
-0.0465420399
 30
0.0
  0
VERTEX
  5
411
  8
0
  6
CONTINUOUS
 62
     7
 10
1.5051971857999999
 20
-0.0483930181
 30
0.0
  0
VERTEX
  5
412
  8
0
  6
CONTINUOUS
 62
     7
 10
1.5038691837
 20
-0.0491928171
 30
0.0
  0
SEQEND
  5
413
  8
0
  6
CONTINUOUS
 62
     7
  0
POLYLINE
  5
284
  8
0
  6
CONTINUOUS
 62
     7
 66
     1
 10
0.0
 20
0.0
 30
0.0
  0
VERTEX
  5
414
  8
0
  6
CONTINUOUS
 62
     7
 10
1.5038691836958991
 20
-0.0491928171024698
 30
0.0
  0
VERTEX
  5
415
  8
0
  6
CONTINUOUS
 62
     7
 10
1.5013241473000001
 20
-0.0511811783
 30
0.0
  0
VERTEX
  5
416
  8
0
  6
CONTINUOUS
 62
     7
 10
1.4986834249000001
 20
-0.0525721041
 30
0.0
  0
VERTEX
  5
417
  8
0
  6
CONTINUOUS
 62
     7
 10
1.4963168817000001
 20
-0.0534192876
 30
0.0
  0
VERTEX
  5
418
  8
0
  6
CONTINUOUS
 62
     7
 10
1.4940730489999989
 20
-0.0539675104
 30
0.0
  0
VERTEX
  5
419
  8
0
  6
CONTINUOUS
 62
     7
 10
1.491774602
 20
-0.0543453071
 30
0.0
  0
VERTEX
  5
41A
  8
0
  6
CONTINUOUS
 62
     7
 10
1.4893905950999999
 20
-0.0546013591
 30
0.0
  0
VERTEX
  5
41B
  8
0
  6
CONTINUOUS
 62
     7
 10
1.4868525226
 20
-0.054770721
 30
0.0
  0
VERTEX
  5
41C
  8
0
  6
CONTINUOUS
 62
     7
 10
1.4839830401
 20
-0.0548726225
 30
0.0
  0
VERTEX
  5
41D
  8
0
  6
CONTINUOUS
 62
     7
 10
1.4807433194999999
 20
-0.0549057691
 30
0.0
  0
VERTEX
  5
41E
  8
0
  6
CONTINUOUS
 62
     7
 10
1.4771314573000001
 20
-0.0548667045
 30
0.0
  0
VERTEX
  5
41F
  8
0
  6
CONTINUOUS
 62
     7
 10
1.4730871046
 20
-0.0547495409
 30
0.0
  0
VERTEX
  5
420
  8
0
  6
CONTINUOUS
 62
     7
 10
1.4685407029999999
 20
-0.0545435981
 30
0.0
  0
SEQEND
  5
421
  8
0
  6
CONTINUOUS
 62
     7
  0
LINE
  5
285
  8
0
  6
CONTINUOUS
 62
     7
 10
0.7887611087000001
 20
0.8009199665
 30
0.0
 11
3.9450428511000002
 21
0.8009199665
 31
0.0
  0
LINE
  5
286
  8
0
  6
CONTINUOUS
 62
     7
 10
3.796831024099999
 20
0.8149199664999999
 30
0.0
 11
3.7518884505999992
 21
0.8149199664999999
 31
0.0
  0
LINE
  5
287
  8
0
  6
CONTINUOUS
 62
     7
 10
0.9819155092999999
 20
0.8149199664999999
 30
0.0
 11
0.9369729357999999
 21
0.8149199664999999
 31
0.0
  0
LINE
  5
295
  8
0
  6
CONTINUOUS
 62
     7
 10
2.3095810859999988
 20
-0.0335268702
 30
0.0
 11
2.305244496799999
 21
-0.0090800335
 31
0.0
  0
LINE
  5
2A4
  8
0
  6
CONTINUOUS
 62
     7
 10
1.969916677899999
 20
-0.0358487479
 30
0.0
 11
1.9756708623999999
 21
-0.0090800335
 31
0.0
  0
POLYLINE
  5
2C0
  8
0
  6
CONTINUOUS
 62
     7
 66
     1
 10
0.0
 20
0.0
 30
0.0
  0
VERTEX
  5
422
  8
0
  6
CONTINUOUS
 62
     7
 10
1.969924177
 20
-0.0358077076
 30
0.0
  0
VERTEX
  5
423
  8
0
  6
CONTINUOUS
 62
     7
 10
1.968732981999999
 20
-0.0393667264
 30
0.0
  0
VERTEX
  5
424
  8
0
  6
CONTINUOUS
 62
     7
 10
1.9669917316000001
 20
-0.042281809
 30
0.0
  0
VERTEX
  5
425
  8
0
  6
CONTINUOUS
 62
     7
 10
1.9647013945
 20
-0.0447872339
 30
0.0
  0
VERTEX
  5
426
  8
0
  6
CONTINUOUS
 62
     7
 10
1.9620342732
 20
-0.0467628384
 30
0.0
  0
VERTEX
  5
427
  8
0
  6
CONTINUOUS
 62
     7
 10
1.959372847699999
 20
-0.0481132556
 30
0.0
  0
VERTEX
  5
428
  8
0
  6
CONTINUOUS
 62
     7
 10
1.956953624399999
 20
-0.048975044
 30
0.0
  0
VERTEX
  5
429
  8
0
  6
CONTINUOUS
 62
     7
 10
1.9545881552999991
 20
-0.0495865607
 30
0.0
  0
VERTEX
  5
42A
  8
0
  6
CONTINUOUS
 62
     7
 10
1.9520341016999989
 20
-0.0500750257
 30
0.0
  0
VERTEX
  5
42B
  8
0
  6
CONTINUOUS
 62
     7
 10
1.9492406642
 20
-0.0504738921
 30
0.0
  0
VERTEX
  5
42C
  8
0
  6
CONTINUOUS
 62
     7
 10
1.9461583405
 20
-0.0508039018
 30
0.0
  0
VERTEX
  5
42D
  8
0
  6
CONTINUOUS
 62
     7
 10
1.942632234
 20
-0.0510821907
 30
0.0
  0
VERTEX
  5
42E
  8
0
  6
CONTINUOUS
 62
     7
 10
1.938615066399999
 20
-0.0513053074
 30
0.0
  0
VERTEX
  5
42F
  8
0
  6
CONTINUOUS
 62
     7
 10
1.9341256424999991
 20
-0.0514646448
 30
0.0
  0
SEQEND
  5
430
  8
0
  6
CONTINUOUS
 62
     7
  0
LINE
  5
2C3
  8
0
  6
CONTINUOUS
 62
     7
 10
2.7638872801999992
 20
-0.0358487397
 30
0.0
 11
2.7581330975
 21
-0.0090800335
 31
0.0
  0
LINE
  5
2C9
  8
0
  6
CONTINUOUS
 62
     7
 10
2.4242228725999988
 20
-0.0335268771
 30
0.0
 11
2.428559463
 21
-0.0090800335
 31
0.0
  0
POLYLINE
  5
2CA
  8
0
  6
CONTINUOUS
 62
     7
 66
     1
 10
0.0
 20
0.0
 30
0.0
  0
VERTEX
  5
431
  8
0
  6
CONTINUOUS
 62
     7
 10
2.4242285450000001
 20
-0.0334887102
 30
0.0
  0
VERTEX
  5
432
  8
0
  6
CONTINUOUS
 62
     7
 10
2.424076241499999
 20
-0.0342513287
 30
0.0
  0
VERTEX
  5
433
  8
0
  6
CONTINUOUS
 62
     7
 10
2.4229642722999989
 20
-0.0375460942
 30
0.0
  0
VERTEX
  5
434
  8
0
  6
CONTINUOUS
 62
     7
 10
2.421274320999999
 20
-0.0404273925
 30
0.0
  0
VERTEX
  5
435
  8
0
  6
CONTINUOUS
 62
     7
 10
2.419060847199999
 20
-0.0429102553
 30
0.0
  0
VERTEX
  5
436
  8
0
  6
CONTINUOUS
 62
     7
 10
2.4164855501999991
 20
-0.0448901337
 30
0.0
  0
VERTEX
  5
437
  8
0
  6
CONTINUOUS
 62
     7
 10
2.4138967773999989
 20
-0.0462803278
 30
0.0
  0
VERTEX
  5
438
  8
0
  6
CONTINUOUS
 62
     7
 10
2.4115090583000001
 20
-0.0472053822
 30
0.0
  0
VERTEX
  5
439
  8
0
  6
CONTINUOUS
 62
     7
 10
2.4091426182999989
 20
-0.04789385
 30
0.0
  0
VERTEX
  5
43A
  8
0
  6
CONTINUOUS
 62
     7
 10
2.4065676895999988
 20
-0.0484720507
 30
0.0
  0
VERTEX
  5
43B
  8
0
  6
CONTINUOUS
 62
     7
 10
2.403738367199999
 20
-0.0489720076
 30
0.0
  0
VERTEX
  5
43C
  8
0
  6
CONTINUOUS
 62
     7
 10
2.400605045399999
 20
-0.0494148065
 30
0.0
  0
VERTEX
  5
43D
  8
0
  6
CONTINUOUS
 62
     7
 10
2.3970183929999989
 20
-0.0498213536
 30
0.0
  0
VERTEX
  5
43E
  8
0
  6
CONTINUOUS
 62
     7
 10
2.392927913199999
 20
-0.0501896341
 30
0.0
  0
VERTEX
  5
43F
  8
0
  6
CONTINUOUS
 62
     7
 10
2.3883575952
 20
-0.0505094093
 30
0.0
  0
SEQEND
  5
440
  8
0
  6
CONTINUOUS
 62
     7
  0
LINE
  5
2DE
  8
0
  6
CONTINUOUS
 62
     7
 10
3.2253088116999988
 20
-0.0416397767
 30
0.0
 11
3.2160483218999989
 21
-0.0090800335
 31
0.0
  0
LINE
  5
2E6
  8
0
  6
CONTINUOUS
 62
     7
 10
2.8784544332999991
 20
-0.0316998532
 30
0.0
 11
2.8816268748999989
 21
-0.0090800335
 31
0.0
  0
POLYLINE
  5
2E7
  8
0
  6
CONTINUOUS
 62
     7
 66
     1
 10
0.0
 20
0.0
 30
0.0
  0
VERTEX
  5
441
  8
0
  6
CONTINUOUS
 62
     7
 10
2.8784578811999988
 20
-0.0316706589
 30
0.0
  0
VERTEX
  5
442
  8
0
  6
CONTINUOUS
 62
     7
 10
2.8782959648999991
 20
-0.0326293865
 30
0.0
  0
VERTEX
  5
443
  8
0
  6
CONTINUOUS
 62
     7
 10
2.8773881983999989
 20
-0.0356501545
 30
0.0
  0
VERTEX
  5
444
  8
0
  6
CONTINUOUS
 62
     7
 10
2.8759652028999989
 20
-0.038385776
 30
0.0
  0
VERTEX
  5
445
  8
0
  6
CONTINUOUS
 62
     7
 10
2.8740300962999989
 20
-0.0408553539
 30
0.0
  0
VERTEX
  5
446
  8
0
  6
CONTINUOUS
 62
     7
 10
2.8717053329999991
 20
-0.0429205223
 30
0.0
  0
VERTEX
  5
447
  8
0
  6
CONTINUOUS
 62
     7
 10
2.8693329899999989
 20
-0.0444290399
 30
0.0
  0
VERTEX
  5
448
  8
0
  6
CONTINUOUS
 62
     7
 10
2.8671325099999989
 20
-0.0454687308
 30
0.0
  0
VERTEX
  5
449
  8
0
  6
CONTINUOUS
 62
     7
 10
2.8649655554999991
 20
-0.0462597104
 30
0.0
  0
VERTEX
  5
44A
  8
0
  6
CONTINUOUS
 62
     7
 10
2.8626654755000001
 20
-0.0469275944
 30
0.0
  0
VERTEX
  5
44B
  8
0
  6
CONTINUOUS
 62
     7
 10
2.8602031497999989
 20
-0.0475110439
 30
0.0
  0
VERTEX
  5
44C
  8
0
  6
CONTINUOUS
 62
     7
 10
2.857524023799999
 20
-0.0480416551
 30
0.0
  0
VERTEX
  5
44D
  8
0
  6
CONTINUOUS
 62
     7
 10
2.8544812193999989
 20
-0.0485521791
 30
0.0
  0
VERTEX
  5
44E
  8
0
  6
CONTINUOUS
 62
     7
 10
2.8510408749999989
 20
-0.0490441419
 30
0.0
  0
VERTEX
  5
44F
  8
0
  6
CONTINUOUS
 62
     7
 10
2.8472027907999991
 20
-0.049512828
 30
0.0
  0
VERTEX
  5
450
  8
0
  6
CONTINUOUS
 62
     7
 10
2.8429247641999988
 20
-0.049957363
 30
0.0
  0
SEQEND
  5
451
  8
0
  6
CONTINUOUS
 62
     7
  0
LINE
  5
2EB
  8
0
  6
CONTINUOUS
 62
     7
 10
3.3393612165999991
 20
-0.030005148
 30
0.0
 11
3.3409078587999992
 21
-0.0090800335
 31
0.0
  0
POLYLINE
  5
2EC
  8
0
  6
CONTINUOUS
 62
     7
 66
     1
 10
0.0
 20
0.0
 30
0.0
  0
VERTEX
  5
452
  8
0
  6
CONTINUOUS
 62
     7
 10
3.339362305399999
 20
-0.029986552
 30
0.0
  0
VERTEX
  5
453
  8
0
  6
CONTINUOUS
 62
     7
 10
3.3390956343
 20
-0.0319678418
 30
0.0
  0
VERTEX
  5
454
  8
0
  6
CONTINUOUS
 62
     7
 10
3.3382150952999989
 20
-0.0349396982
 30
0.0
  0
VERTEX
  5
455
  8
0
  6
CONTINUOUS
 62
     7
 10
3.336840797599999
 20
-0.0376296506
 30
0.0
  0
VERTEX
  5
456
  8
0
  6
CONTINUOUS
 62
     7
 10
3.3349762196999988
 20
-0.0400659686
 30
0.0
  0
VERTEX
  5
457
  8
0
  6
CONTINUOUS
 62
     7
 10
3.3327370849999989
 20
-0.0421216067
 30
0.0
  0
VERTEX
  5
458
  8
0
  6
CONTINUOUS
 62
     7
 10
3.3304494323
 20
-0.0436488192
 30
0.0
  0
VERTEX
  5
459
  8
0
  6
CONTINUOUS
 62
     7
 10
3.3283236220999992
 20
-0.0447298804
 30
0.0
  0
VERTEX
  5
45A
  8
0
  6
CONTINUOUS
 62
     7
 10
3.3262098007000001
 20
-0.0455891209
 30
0.0
  0
VERTEX
  5
45B
  8
0
  6
CONTINUOUS
 62
     7
 10
3.3239267887999988
 20
-0.0463577833
 30
0.0
  0
VERTEX
  5
45C
  8
0
  6
CONTINUOUS
 62
     7
 10
3.3214427890999989
 20
-0.0470706221
 30
0.0
  0
VERTEX
  5
45D
  8
0
  6
CONTINUOUS
 62
     7
 10
3.318709856099999
 20
-0.0477558183
 30
0.0
  0
VERTEX
  5
45E
  8
0
  6
CONTINUOUS
 62
     7
 10
3.315587537099999
 20
-0.0484502858
 30
0.0
  0
VERTEX
  5
45F
  8
0
  6
CONTINUOUS
 62
     7
 10
3.3120393073000001
 20
-0.0491569542
 30
0.0
  0
VERTEX
  5
460
  8
0
  6
CONTINUOUS
 62
     7
 10
3.3080704306999991
 20
-0.0498692001
 30
0.0
  0
VERTEX
  5
461
  8
0
  6
CONTINUOUS
 62
     7
 10
3.303657306799999
 20
-0.0505850949
 30
0.0
  0
SEQEND
  5
462
  8
0
  6
CONTINUOUS
 62
     7
  0
POLYLINE
  5
2ED
  8
0
  6
CONTINUOUS
 62
     7
 66
     1
 10
0.0
 20
0.0
 30
0.0
  0
VERTEX
  5
463
  8
0
  6
CONTINUOUS
 62
     7
 10
3.6838924139999989
 20
1.4438329128
 30
0.0
  0
VERTEX
  5
464
  8
0
  6
CONTINUOUS
 62
     7
 10
3.6808357305999988
 20
1.4727627332999991
 30
0.0
  0
VERTEX
  5
465
  8
0
  6
CONTINUOUS
 62
     7
 10
3.680364047299999
 20
1.4871628239000001
 30
0.0
  0
SEQEND
  5
466
  8
0
  6
CONTINUOUS
 62
     7
  0
LINE
  5
2EE
  8
0
  6
CONTINUOUS
 62
     7
 10
3.6803420973000001
 20
1.4897215610000001
 30
0.0
 11
3.6777806959999988
 21
1.7832290740000001
 31
0.0
  0
LINE
  5
2F1
  8
0
  6
CONTINUOUS
 62
     7
 10
1.2619464879999991
 20
2.603919966499999
 30
0.0
 11
3.4752742134999992
 21
2.603919966499999
 31
0.0
  0
LINE
  5
303
  8
0
  6
CONTINUOUS
 62
     7
 10
3.796831024099999
 20
0.8149199664999999
 30
0.0
 11
3.7519053699999989
 21
0.9830951625999999
 31
0.0
  0
LINE
  5
304
  8
0
  6
CONTINUOUS
 62
     7
 10
3.750926844099999
 20
0.9870852004999999
 30
0.0
 11
3.7519054256999991
 21
0.9830949511
 31
0.0
  0
LINE
  5
305
  8
0
  6
CONTINUOUS
 62
     7
 10
3.750115293099999
 20
0.9910998814000001
 30
0.0
 11
3.750926844099999
 21
0.9870852004999999
 31
0.0
  0
LINE
  5
306
  8
0
  6
CONTINUOUS
 62
     7
 10
3.7494711231999989
 20
0.9951276679000001
 30
0.0
 11
3.750115293099999
 21
0.9910998814000001
 31
0.0
  0
LINE
  5
307
  8
0
  6
CONTINUOUS
 62
     7
 10
3.7450142449999988
 20
1.0494859983
 30
0.0
 11
3.6838906355000001
 21
1.4438318659
 31
0.0
  0
POLYLINE
  5
308
  8
0
  6
CONTINUOUS
 62
     7
 66
     1
 10
0.0
 20
0.0
 30
0.0
  0
VERTEX
  5
467
  8
0
  6
CONTINUOUS
 62
     7
 10
3.749470260799999
 20
0.9951330613999999
 30
0.0
  0
VERTEX
  5
468
  8
0
  6
CONTINUOUS
 62
     7
 10
3.748992397499999
 20
0.9991702031
 30
0.0
  0
VERTEX
  5
469
  8
0
  6
CONTINUOUS
 62
     7
 10
3.7486798958000001
 20
1.0032080160000001
 30
0.0
  0
SEQEND
  5
46A
  8
0
  6
CONTINUOUS
 62
     7
  0
LINE
  5
309
  8
0
  6
CONTINUOUS
 62
     7
 10
3.6777806959999988
 20
1.7832290740000001
 30
0.0
 11
3.6559663742999988
 21
1.9824142470999999
 31
0.0
  0
POLYLINE
  5
30A
  8
0
  6
CONTINUOUS
 62
     7
 66
     1
 10
0.0
 20
0.0
 30
0.0
  0
VERTEX
  5
46B
  8
0
  6
CONTINUOUS
 62
     7
 10
3.7485046999999989
 20
1.0087749068
 30
0.0
  0
VERTEX
  5
46C
  8
0
  6
CONTINUOUS
 62
     7
 10
3.7471383562999989
 20
1.0326111481999991
 30
0.0
  0
VERTEX
  5
46D
  8
0
  6
CONTINUOUS
 62
     7
 10
3.7450104104999991
 20
1.0494882482000001
 30
0.0
  0
SEQEND
  5
46E
  8
0
  6
CONTINUOUS
 62
     7
  0
POLYLINE
  5
30B
  8
0
  6
CONTINUOUS
 62
     7
 66
     1
 10
0.0
 20
0.0
 30
0.0
  0
VERTEX
  5
46F
  8
0
  6
CONTINUOUS
 62
     7
 10
3.7487379020999989
 20
0.9954147667999999
 30
0.0
  0
VERTEX
  5
470
  8
0
  6
CONTINUOUS
 62
     7
 10
3.7487800374999991
 20
0.9943300389000001
 30
0.0
  0
VERTEX
  5
471
  8
0
  6
CONTINUOUS
 62
     7
 10
3.748845785399999
 20
0.9932290232999999
 30
0.0
  0
VERTEX
  5
472
  8
0
  6
CONTINUOUS
 62
     7
 10
3.7489385215999991
 20
0.9921126948000001
 30
0.0
  0
VERTEX
  5
473
  8
0
  6
CONTINUOUS
 62
     7
 10
3.7490661395
 20
0.990969003
 30
0.0
  0
VERTEX
  5
474
  8
0
  6
CONTINUOUS
 62
     7
 10
3.7492263789999991
 20
0.9898122065
 30
0.0
  0
VERTEX
  5
475
  8
0
  6
CONTINUOUS
 62
     7
 10
3.7494046799
 20
0.9886822008999999
 30
0.0
  0
VERTEX
  5
476
  8
0
  6
CONTINUOUS
 62
     7
 10
3.7495995655999992
 20
0.9875808595999998
 30
0.0
  0
VERTEX
  5
477
  8
0
  6
CONTINUOUS
 62
     7
 10
3.7498117622999989
 20
0.9865071726
 30
0.0
  0
VERTEX
  5
478
  8
0
  6
CONTINUOUS
 62
     7
 10
3.7500265756999989
 20
0.9854956217999999
 30
0.0
  0
VERTEX
  5
479
  8
0
  6
CONTINUOUS
 62
     7
 10
3.750237419899999
 20
0.9845574258000001
 30
0.0
  0
VERTEX
  5
47A
  8
0
  6
CONTINUOUS
 62
     7
 10
3.750447246799999
 20
0.9836810455
 30
0.0
  0
VERTEX
  5
47B
  8
0
  6
CONTINUOUS
 62
     7
 10
3.7506545023999989
 20
0.9828663296
 30
0.0
  0
SEQEND
  5
47C
  8
0
  6
CONTINUOUS
 62
     7
  0
LINE
  5
30C
  8
0
  6
CONTINUOUS
 62
     7
 10
3.7486798958000001
 20
1.0032080160000001
 30
0.0
 11
3.7485313986999991
 21
1.0072397324999991
 31
0.0
  0
LINE
  5
30D
  8
0
  6
CONTINUOUS
 62
     7
 10
3.7521328215
 20
0.8009199665
 30
0.0
 11
3.7485271800999991
 21
1.0074870245000001
 31
0.0
  0
LINE
  5
30E
  8
0
  6
CONTINUOUS
 62
     7
 10
3.6559663742999988
 20
1.9824142470999999
 30
0.0
 11
3.5339630720999988
 21
2.5563946560999988
 31
0.0
  0
LINE
  5
30F
  8
0
  6
CONTINUOUS
 62
     7
 10
4.1096409193999994
 20
0.6474297847
 30
0.0
 11
4.1369203364000002
 21
0.2573159464
 31
0.0
  0
LINE
  5
313
  8
0
  6
CONTINUOUS
 62
     7
 10
4.8068856555999986
 20
0.0770431316
 30
0.0
 11
4.8068810965999988
 21
0.0769125797
 31
0.0
  0
LINE
  5
314
  8
0
  6
CONTINUOUS
 62
     7
 10
4.8069254377999986
 20
0.078182347
 30
0.0
 11
4.8131321722999987
 21
0.2559199665
 31
0.0
  0
ARC
  5
317
  8
0
  6
CONTINUOUS
 62
     7
 10
0.2744019799
 20
3.9659199664999991
 30
0.0
 40
3.9750000000000001
 50
269.60607248060001
 51
270.6434397031
  0
ARC
  5
318
  8
0
  6
CONTINUOUS
 62
     7
 10
4.7269298315999988
 20
0.079704574
 30
0.0
 40
0.08
 50
274.92574873680002
 51
357.99999999969998
  0
ARC
  5
319
  8
0
  6
CONTINUOUS
 62
     7
 10
0.7887611087000001
 20
0.6359199665
 30
0.0
 40
0.165
 50
90.0
 51
176.0
  0
ARC
  5
31B
  8
0
  6
CONTINUOUS
 62
     7
 10
0.0068741282
 20
0.079704574
 30
0.0
 40
0.08
 50
182.00000000029999
 51
265.0742512754
  0
ARC
  5
31C
  8
0
  6
CONTINUOUS
 62
     7
 10
3.9450428511000002
 20
0.6359199665
 30
0.0
 40
0.165
 50
4.0
 51
90.0
  0
ARC
  5
31D
  8
0
  6
CONTINUOUS
 62
     7
 10
1.2585297463
 20
2.543919966499999
 30
0.0
 40
0.06
 50
90.0
 51
167.9999995405
  0
ARC
  5
31E
  8
0
  6
CONTINUOUS
 62
     7
 10
3.4752742134999992
 20
2.543919966499999
 30
0.0
 40
0.06
 50
11.9999883803
 51
89.999949356900004
  0
LINE
  5
325
  8
0
 10
-0.073121478
 20
0.078182347
 30
0.0
 11
-0.0730816957
 21
0.0770431316
 31
0.0
  0
ATTDEF
  5
326
  8
0
 10
0.0
 20
0.0
 30
0.0
 40
0.001
  1
K-8003
 41
0.8
  3

  2
MODELNUMBER
 70
     8
  0
ATTDEF
  5
327
  8
0
 10
0.0
 20
-0.0016666666666667
 30
0.0
 40
0.001
  1
WATERTILE
 41
0.8
  3

  2
TRADENAME
 70
     8
  0
ATTDEF
  5
328
  8
0
 10
0.0
 20
-0.0033333333333333
 30
0.0
 40
0.001
  1
BODYSPRAY
 41
0.8
  3

  2
PRODUCT
 70
     8
  0
ATTDEF
  5
329
  8
0
 10
0.0
 20
-0.005
 30
0.0
 40
0.001
  1
BRASS
 41
0.8
  3

  2
MATERIAL
 70
     8
  0
ENDSEC
  0
EOF
