  0
SECTION
  2
HEADER
  9
$ACADVER
  1
AC1009
  9
$INSBASE
 10
0.0
 20
0.0
 30
0.0
  9
$EXTMIN
 10
-0.2330497521
 20
-0.1603881819
 30
0.0
  9
$EXTMAX
 10
4.833213205499999
 20
4.8897358738000003
 30
0.0
  9
$LIMMIN
 10
0.0
 20
0.0
  9
$LIMMAX
 10
4.9000000000000004
 20
4.9000000000000004
  9
$ORTHOMODE
 70
     0
  9
$REGENMODE
 70
     1
  9
$FILLMODE
 70
     1
  9
$QTEXTMODE
 70
     0
  9
$MIRRTEXT
 70
     1
  9
$DRAGMODE
 70
     2
  9
$LTSCALE
 40
0.3194074074
  9
$OSMODE
 70
    37
  9
$ATTMODE
 70
     1
  9
$TEXTSIZE
 40
0.001
  9
$TRACEWID
 40
0.05
  9
$TEXTSTYLE
  7
STANDARD
  9
$CLAYER
  8
0
  9
$CELTYPE
  6
BYLAYER
  9
$CECOLOR
 62
   256
  9
$DIMSCALE
 40
1.0
  9
$DIMASZ
 40
0.1875
  9
$DIMEXO
 40
0.0362962963
  9
$DIMDLI
 40
0.2206814815
  9
$DIMRND
 40
0.0
  9
$DIMDLE
 40
0.0
  9
$DIMEXE
 40
0.1045333333
  9
$DIMTP
 40
0.01
  9
$DIMTM
 40
0.01
  9
$DIMTXT
 40
0.15625
  9
$DIMCEN
 40
0.0522666667
  9
$DIMTSZ
 40
0.0
  9
$DIMTOL
 70
     1
  9
$DIMLIM
 70
     0
  9
$DIMTIH
 70
     1
  9
$DIMTOH
 70
     1
  9
$DIMSE1
 70
     0
  9
$DIMSE2
 70
     0
  9
$DIMTAD
 70
     0
  9
$DIMZIN
 70
     0
  9
$DIMBLK
  1

  9
$DIMASO
 70
     1
  9
$DIMSHO
 70
     1
  9
$DIMPOST
  1

  9
$DIMAPOST
  1

  9
$DIMALT
 70
     0
  9
$DIMALTD
 70
     2
  9
$DIMALTF
 40
25.399999999999999
  9
$DIMLFAC
 40
1.0
  9
$DIMTOFL
 70
     0
  9
$DIMTVP
 40
0.0
  9
$DIMTIX
 70
     0
  9
$DIMSOXD
 70
     0
  9
$DIMSAH
 70
     0
  9
$DIMBLK1
  1

  9
$DIMBLK2
  1

  9
$DIMSTYLE
  2
STANDARD
  9
$DIMCLRD
 70
     0
  9
$DIMCLRE
 70
     0
  9
$DIMCLRT
 70
     0
  9
$DIMTFAC
 40
1.0
  9
$DIMGAP
 40
0.09
  9
$LUNITS
 70
     2
  9
$LUPREC
 70
     4
  9
$SKETCHINC
 40
0.1
  9
$FILLETRAD
 40
0.0
  9
$AUNITS
 70
     0
  9
$AUPREC
 70
     0
  9
$MENU
  1
acad
  9
$ELEVATION
 40
0.0
  9
$PELEVATION
 40
0.0
  9
$THICKNESS
 40
0.0
  9
$LIMCHECK
 70
     0
  9
$BLIPMODE
 70
     0
  9
$CHAMFERA
 40
0.0
  9
$CHAMFERB
 40
0.0
  9
$SKPOLY
 70
     0
  9
$TDCREATE
 40
2453514.5067729978
  9
$TDUPDATE
 40
2453514.5094420831
  9
$TDINDWG
 40
0.002669456
  9
$TDUSRTIMER
 40
0.002669456
  9
$USRTIMER
 70
     1
  9
$ANGBASE
 50
0.0
  9
$ANGDIR
 70
     0
  9
$PDMODE
 70
     3
  9
$PDSIZE
 40
0.3125
  9
$PLINEWID
 40
0.0
  9
$COORDS
 70
     1
  9
$SPLFRAME
 70
     0
  9
$SPLINETYPE
 70
     6
  9
$SPLINESEGS
 70
     8
  9
$ATTDIA
 70
     0
  9
$ATTREQ
 70
     1
  9
$HANDLING
 70
     1
  9
$HANDSEED
  5
8B0
  9
$SURFTAB1
 70
     6
  9
$SURFTAB2
 70
     6
  9
$SURFTYPE
 70
     6
  9
$SURFU
 70
     6
  9
$SURFV
 70
     6
  9
$UCSNAME
  2

  9
$UCSORG
 10
0.0
 20
0.0
 30
0.0
  9
$UCSXDIR
 10
1.0
 20
0.0
 30
0.0
  9
$UCSYDIR
 10
0.0
 20
1.0
 30
0.0
  9
$PUCSNAME
  2

  9
$PUCSORG
 10
0.0
 20
0.0
 30
0.0
  9
$PUCSXDIR
 10
1.0
 20
0.0
 30
0.0
  9
$PUCSYDIR
 10
0.0
 20
1.0
 30
0.0
  9
$USERI1
 70
     0
  9
$USERI2
 70
     0
  9
$USERI3
 70
     0
  9
$USERI4
 70
     0
  9
$USERI5
 70
     0
  9
$USERR1
 40
0.0
  9
$USERR2
 40
0.0
  9
$USERR3
 40
0.0
  9
$USERR4
 40
0.0
  9
$USERR5
 40
0.0
  9
$WORLDVIEW
 70
     1
  9
$SHADEDGE
 70
     3
  9
$SHADEDIF
 70
    70
  9
$TILEMODE
 70
     1
  9
$MAXACTVP
 70
    16
  9
$PLIMCHECK
 70
     0
  9
$PEXTMIN
 10
1.0000000000000000E+020
 20
1.0000000000000000E+020
 30
1.0000000000000000E+020
  9
$PEXTMAX
 10
-1.0000000000000000E+020
 20
-1.0000000000000000E+020
 30
-1.0000000000000000E+020
  9
$PLIMMIN
 10
0.0
 20
0.0
  9
$PLIMMAX
 10
12.0
 20
9.0
  9
$UNITMODE
 70
     0
  9
$VISRETAIN
 70
     0
  9
$PLINEGEN
 70
     1
  9
$PSLTSCALE
 70
     0
  0
ENDSEC
  0
SECTION
  2
TABLES
  0
TABLE
  2
VPORT
 70
     3
  0
VPORT
  2
*ACTIVE
 70
     0
 10
0.0
 20
0.0
 11
1.0
 21
1.0
 12
2.4695822775636711
 22
2.413493136189405
 13
0.0
 23
0.0
 14
1.0
 24
1.0
 15
0.0
 25
0.0
 16
0.0
 26
0.0
 36
1.0
 17
0.0
 27
0.0
 37
0.0
 40
5.7799998098332628
 41
1.628879892037786
 42
50.0
 43
0.0
 44
0.0
 50
0.0
 51
0.0
 71
     0
 72
   100
 73
     1
 74
     1
 75
     0
 76
     0
 77
     0
 78
     0
  0
ENDTAB
  0
TABLE
  2
LTYPE
 70
     6
  0
LTYPE
  2
CONTINUOUS
 70
     0
  3
Solid line
 72
    65
 73
     0
 40
0.0
  0
LTYPE
  2
CENTER
 70
     0
  3
____ _ ____ _ ____ _ ____ _ ____ _ ____ _ ____
 72
    65
 73
     4
 40
0.6
 49
0.375
 49
-0.075
 49
0.075
 49
-0.075
  0
LTYPE
  2
HIDDEN
 70
     0
  3
- - - - - - - - - - - - - - - - - - - -
 72
    65
 73
     2
 40
0.2
 49
0.1
 49
-0.1
  0
LTYPE
  2
PHANTOM
 70
     0
  3
_____ _ _ _____ _ _ _____ _ _ _____
 72
    65
 73
     6
 40
0.8
 49
0.45
 49
-0.05
 49
0.1
 49
-0.05
 49
0.1
 49
-0.05
  0
LTYPE
  2
DOT
 70
     0
  3
. . . . . . . . . . . . . . . . . . . .
 72
    65
 73
     2
 40
0.2
 49
0.1
 49
-0.1
  0
LTYPE
  2
DASHED
 70
     0
  3
- - - - - - - - - - - - - - - - - - - -
 72
    65
 73
     2
 40
0.2
 49
0.1
 49
-0.1
  0
ENDTAB
  0
TABLE
  2
LAYER
 70
    26
  0
LAYER
  2
0
 70
     0
 62
     7
  6
CONTINUOUS
  0
LAYER
  2
DEFAULT_1
 70
     0
 62
     7
  6
CENTER
  0
LAYER
  2
DEFAULT_2
 70
     0
 62
     8
  6
HIDDEN
  0
LAYER
  2
DEFAULT_3
 70
     0
 62
     7
  6
PHANTOM
  0
LAYER
  2
_BLACK_HOLE
 70
     0
 62
     7
  6
CONTINUOUS
  0
LAYER
  2
AXIS
 70
     0
 62
     7
  6
CONTINUOUS
  0
LAYER
  2
COSM_SKETCH
 70
     0
 62
     7
  6
CONTINUOUS
  0
LAYER
  2
CURVE
 70
     0
 62
     7
  6
CONTINUOUS
  0
LAYER
  2
DATUMS
 70
     0
 62
     7
  6
CONTINUOUS
  0
LAYER
  2
DATUM_AXIS
 70
     0
 62
     7
  6
CONTINUOUS
  0
LAYER
  2
DATUM_CSYS
 70
     0
 62
     7
  6
CONTINUOUS
  0
LAYER
  2
DATUM_PLANE
 70
     0
 62
     7
  6
CONTINUOUS
  0
LAYER
  2
DATUM_PLN
 70
     0
 62
     7
  6
CONTINUOUS
  0
LAYER
  2
DATUM_POINT
 70
     0
 62
     7
  6
CONTINUOUS
  0
LAYER
  2
PARAM_DIM
 70
     0
 62
     7
  6
CONTINUOUS
  0
LAYER
  2
SURFACE
 70
     0
 62
     7
  6
CONTINUOUS
  0
LAYER
  2
WHITE
 70
     0
 62
     7
  6
CONTINUOUS
  0
LAYER
  2
XSEC_DATUMS
 70
     0
 62
     7
  6
CONTINUOUS
  0
LAYER
  2
_CURVE
 70
     0
 62
     7
  6
CONTINUOUS
  0
LAYER
  2
_SURFACE
 70
     0
 62
     7
  6
CONTINUOUS
  0
LAYER
  2
__REF_CURVE
 70
     0
 62
     7
  6
CONTINUOUS
  0
LAYER
  2
__REF_SURFACE
 70
     0
 62
     7
  6
CONTINUOUS
  0
LAYER
  2
___COSMETIC_SKETCH
 70
     0
 62
     7
  6
CONTINUOUS
  0
LAYER
  2
___COSMETIC_THREAD
 70
     0
 62
     7
  6
CONTINUOUS
  0
LAYER
  2
___GDT
 70
     0
 62
     7
  6
CONTINUOUS
  0
LAYER
  2
___NOTE
 70
     0
 62
     7
  6
CONTINUOUS
  0
ENDTAB
  0
TABLE
  2
STYLE
 70
     1
  0
STYLE
  2
STANDARD
 70
     0
 40
0.0
 41
0.8
 50
0.0
 71
     0
 42
0.001
  3
txt
  4

  0
ENDTAB
  0
TABLE
  2
VIEW
 70
     0
  0
ENDTAB
  0
TABLE
  2
UCS
 70
     0
  0
ENDTAB
  0
TABLE
  2
APPID
 70
     2
  0
APPID
  2
ACAD
 70
     0
  0
APPID
  2
DCO15
 70
     0
  0
ENDTAB
  0
TABLE
  2
DIMSTYLE
 70
     1
  0
DIMSTYLE
  2
STANDARD
 70
     0
  3

  4

  5

  6

  7

 40
1.0
 41
0.1875
 42
0.0625
 43
0.38
 44
0.18
 45
0.0
 46
0.0
 47
0.01
 48
0.01
140
0.15625
141
0.09
142
0.0
143
25.399999999999999
144
1.0
145
0.0
146
1.0
147
0.09
 71
     1
 72
     0
 73
     1
 74
     1
 75
     0
 76
     0
 77
     0
 78
     4
170
     0
171
     2
172
     0
173
     0
174
     0
175
     0
176
     0
177
     0
178
     0
  0
ENDTAB
  0
ENDSEC
  0
SECTION
  2
BLOCKS
  0
BLOCK
  8
0
  2
$MODEL_SPACE
 70
     0
 10
0.0
 20
0.0
 30
0.0
  3
$MODEL_SPACE
  1

  0
ENDBLK
  5
21
  8
0
  0
BLOCK
 67
     1
  8
0
  2
$PAPER_SPACE
 70
     0
 10
0.0
 20
0.0
 30
0.0
  3
$PAPER_SPACE
  1

  0
ENDBLK
  5
1D
 67
     1
  8
0
  0
ENDSEC
  0
SECTION
  2
ENTITIES
  0
POLYLINE
  5
215
  8
0
  6
CONTINUOUS
 62
     7
 66
     1
 10
0.0
 20
0.0
 30
0.0
  0
VERTEX
  5
39C
  8
0
  6
CONTINUOUS
 62
     7
 10
0.6705679963
 20
0.7270837217000001
 30
0.0
  0
VERTEX
  5
39D
  8
0
  6
CONTINUOUS
 62
     7
 10
0.6718684376999999
 20
0.7258092763000001
 30
0.0
  0
VERTEX
  5
39E
  8
0
  6
CONTINUOUS
 62
     7
 10
0.6731944625999999
 20
0.7245609052000001
 30
0.0
  0
VERTEX
  5
39F
  8
0
  6
CONTINUOUS
 62
     7
 10
0.6745454723000001
 20
0.7233392241
 30
0.0
  0
VERTEX
  5
3A0
  8
0
  6
CONTINUOUS
 62
     7
 10
0.6759208683
 20
0.7221448487
 30
0.0
  0
VERTEX
  5
3A1
  8
0
  6
CONTINUOUS
 62
     7
 10
0.6773200518
 20
0.7209783949000002
 30
0.0
  0
VERTEX
  5
3A2
  8
0
  6
CONTINUOUS
 62
     7
 10
0.6788560627
 20
0.7197515556000002
 30
0.0
  0
VERTEX
  5
3A3
  8
0
  6
CONTINUOUS
 62
     7
 10
0.6804183813
 20
0.7185585223000001
 30
0.0
  0
VERTEX
  5
3A4
  8
0
  6
CONTINUOUS
 62
     7
 10
0.6820063079000001
 20
0.7173998643
 30
0.0
  0
VERTEX
  5
3A5
  8
0
  6
CONTINUOUS
 62
     7
 10
0.6836191425
 20
0.7162761508
 30
0.0
  0
VERTEX
  5
3A6
  8
0
  6
CONTINUOUS
 62
     7
 10
0.6852561851
 20
0.7151879512
 30
0.0
  0
VERTEX
  5
3A7
  8
0
  6
CONTINUOUS
 62
     7
 10
0.6870568948
 20
0.7140493226000001
 30
0.0
  0
VERTEX
  5
3A8
  8
0
  6
CONTINUOUS
 62
     7
 10
0.6888841938
 20
0.7129537250000001
 30
0.0
  0
VERTEX
  5
3A9
  8
0
  6
CONTINUOUS
 62
     7
 10
0.6907370587
 20
0.7119018062000001
 30
0.0
  0
VERTEX
  5
3AA
  8
0
  6
CONTINUOUS
 62
     7
 10
0.6926144661000001
 20
0.7108942142
 30
0.0
  0
VERTEX
  5
3AB
  8
0
  6
CONTINUOUS
 62
     7
 10
0.6945153927
 20
0.7099315968
 30
0.0
  0
VERTEX
  5
3AC
  8
0
  6
CONTINUOUS
 62
     7
 10
0.6962545128000001
 20
0.7091000111
 30
0.0
  0
VERTEX
  5
3AD
  8
0
  6
CONTINUOUS
 62
     7
 10
0.6980112118
 20
0.7083061405
 30
0.0
  0
VERTEX
  5
3AE
  8
0
  6
CONTINUOUS
 62
     7
 10
0.6997846572000001
 20
0.7075503613000002
 30
0.0
  0
VERTEX
  5
3AF
  8
0
  6
CONTINUOUS
 62
     7
 10
0.7015740166
 20
0.7068330493000001
 30
0.0
  0
VERTEX
  5
3B0
  8
0
  6
CONTINUOUS
 62
     7
 10
0.7033784573000002
 20
0.7061545808
 30
0.0
  0
VERTEX
  5
3B1
  8
0
  6
CONTINUOUS
 62
     7
 10
0.7051971469
 20
0.7055153316000001
 30
0.0
  0
VERTEX
  5
3B2
  8
0
  6
CONTINUOUS
 62
     7
 10
0.7071825462
 20
0.7048674749
 30
0.0
  0
VERTEX
  5
3B3
  8
0
  6
CONTINUOUS
 62
     7
 10
0.7091826539000001
 20
0.7042664473000001
 30
0.0
  0
VERTEX
  5
3B4
  8
0
  6
CONTINUOUS
 62
     7
 10
0.7111964321000001
 20
0.7037126066
 30
0.0
  0
VERTEX
  5
3B5
  8
0
  6
CONTINUOUS
 62
     7
 10
0.7132228431000001
 20
0.7032063107000001
 30
0.0
  0
VERTEX
  5
3B6
  8
0
  6
CONTINUOUS
 62
     7
 10
0.7152608492
 20
0.7027479175
 30
0.0
  0
VERTEX
  5
3B7
  8
0
  6
CONTINUOUS
 62
     7
 10
0.7173094124000001
 20
0.7023377847
 30
0.0
  0
VERTEX
  5
3B8
  8
0
  6
CONTINUOUS
 62
     7
 10
0.7192141339
 20
0.7020014341000002
 30
0.0
  0
VERTEX
  5
3B9
  8
0
  6
CONTINUOUS
 62
     7
 10
0.7211259057000001
 20
0.7017068315000001
 30
0.0
  0
VERTEX
  5
3BA
  8
0
  6
CONTINUOUS
 62
     7
 10
0.7230436217000001
 20
0.7014540669000001
 30
0.0
  0
VERTEX
  5
3BB
  8
0
  6
CONTINUOUS
 62
     7
 10
0.7249661756
 20
0.7012432305000002
 30
0.0
  0
VERTEX
  5
3BC
  8
0
  6
CONTINUOUS
 62
     7
 10
0.7268924612000001
 20
0.7010744123000001
 30
0.0
  0
VERTEX
  5
3BD
  8
0
  6
CONTINUOUS
 62
     7
 10
0.7288213722
 20
0.7009477023000001
 30
0.0
  0
VERTEX
  5
3BE
  8
0
  6
CONTINUOUS
 62
     7
 10
0.7307518024000002
 20
0.7008631907
 30
0.0
  0
SEQEND
  5
3BF
  8
0
  6
CONTINUOUS
 62
     7
  0
POLYLINE
  5
216
  8
0
  6
CONTINUOUS
 62
     7
 66
     1
 10
0.0
 20
0.0
 30
0.0
  0
VERTEX
  5
3C0
  8
0
  6
CONTINUOUS
 62
     7
 10
0.6705679963
 20
4.1599276411999986
 30
0.0
  0
VERTEX
  5
3C1
  8
0
  6
CONTINUOUS
 62
     7
 10
0.6718684376999999
 20
4.1612020865999986
 30
0.0
  0
VERTEX
  5
3C2
  8
0
  6
CONTINUOUS
 62
     7
 10
0.6731944625999999
 20
4.1624504577000003
 30
0.0
  0
VERTEX
  5
3C3
  8
0
  6
CONTINUOUS
 62
     7
 10
0.6745454723000001
 20
4.1636721387999991
 30
0.0
  0
VERTEX
  5
3C4
  8
0
  6
CONTINUOUS
 62
     7
 10
0.6759208683
 20
4.164866514199999
 30
0.0
  0
VERTEX
  5
3C5
  8
0
  6
CONTINUOUS
 62
     7
 10
0.6773200518
 20
4.1660329679999988
 30
0.0
  0
VERTEX
  5
3C6
  8
0
  6
CONTINUOUS
 62
     7
 10
0.6788560627
 20
4.1672598072999989
 30
0.0
  0
VERTEX
  5
3C7
  8
0
  6
CONTINUOUS
 62
     7
 10
0.6804183813
 20
4.1684528405999988
 30
0.0
  0
VERTEX
  5
3C8
  8
0
  6
CONTINUOUS
 62
     7
 10
0.6820063079000001
 20
4.1696114986000001
 30
0.0
  0
VERTEX
  5
3C9
  8
0
  6
CONTINUOUS
 62
     7
 10
0.6836191425
 20
4.1707352121000003
 30
0.0
  0
VERTEX
  5
3CA
  8
0
  6
CONTINUOUS
 62
     7
 10
0.6852561851
 20
4.1718234117000002
 30
0.0
  0
VERTEX
  5
3CB
  8
0
  6
CONTINUOUS
 62
     7
 10
0.6870568948
 20
4.172962040299999
 30
0.0
  0
VERTEX
  5
3CC
  8
0
  6
CONTINUOUS
 62
     7
 10
0.6888841938
 20
4.174057637899999
 30
0.0
  0
VERTEX
  5
3CD
  8
0
  6
CONTINUOUS
 62
     7
 10
0.6907370587
 20
4.1751095566999989
 30
0.0
  0
VERTEX
  5
3CE
  8
0
  6
CONTINUOUS
 62
     7
 10
0.6926144661000001
 20
4.1761171486999986
 30
0.0
  0
VERTEX
  5
3CF
  8
0
  6
CONTINUOUS
 62
     7
 10
0.6945153927
 20
4.1770797661000003
 30
0.0
  0
VERTEX
  5
3D0
  8
0
  6
CONTINUOUS
 62
     7
 10
0.6962545128000001
 20
4.1779113517999988
 30
0.0
  0
VERTEX
  5
3D1
  8
0
  6
CONTINUOUS
 62
     7
 10
0.6980112118
 20
4.1787052223999988
 30
0.0
  0
VERTEX
  5
3D2
  8
0
  6
CONTINUOUS
 62
     7
 10
0.6997846572000001
 20
4.1794610016
 30
0.0
  0
VERTEX
  5
3D3
  8
0
  6
CONTINUOUS
 62
     7
 10
0.7015740166
 20
4.180178313599999
 30
0.0
  0
VERTEX
  5
3D4
  8
0
  6
CONTINUOUS
 62
     7
 10
0.7033784573000002
 20
4.1808567821000002
 30
0.0
  0
VERTEX
  5
3D5
  8
0
  6
CONTINUOUS
 62
     7
 10
0.7051971469
 20
4.1814960313
 30
0.0
  0
VERTEX
  5
3D6
  8
0
  6
CONTINUOUS
 62
     7
 10
0.7071825462
 20
4.1821438879999988
 30
0.0
  0
VERTEX
  5
3D7
  8
0
  6
CONTINUOUS
 62
     7
 10
0.7091826539000001
 20
4.182744915699999
 30
0.0
  0
VERTEX
  5
3D8
  8
0
  6
CONTINUOUS
 62
     7
 10
0.7111964321000001
 20
4.1832987563000001
 30
0.0
  0
VERTEX
  5
3D9
  8
0
  6
CONTINUOUS
 62
     7
 10
0.7132228431000001
 20
4.1838050522000003
 30
0.0
  0
VERTEX
  5
3DA
  8
0
  6
CONTINUOUS
 62
     7
 10
0.7152608492
 20
4.1842634454000001
 30
0.0
  0
VERTEX
  5
3DB
  8
0
  6
CONTINUOUS
 62
     7
 10
0.7173094124000001
 20
4.1846735781999991
 30
0.0
  0
VERTEX
  5
3DC
  8
0
  6
CONTINUOUS
 62
     7
 10
0.7192141339
 20
4.1850099287999987
 30
0.0
  0
VERTEX
  5
3DD
  8
0
  6
CONTINUOUS
 62
     7
 10
0.7211259057000001
 20
4.185304531399999
 30
0.0
  0
VERTEX
  5
3DE
  8
0
  6
CONTINUOUS
 62
     7
 10
0.7230436217000001
 20
4.1855572959999989
 30
0.0
  0
VERTEX
  5
3DF
  8
0
  6
CONTINUOUS
 62
     7
 10
0.7249661756
 20
4.1857681323999989
 30
0.0
  0
VERTEX
  5
3E0
  8
0
  6
CONTINUOUS
 62
     7
 10
0.7268924612000001
 20
4.1859369505999986
 30
0.0
  0
VERTEX
  5
3E1
  8
0
  6
CONTINUOUS
 62
     7
 10
0.7288213722
 20
4.1860636605999986
 30
0.0
  0
VERTEX
  5
3E2
  8
0
  6
CONTINUOUS
 62
     7
 10
0.7307518024000002
 20
4.1861481722000002
 30
0.0
  0
SEQEND
  5
3E3
  8
0
  6
CONTINUOUS
 62
     7
  0
POLYLINE
  5
217
  8
0
  6
CONTINUOUS
 62
     7
 66
     1
 10
0.0
 20
0.0
 30
0.0
  0
VERTEX
  5
3E4
  8
0
  6
CONTINUOUS
 62
     7
 10
0.6443405224000001
 20
0.7872744707
 30
0.0
  0
VERTEX
  5
3E5
  8
0
  6
CONTINUOUS
 62
     7
 10
0.6444253612999999
 20
0.7853382695
 30
0.0
  0
VERTEX
  5
3E6
  8
0
  6
CONTINUOUS
 62
     7
 10
0.6445526979000001
 20
0.7834035225
 30
0.0
  0
VERTEX
  5
3E7
  8
0
  6
CONTINUOUS
 62
     7
 10
0.6447224329000001
 20
0.7814713078
 30
0.0
  0
VERTEX
  5
3E8
  8
0
  6
CONTINUOUS
 62
     7
 10
0.6449344668000001
 20
0.7795427033
 30
0.0
  0
VERTEX
  5
3E9
  8
0
  6
CONTINUOUS
 62
     7
 10
0.6451887004
 20
0.7776187871
 30
0.0
  0
VERTEX
  5
3EA
  8
0
  6
CONTINUOUS
 62
     7
 10
0.6454850341000001
 20
0.7757006374000001
 30
0.0
  0
VERTEX
  5
3EB
  8
0
  6
CONTINUOUS
 62
     7
 10
0.6458233687
 20
0.7737893321
 30
0.0
  0
VERTEX
  5
3EC
  8
0
  6
CONTINUOUS
 62
     7
 10
0.6462036049
 20
0.7718859494000001
 30
0.0
  0
VERTEX
  5
3ED
  8
0
  6
CONTINUOUS
 62
     7
 10
0.6466726369
 20
0.7697918662
 30
0.0
  0
VERTEX
  5
3EE
  8
0
  6
CONTINUOUS
 62
     7
 10
0.6471923378
 20
0.7677099334000002
 30
0.0
  0
VERTEX
  5
3EF
  8
0
  6
CONTINUOUS
 62
     7
 10
0.6477622711
 20
0.7656412974000001
 30
0.0
  0
VERTEX
  5
3F0
  8
0
  6
CONTINUOUS
 62
     7
 10
0.6483820004000001
 20
0.7635871049000002
 30
0.0
  0
VERTEX
  5
3F1
  8
0
  6
CONTINUOUS
 62
     7
 10
0.6490510892
 20
0.7615485025000001
 30
0.0
  0
VERTEX
  5
3F2
  8
0
  6
CONTINUOUS
 62
     7
 10
0.6497691011
 20
0.7595266367
 30
0.0
  0
VERTEX
  5
3F3
  8
0
  6
CONTINUOUS
 62
     7
 10
0.6505355997
 20
0.7575226541
 30
0.0
  0
VERTEX
  5
3F4
  8
0
  6
CONTINUOUS
 62
     7
 10
0.6513501485
 20
0.7555377014
 30
0.0
  0
VERTEX
  5
3F5
  8
0
  6
CONTINUOUS
 62
     7
 10
0.6521527843000001
 20
0.7537044728
 30
0.0
  0
VERTEX
  5
3F6
  8
0
  6
CONTINUOUS
 62
     7
 10
0.6529963455000001
 20
0.7518896543000001
 30
0.0
  0
VERTEX
  5
3F7
  8
0
  6
CONTINUOUS
 62
     7
 10
0.6538803364
 20
0.7500941038
 30
0.0
  0
VERTEX
  5
3F8
  8
0
  6
CONTINUOUS
 62
     7
 10
0.6548042612
 20
0.7483186790000002
 30
0.0
  0
VERTEX
  5
3F9
  8
0
  6
CONTINUOUS
 62
     7
 10
0.6557676240000001
 20
0.7465642376
 30
0.0
  0
VERTEX
  5
3FA
  8
0
  6
CONTINUOUS
 62
     7
 10
0.6567699292000001
 20
0.7448316376000002
 30
0.0
  0
VERTEX
  5
3FB
  8
0
  6
CONTINUOUS
 62
     7
 10
0.6578106808000001
 20
0.7431217367000002
 30
0.0
  0
VERTEX
  5
3FC
  8
0
  6
CONTINUOUS
 62
     7
 10
0.6588893832000001
 20
0.7414353927000001
 30
0.0
  0
VERTEX
  5
3FD
  8
0
  6
CONTINUOUS
 62
     7
 10
0.6600055405000002
 20
0.7397734634000001
 30
0.0
  0
VERTEX
  5
3FE
  8
0
  6
CONTINUOUS
 62
     7
 10
0.6611970643000001
 20
0.7380835259000002
 30
0.0
  0
VERTEX
  5
3FF
  8
0
  6
CONTINUOUS
 62
     7
 10
0.6624271363000001
 20
0.7364214387
 30
0.0
  0
VERTEX
  5
400
  8
0
  6
CONTINUOUS
 62
     7
 10
0.66369488
 20
0.7347880939
 30
0.0
  0
VERTEX
  5
401
  8
0
  6
CONTINUOUS
 62
     7
 10
0.664999419
 20
0.7331843833000001
 30
0.0
  0
VERTEX
  5
402
  8
0
  6
CONTINUOUS
 62
     7
 10
0.6663398766000001
 20
0.7316111989000002
 30
0.0
  0
VERTEX
  5
403
  8
0
  6
CONTINUOUS
 62
     7
 10
0.6677153763
 20
0.7300694325000001
 30
0.0
  0
VERTEX
  5
404
  8
0
  6
CONTINUOUS
 62
     7
 10
0.6691250417000001
 20
0.7285599762000001
 30
0.0
  0
VERTEX
  5
405
  8
0
  6
CONTINUOUS
 62
     7
 10
0.6705679963
 20
0.7270837217000001
 30
0.0
  0
SEQEND
  5
406
  8
0
  6
CONTINUOUS
 62
     7
  0
POLYLINE
  5
218
  8
0
  6
CONTINUOUS
 62
     7
 66
     1
 10
0.0
 20
0.0
 30
0.0
  0
VERTEX
  5
407
  8
0
  6
CONTINUOUS
 62
     7
 10
0.6443405224000001
 20
4.0997368922000001
 30
0.0
  0
VERTEX
  5
408
  8
0
  6
CONTINUOUS
 62
     7
 10
0.6444253612999999
 20
4.1016730933999996
 30
0.0
  0
VERTEX
  5
409
  8
0
  6
CONTINUOUS
 62
     7
 10
0.6445526979000001
 20
4.1036078403999996
 30
0.0
  0
VERTEX
  5
40A
  8
0
  6
CONTINUOUS
 62
     7
 10
0.6447224329000001
 20
4.1055400550999996
 30
0.0
  0
VERTEX
  5
40B
  8
0
  6
CONTINUOUS
 62
     7
 10
0.6449344668000001
 20
4.1074686596000003
 30
0.0
  0
VERTEX
  5
40C
  8
0
  6
CONTINUOUS
 62
     7
 10
0.6451887004
 20
4.1093925758000003
 30
0.0
  0
VERTEX
  5
40D
  8
0
  6
CONTINUOUS
 62
     7
 10
0.6454850341000001
 20
4.1113107255000001
 30
0.0
  0
VERTEX
  5
40E
  8
0
  6
CONTINUOUS
 62
     7
 10
0.6458233687
 20
4.1132220308000003
 30
0.0
  0
VERTEX
  5
40F
  8
0
  6
CONTINUOUS
 62
     7
 10
0.6462036049
 20
4.1151254136000004
 30
0.0
  0
VERTEX
  5
410
  8
0
  6
CONTINUOUS
 62
     7
 10
0.6466726369
 20
4.1172194966999989
 30
0.0
  0
VERTEX
  5
411
  8
0
  6
CONTINUOUS
 62
     7
 10
0.6471923378
 20
4.1193014295000001
 30
0.0
  0
VERTEX
  5
412
  8
0
  6
CONTINUOUS
 62
     7
 10
0.6477622711
 20
4.121370065499999
 30
0.0
  0
VERTEX
  5
413
  8
0
  6
CONTINUOUS
 62
     7
 10
0.6483820004000001
 20
4.123424258
 30
0.0
  0
VERTEX
  5
414
  8
0
  6
CONTINUOUS
 62
     7
 10
0.6490510892
 20
4.125462860399999
 30
0.0
  0
VERTEX
  5
415
  8
0
  6
CONTINUOUS
 62
     7
 10
0.6497691011
 20
4.1274847261999996
 30
0.0
  0
VERTEX
  5
416
  8
0
  6
CONTINUOUS
 62
     7
 10
0.6505355997
 20
4.1294887088000003
 30
0.0
  0
VERTEX
  5
417
  8
0
  6
CONTINUOUS
 62
     7
 10
0.6513501485
 20
4.1314736615000003
 30
0.0
  0
VERTEX
  5
418
  8
0
  6
CONTINUOUS
 62
     7
 10
0.6521527843000001
 20
4.1333068901000001
 30
0.0
  0
VERTEX
  5
419
  8
0
  6
CONTINUOUS
 62
     7
 10
0.6529963455000001
 20
4.1351217085999989
 30
0.0
  0
VERTEX
  5
41A
  8
0
  6
CONTINUOUS
 62
     7
 10
0.6538803364
 20
4.1369172590999996
 30
0.0
  0
VERTEX
  5
41B
  8
0
  6
CONTINUOUS
 62
     7
 10
0.6548042612
 20
4.1386926839999996
 30
0.0
  0
VERTEX
  5
41C
  8
0
  6
CONTINUOUS
 62
     7
 10
0.6557676240000001
 20
4.1404471252999988
 30
0.0
  0
VERTEX
  5
41D
  8
0
  6
CONTINUOUS
 62
     7
 10
0.6567699292000001
 20
4.1421797253000001
 30
0.0
  0
VERTEX
  5
41E
  8
0
  6
CONTINUOUS
 62
     7
 10
0.6578106808000001
 20
4.1438896262
 30
0.0
  0
VERTEX
  5
41F
  8
0
  6
CONTINUOUS
 62
     7
 10
0.6588893832000001
 20
4.1455759702000003
 30
0.0
  0
VERTEX
  5
420
  8
0
  6
CONTINUOUS
 62
     7
 10
0.6600055405000002
 20
4.1472378995000003
 30
0.0
  0
VERTEX
  5
421
  8
0
  6
CONTINUOUS
 62
     7
 10
0.6611970643000001
 20
4.1489278370999996
 30
0.0
  0
VERTEX
  5
422
  8
0
  6
CONTINUOUS
 62
     7
 10
0.6624271363000001
 20
4.1505899242000002
 30
0.0
  0
VERTEX
  5
423
  8
0
  6
CONTINUOUS
 62
     7
 10
0.66369488
 20
4.1522232690000003
 30
0.0
  0
VERTEX
  5
424
  8
0
  6
CONTINUOUS
 62
     7
 10
0.664999419
 20
4.1538269795999989
 30
0.0
  0
VERTEX
  5
425
  8
0
  6
CONTINUOUS
 62
     7
 10
0.6663398766000001
 20
4.1554001640999996
 30
0.0
  0
VERTEX
  5
426
  8
0
  6
CONTINUOUS
 62
     7
 10
0.6677153763
 20
4.1569419304000004
 30
0.0
  0
VERTEX
  5
427
  8
0
  6
CONTINUOUS
 62
     7
 10
0.6691250417000001
 20
4.1584513867999986
 30
0.0
  0
VERTEX
  5
428
  8
0
  6
CONTINUOUS
 62
     7
 10
0.6705679963
 20
4.1599276411999986
 30
0.0
  0
SEQEND
  5
429
  8
0
  6
CONTINUOUS
 62
     7
  0
POLYLINE
  5
219
  8
0
  6
CONTINUOUS
 62
     7
 66
     1
 10
0.0
 20
0.0
 30
0.0
  0
VERTEX
  5
42A
  8
0
  6
CONTINUOUS
 62
     7
 10
0.6442932265
 20
4.0964147034999989
 30
0.0
  0
VERTEX
  5
42B
  8
0
  6
CONTINUOUS
 62
     7
 10
0.6442924061000001
 20
4.0968298136000003
 30
0.0
  0
VERTEX
  5
42C
  8
0
  6
CONTINUOUS
 62
     7
 10
0.6442935047000001
 20
4.0972449262000001
 30
0.0
  0
VERTEX
  5
42D
  8
0
  6
CONTINUOUS
 62
     7
 10
0.6442965241000001
 20
4.0976600316000003
 30
0.0
  0
VERTEX
  5
42E
  8
0
  6
CONTINUOUS
 62
     7
 10
0.6443014663
 20
4.0980751195999989
 30
0.0
  0
VERTEX
  5
42F
  8
0
  6
CONTINUOUS
 62
     7
 10
0.6443083409
 20
4.0984906289999996
 30
0.0
  0
VERTEX
  5
430
  8
0
  6
CONTINUOUS
 62
     7
 10
0.6443171427000002
 20
4.098906100899999
 30
0.0
  0
VERTEX
  5
431
  8
0
  6
CONTINUOUS
 62
     7
 10
0.6443278704
 20
4.0993215252999988
 30
0.0
  0
VERTEX
  5
432
  8
0
  6
CONTINUOUS
 62
     7
 10
0.6443405224000001
 20
4.0997368922000001
 30
0.0
  0
SEQEND
  5
433
  8
0
  6
CONTINUOUS
 62
     7
  0
LINE
  5
21A
  8
0
  6
CONTINUOUS
 62
     7
 10
0.6442932265
 20
4.0964147034999989
 30
0.0
 11
0.6442932265
 21
0.7905966594000001
 31
0.0
  0
LINE
  5
21B
  8
0
  6
CONTINUOUS
 62
     7
 10
0.7610315442
 20
4.0075056814999996
 30
0.0
 11
0.7610315442
 21
0.8795056778999999
 31
0.0
  0
POLYLINE
  5
21C
  8
0
  6
CONTINUOUS
 62
     7
 66
     1
 10
0.0
 20
0.0
 30
0.0
  0
VERTEX
  5
434
  8
0
  6
CONTINUOUS
 62
     7
 10
0.6442932265
 20
0.7905966594000001
 30
0.0
  0
VERTEX
  5
435
  8
0
  6
CONTINUOUS
 62
     7
 10
0.6442924061000001
 20
0.7901815494
 30
0.0
  0
VERTEX
  5
436
  8
0
  6
CONTINUOUS
 62
     7
 10
0.6442935047000001
 20
0.7897664367
 30
0.0
  0
VERTEX
  5
437
  8
0
  6
CONTINUOUS
 62
     7
 10
0.6442965241000001
 20
0.7893513313
 30
0.0
  0
VERTEX
  5
438
  8
0
  6
CONTINUOUS
 62
     7
 10
0.6443014663
 20
0.7889362433000001
 30
0.0
  0
VERTEX
  5
439
  8
0
  6
CONTINUOUS
 62
     7
 10
0.6443083409
 20
0.7885207339
 30
0.0
  0
VERTEX
  5
43A
  8
0
  6
CONTINUOUS
 62
     7
 10
0.6443171427000002
 20
0.7881052620000001
 30
0.0
  0
VERTEX
  5
43B
  8
0
  6
CONTINUOUS
 62
     7
 10
0.6443278704
 20
0.7876898376
 30
0.0
  0
VERTEX
  5
43C
  8
0
  6
CONTINUOUS
 62
     7
 10
0.6443405224000001
 20
0.7872744707
 30
0.0
  0
SEQEND
  5
43D
  8
0
  6
CONTINUOUS
 62
     7
  0
POLYLINE
  5
21D
  8
0
  6
CONTINUOUS
 62
     7
 66
     1
 10
0.0
 20
0.0
 30
0.0
  0
VERTEX
  5
43E
  8
0
  6
CONTINUOUS
 62
     7
 10
4.0432142238999988
 20
0.7008631907
 30
0.0
  0
VERTEX
  5
43F
  8
0
  6
CONTINUOUS
 62
     7
 10
4.0427993231999988
 20
0.7008505451
 30
0.0
  0
VERTEX
  5
440
  8
0
  6
CONTINUOUS
 62
     7
 10
4.0423843648000002
 20
0.7008398273000001
 30
0.0
  0
VERTEX
  5
441
  8
0
  6
CONTINUOUS
 62
     7
 10
4.0419693590000003
 20
0.7008310348000001
 30
0.0
  0
VERTEX
  5
442
  8
0
  6
CONTINUOUS
 62
     7
 10
4.0415543157
 20
0.7008241649000001
 30
0.0
  0
VERTEX
  5
443
  8
0
  6
CONTINUOUS
 62
     7
 10
4.0411387616000001
 20
0.7008192108
 30
0.0
  0
VERTEX
  5
444
  8
0
  6
CONTINUOUS
 62
     7
 10
4.0407231900999987
 20
0.7008161811
 30
0.0
  0
VERTEX
  5
445
  8
0
  6
CONTINUOUS
 62
     7
 10
4.0403076113000003
 20
0.7008150758000001
 30
0.0
  0
VERTEX
  5
446
  8
0
  6
CONTINUOUS
 62
     7
 10
4.0398920352000003
 20
0.7008158948
 30
0.0
  0
SEQEND
  5
447
  8
0
  6
CONTINUOUS
 62
     7
  0
LINE
  5
21E
  8
0
  6
CONTINUOUS
 62
     7
 10
0.734073991
 20
0.7008158948
 30
0.0
 11
4.0398920352000003
 21
0.7008158948
 31
0.0
  0
POLYLINE
  5
21F
  8
0
  6
CONTINUOUS
 62
     7
 66
     1
 10
0.0
 20
0.0
 30
0.0
  0
VERTEX
  5
448
  8
0
  6
CONTINUOUS
 62
     7
 10
0.7307518024000002
 20
0.7008631907
 30
0.0
  0
VERTEX
  5
449
  8
0
  6
CONTINUOUS
 62
     7
 10
0.7311667031
 20
0.7008505451
 30
0.0
  0
VERTEX
  5
44A
  8
0
  6
CONTINUOUS
 62
     7
 10
0.7315816614
 20
0.7008398273000001
 30
0.0
  0
VERTEX
  5
44B
  8
0
  6
CONTINUOUS
 62
     7
 10
0.7319966673
 20
0.7008310348000001
 30
0.0
  0
VERTEX
  5
44C
  8
0
  6
CONTINUOUS
 62
     7
 10
0.7324117106
 20
0.7008241649000001
 30
0.0
  0
VERTEX
  5
44D
  8
0
  6
CONTINUOUS
 62
     7
 10
0.7328272647000002
 20
0.7008192108
 30
0.0
  0
VERTEX
  5
44E
  8
0
  6
CONTINUOUS
 62
     7
 10
0.7332428361
 20
0.7008161811
 30
0.0
  0
VERTEX
  5
44F
  8
0
  6
CONTINUOUS
 62
     7
 10
0.7336584149000001
 20
0.7008150758000001
 30
0.0
  0
VERTEX
  5
450
  8
0
  6
CONTINUOUS
 62
     7
 10
0.734073991
 20
0.7008158948
 30
0.0
  0
SEQEND
  5
451
  8
0
  6
CONTINUOUS
 62
     7
  0
LINE
  5
220
  8
0
  6
CONTINUOUS
 62
     7
 10
0.8229830130999999
 20
0.8175542124999999
 30
0.0
 11
3.9509830167
 21
0.8175542125999999
 31
0.0
  0
LINE
  5
221
  8
0
  6
CONTINUOUS
 62
     7
 10
4.0129344820999986
 20
0.8795056814999998
 30
0.0
 11
4.0129344819999986
 21
4.007505684999999
 31
0.0
  0
POLYLINE
  5
222
  8
0
  6
CONTINUOUS
 62
     7
 66
     1
 10
0.0
 20
0.0
 30
0.0
  0
VERTEX
  5
452
  8
0
  6
CONTINUOUS
 62
     7
 10
4.1296255037999989
 20
4.0997368922000001
 30
0.0
  0
VERTEX
  5
453
  8
0
  6
CONTINUOUS
 62
     7
 10
4.1295406648999986
 20
4.1016730933999996
 30
0.0
  0
VERTEX
  5
454
  8
0
  6
CONTINUOUS
 62
     7
 10
4.1294133283000001
 20
4.1036078403999996
 30
0.0
  0
VERTEX
  5
455
  8
0
  6
CONTINUOUS
 62
     7
 10
4.1292435933
 20
4.1055400550999996
 30
0.0
  0
VERTEX
  5
456
  8
0
  6
CONTINUOUS
 62
     7
 10
4.1290315593999987
 20
4.1074686596000003
 30
0.0
  0
VERTEX
  5
457
  8
0
  6
CONTINUOUS
 62
     7
 10
4.1287773258999989
 20
4.1093925758000003
 30
0.0
  0
VERTEX
  5
458
  8
0
  6
CONTINUOUS
 62
     7
 10
4.1284809921000001
 20
4.1113107255000001
 30
0.0
  0
VERTEX
  5
459
  8
0
  6
CONTINUOUS
 62
     7
 10
4.1281426574999989
 20
4.1132220308000003
 30
0.0
  0
VERTEX
  5
45A
  8
0
  6
CONTINUOUS
 62
     7
 10
4.127762421399999
 20
4.1151254136000004
 30
0.0
  0
VERTEX
  5
45B
  8
0
  6
CONTINUOUS
 62
     7
 10
4.1272933894000001
 20
4.1172194966999989
 30
0.0
  0
VERTEX
  5
45C
  8
0
  6
CONTINUOUS
 62
     7
 10
4.1267736885000001
 20
4.1193014295000001
 30
0.0
  0
VERTEX
  5
45D
  8
0
  6
CONTINUOUS
 62
     7
 10
4.1262037551999988
 20
4.121370065499999
 30
0.0
  0
VERTEX
  5
45E
  8
0
  6
CONTINUOUS
 62
     7
 10
4.1255840259000003
 20
4.123424258
 30
0.0
  0
VERTEX
  5
45F
  8
0
  6
CONTINUOUS
 62
     7
 10
4.1249149370999989
 20
4.125462860399999
 30
0.0
  0
VERTEX
  5
460
  8
0
  6
CONTINUOUS
 62
     7
 10
4.1241969250999988
 20
4.1274847261999996
 30
0.0
  0
VERTEX
  5
461
  8
0
  6
CONTINUOUS
 62
     7
 10
4.1234304265999988
 20
4.1294887088000003
 30
0.0
  0
VERTEX
  5
462
  8
0
  6
CONTINUOUS
 62
     7
 10
4.1226158777999986
 20
4.1314736615000003
 30
0.0
  0
VERTEX
  5
463
  8
0
  6
CONTINUOUS
 62
     7
 10
4.1218132419999991
 20
4.1333068901000001
 30
0.0
  0
VERTEX
  5
464
  8
0
  6
CONTINUOUS
 62
     7
 10
4.1209696807
 20
4.1351217085999989
 30
0.0
  0
VERTEX
  5
465
  8
0
  6
CONTINUOUS
 62
     7
 10
4.1200856897999989
 20
4.1369172590999996
 30
0.0
  0
VERTEX
  5
466
  8
0
  6
CONTINUOUS
 62
     7
 10
4.1191617651000003
 20
4.1386926839999996
 30
0.0
  0
VERTEX
  5
467
  8
0
  6
CONTINUOUS
 62
     7
 10
4.1181984021999991
 20
4.1404471252999988
 30
0.0
  0
VERTEX
  5
468
  8
0
  6
CONTINUOUS
 62
     7
 10
4.117196097099999
 20
4.1421797253000001
 30
0.0
  0
VERTEX
  5
469
  8
0
  6
CONTINUOUS
 62
     7
 10
4.1161553455000002
 20
4.1438896262
 30
0.0
  0
VERTEX
  5
46A
  8
0
  6
CONTINUOUS
 62
     7
 10
4.1150766431000001
 20
4.1455759702000003
 30
0.0
  0
VERTEX
  5
46B
  8
0
  6
CONTINUOUS
 62
     7
 10
4.1139604856999989
 20
4.1472378995000003
 30
0.0
  0
VERTEX
  5
46C
  8
0
  6
CONTINUOUS
 62
     7
 10
4.1127689619999988
 20
4.1489278370999996
 30
0.0
  0
VERTEX
  5
46D
  8
0
  6
CONTINUOUS
 62
     7
 10
4.1115388899000003
 20
4.1505899242000002
 30
0.0
  0
VERTEX
  5
46E
  8
0
  6
CONTINUOUS
 62
     7
 10
4.1102711461999988
 20
4.1522232690000003
 30
0.0
  0
VERTEX
  5
46F
  8
0
  6
CONTINUOUS
 62
     7
 10
4.1089666073000002
 20
4.1538269795999989
 30
0.0
  0
VERTEX
  5
470
  8
0
  6
CONTINUOUS
 62
     7
 10
4.1076261496999988
 20
4.1554001640999996
 30
0.0
  0
VERTEX
  5
471
  8
0
  6
CONTINUOUS
 62
     7
 10
4.1062506498999989
 20
4.1569419304000004
 30
0.0
  0
VERTEX
  5
472
  8
0
  6
CONTINUOUS
 62
     7
 10
4.1048409845
 20
4.1584513867999986
 30
0.0
  0
VERTEX
  5
473
  8
0
  6
CONTINUOUS
 62
     7
 10
4.1033980299000001
 20
4.1599276411999986
 30
0.0
  0
SEQEND
  5
474
  8
0
  6
CONTINUOUS
 62
     7
  0
POLYLINE
  5
223
  8
0
  6
CONTINUOUS
 62
     7
 66
     1
 10
0.0
 20
0.0
 30
0.0
  0
VERTEX
  5
475
  8
0
  6
CONTINUOUS
 62
     7
 10
4.1296727996999989
 20
0.7905966594000001
 30
0.0
  0
VERTEX
  5
476
  8
0
  6
CONTINUOUS
 62
     7
 10
4.1296736201000002
 20
0.7901815494
 30
0.0
  0
VERTEX
  5
477
  8
0
  6
CONTINUOUS
 62
     7
 10
4.129672521599999
 20
0.7897664367
 30
0.0
  0
VERTEX
  5
478
  8
0
  6
CONTINUOUS
 62
     7
 10
4.1296695020999987
 20
0.7893513313
 30
0.0
  0
VERTEX
  5
479
  8
0
  6
CONTINUOUS
 62
     7
 10
4.1296645600000002
 20
0.7889362433000001
 30
0.0
  0
VERTEX
  5
47A
  8
0
  6
CONTINUOUS
 62
     7
 10
4.1296576853999989
 20
0.7885207339
 30
0.0
  0
VERTEX
  5
47B
  8
0
  6
CONTINUOUS
 62
     7
 10
4.1296488834999989
 20
0.7881052620000001
 30
0.0
  0
VERTEX
  5
47C
  8
0
  6
CONTINUOUS
 62
     7
 10
4.1296381558999986
 20
0.7876898376
 30
0.0
  0
VERTEX
  5
47D
  8
0
  6
CONTINUOUS
 62
     7
 10
4.1296255037999989
 20
0.7872744707
 30
0.0
  0
SEQEND
  5
47E
  8
0
  6
CONTINUOUS
 62
     7
  0
LINE
  5
224
  8
0
  6
CONTINUOUS
 62
     7
 10
4.1296727996999989
 20
4.0964147034999989
 30
0.0
 11
4.1296727996999989
 21
0.7905966594000001
 31
0.0
  0
POLYLINE
  5
225
  8
0
  6
CONTINUOUS
 62
     7
 66
     1
 10
0.0
 20
0.0
 30
0.0
  0
VERTEX
  5
47F
  8
0
  6
CONTINUOUS
 62
     7
 10
4.1296727996999989
 20
4.0964147034999989
 30
0.0
  0
VERTEX
  5
480
  8
0
  6
CONTINUOUS
 62
     7
 10
4.1296736201000002
 20
4.0968298136000003
 30
0.0
  0
VERTEX
  5
481
  8
0
  6
CONTINUOUS
 62
     7
 10
4.129672521599999
 20
4.0972449262000001
 30
0.0
  0
VERTEX
  5
482
  8
0
  6
CONTINUOUS
 62
     7
 10
4.1296695020999987
 20
4.0976600316000003
 30
0.0
  0
VERTEX
  5
483
  8
0
  6
CONTINUOUS
 62
     7
 10
4.1296645600000002
 20
4.0980751195999989
 30
0.0
  0
VERTEX
  5
484
  8
0
  6
CONTINUOUS
 62
     7
 10
4.1296576853999989
 20
4.0984906289999996
 30
0.0
  0
VERTEX
  5
485
  8
0
  6
CONTINUOUS
 62
     7
 10
4.1296488834999989
 20
4.098906100899999
 30
0.0
  0
VERTEX
  5
486
  8
0
  6
CONTINUOUS
 62
     7
 10
4.1296381558999986
 20
4.0993215252999988
 30
0.0
  0
VERTEX
  5
487
  8
0
  6
CONTINUOUS
 62
     7
 10
4.1296255037999989
 20
4.0997368922000001
 30
0.0
  0
SEQEND
  5
488
  8
0
  6
CONTINUOUS
 62
     7
  0
POLYLINE
  5
226
  8
0
  6
CONTINUOUS
 62
     7
 66
     1
 10
0.0
 20
0.0
 30
0.0
  0
VERTEX
  5
489
  8
0
  6
CONTINUOUS
 62
     7
 10
4.1296255037999989
 20
0.7872744707
 30
0.0
  0
VERTEX
  5
48A
  8
0
  6
CONTINUOUS
 62
     7
 10
4.1295406648999986
 20
0.7853382695
 30
0.0
  0
VERTEX
  5
48B
  8
0
  6
CONTINUOUS
 62
     7
 10
4.1294133283000001
 20
0.7834035225
 30
0.0
  0
VERTEX
  5
48C
  8
0
  6
CONTINUOUS
 62
     7
 10
4.1292435933
 20
0.7814713078
 30
0.0
  0
VERTEX
  5
48D
  8
0
  6
CONTINUOUS
 62
     7
 10
4.1290315593999987
 20
0.7795427033
 30
0.0
  0
VERTEX
  5
48E
  8
0
  6
CONTINUOUS
 62
     7
 10
4.1287773258999989
 20
0.7776187871
 30
0.0
  0
VERTEX
  5
48F
  8
0
  6
CONTINUOUS
 62
     7
 10
4.1284809921000001
 20
0.7757006374000001
 30
0.0
  0
VERTEX
  5
490
  8
0
  6
CONTINUOUS
 62
     7
 10
4.1281426574999989
 20
0.7737893321
 30
0.0
  0
VERTEX
  5
491
  8
0
  6
CONTINUOUS
 62
     7
 10
4.127762421399999
 20
0.7718859494000001
 30
0.0
  0
VERTEX
  5
492
  8
0
  6
CONTINUOUS
 62
     7
 10
4.1272933894000001
 20
0.7697918662
 30
0.0
  0
VERTEX
  5
493
  8
0
  6
CONTINUOUS
 62
     7
 10
4.1267736885000001
 20
0.7677099334000002
 30
0.0
  0
VERTEX
  5
494
  8
0
  6
CONTINUOUS
 62
     7
 10
4.1262037551999988
 20
0.7656412974000001
 30
0.0
  0
VERTEX
  5
495
  8
0
  6
CONTINUOUS
 62
     7
 10
4.1255840259000003
 20
0.7635871049000002
 30
0.0
  0
VERTEX
  5
496
  8
0
  6
CONTINUOUS
 62
     7
 10
4.1249149370999989
 20
0.7615485025000001
 30
0.0
  0
VERTEX
  5
497
  8
0
  6
CONTINUOUS
 62
     7
 10
4.1241969250999988
 20
0.7595266367
 30
0.0
  0
VERTEX
  5
498
  8
0
  6
CONTINUOUS
 62
     7
 10
4.1234304265999988
 20
0.7575226541
 30
0.0
  0
VERTEX
  5
499
  8
0
  6
CONTINUOUS
 62
     7
 10
4.1226158777999986
 20
0.7555377014
 30
0.0
  0
VERTEX
  5
49A
  8
0
  6
CONTINUOUS
 62
     7
 10
4.1218132419999991
 20
0.7537044728
 30
0.0
  0
VERTEX
  5
49B
  8
0
  6
CONTINUOUS
 62
     7
 10
4.1209696807
 20
0.7518896543000001
 30
0.0
  0
VERTEX
  5
49C
  8
0
  6
CONTINUOUS
 62
     7
 10
4.1200856897999989
 20
0.7500941038
 30
0.0
  0
VERTEX
  5
49D
  8
0
  6
CONTINUOUS
 62
     7
 10
4.1191617651000003
 20
0.7483186790000002
 30
0.0
  0
VERTEX
  5
49E
  8
0
  6
CONTINUOUS
 62
     7
 10
4.1181984021999991
 20
0.7465642376
 30
0.0
  0
VERTEX
  5
49F
  8
0
  6
CONTINUOUS
 62
     7
 10
4.117196097099999
 20
0.7448316376000002
 30
0.0
  0
VERTEX
  5
4A0
  8
0
  6
CONTINUOUS
 62
     7
 10
4.1161553455000002
 20
0.7431217367000002
 30
0.0
  0
VERTEX
  5
4A1
  8
0
  6
CONTINUOUS
 62
     7
 10
4.1150766431000001
 20
0.7414353927000001
 30
0.0
  0
VERTEX
  5
4A2
  8
0
  6
CONTINUOUS
 62
     7
 10
4.1139604856999989
 20
0.7397734634000001
 30
0.0
  0
VERTEX
  5
4A3
  8
0
  6
CONTINUOUS
 62
     7
 10
4.1127689619999988
 20
0.7380835259000002
 30
0.0
  0
VERTEX
  5
4A4
  8
0
  6
CONTINUOUS
 62
     7
 10
4.1115388899000003
 20
0.7364214387
 30
0.0
  0
VERTEX
  5
4A5
  8
0
  6
CONTINUOUS
 62
     7
 10
4.1102711461999988
 20
0.7347880939
 30
0.0
  0
VERTEX
  5
4A6
  8
0
  6
CONTINUOUS
 62
     7
 10
4.1089666073000002
 20
0.7331843833000001
 30
0.0
  0
VERTEX
  5
4A7
  8
0
  6
CONTINUOUS
 62
     7
 10
4.1076261496999988
 20
0.7316111989000002
 30
0.0
  0
VERTEX
  5
4A8
  8
0
  6
CONTINUOUS
 62
     7
 10
4.1062506498999989
 20
0.7300694325000001
 30
0.0
  0
VERTEX
  5
4A9
  8
0
  6
CONTINUOUS
 62
     7
 10
4.1048409845
 20
0.7285599762000001
 30
0.0
  0
VERTEX
  5
4AA
  8
0
  6
CONTINUOUS
 62
     7
 10
4.1033980299000001
 20
0.7270837217000001
 30
0.0
  0
SEQEND
  5
4AB
  8
0
  6
CONTINUOUS
 62
     7
  0
POLYLINE
  5
227
  8
0
  6
CONTINUOUS
 62
     7
 66
     1
 10
0.0
 20
0.0
 30
0.0
  0
VERTEX
  5
4AC
  8
0
  6
CONTINUOUS
 62
     7
 10
0.7307518024000002
 20
4.1861481722000002
 30
0.0
  0
VERTEX
  5
4AD
  8
0
  6
CONTINUOUS
 62
     7
 10
0.7311667031
 20
4.1861608178000003
 30
0.0
  0
VERTEX
  5
4AE
  8
0
  6
CONTINUOUS
 62
     7
 10
0.7315816614
 20
4.1861715355999989
 30
0.0
  0
VERTEX
  5
4AF
  8
0
  6
CONTINUOUS
 62
     7
 10
0.7319966673
 20
4.186180328099999
 30
0.0
  0
VERTEX
  5
4B0
  8
0
  6
CONTINUOUS
 62
     7
 10
0.7324117106
 20
4.1861871979999989
 30
0.0
  0
VERTEX
  5
4B1
  8
0
  6
CONTINUOUS
 62
     7
 10
0.7328272647000002
 20
4.1861921521000003
 30
0.0
  0
VERTEX
  5
4B2
  8
0
  6
CONTINUOUS
 62
     7
 10
0.7332428361
 20
4.1861951817999987
 30
0.0
  0
VERTEX
  5
4B3
  8
0
  6
CONTINUOUS
 62
     7
 10
0.7336584149000001
 20
4.1861962870999987
 30
0.0
  0
VERTEX
  5
4B4
  8
0
  6
CONTINUOUS
 62
     7
 10
0.734073991
 20
4.1861954681000002
 30
0.0
  0
SEQEND
  5
4B5
  8
0
  6
CONTINUOUS
 62
     7
  0
LINE
  5
228
  8
0
  6
CONTINUOUS
 62
     7
 10
3.9509830131000001
 20
4.069457150399999
 30
0.0
 11
0.8229830096
 21
4.069457150299999
 31
0.0
  0
LINE
  5
229
  8
0
  6
CONTINUOUS
 62
     7
 10
4.0398920352000003
 20
4.1861954681000002
 30
0.0
 11
0.734073991
 21
4.1861954681000002
 31
0.0
  0
POLYLINE
  5
22A
  8
0
  6
CONTINUOUS
 62
     7
 66
     1
 10
0.0
 20
0.0
 30
0.0
  0
VERTEX
  5
4B6
  8
0
  6
CONTINUOUS
 62
     7
 10
4.0432142238999988
 20
4.1861481722000002
 30
0.0
  0
VERTEX
  5
4B7
  8
0
  6
CONTINUOUS
 62
     7
 10
4.0427993231999988
 20
4.1861608178000003
 30
0.0
  0
VERTEX
  5
4B8
  8
0
  6
CONTINUOUS
 62
     7
 10
4.0423843648000002
 20
4.1861715355999989
 30
0.0
  0
VERTEX
  5
4B9
  8
0
  6
CONTINUOUS
 62
     7
 10
4.0419693590000003
 20
4.186180328099999
 30
0.0
  0
VERTEX
  5
4BA
  8
0
  6
CONTINUOUS
 62
     7
 10
4.0415543157
 20
4.1861871979999989
 30
0.0
  0
VERTEX
  5
4BB
  8
0
  6
CONTINUOUS
 62
     7
 10
4.0411387616000001
 20
4.1861921521000003
 30
0.0
  0
VERTEX
  5
4BC
  8
0
  6
CONTINUOUS
 62
     7
 10
4.0407231900999987
 20
4.1861951817999987
 30
0.0
  0
VERTEX
  5
4BD
  8
0
  6
CONTINUOUS
 62
     7
 10
4.0403076113000003
 20
4.1861962870999987
 30
0.0
  0
VERTEX
  5
4BE
  8
0
  6
CONTINUOUS
 62
     7
 10
4.0398920352000003
 20
4.1861954681000002
 30
0.0
  0
SEQEND
  5
4BF
  8
0
  6
CONTINUOUS
 62
     7
  0
POLYLINE
  5
22B
  8
0
  6
CONTINUOUS
 62
     7
 66
     1
 10
0.0
 20
0.0
 30
0.0
  0
VERTEX
  5
4C0
  8
0
  6
CONTINUOUS
 62
     7
 10
4.1033980299000001
 20
4.1599276411999986
 30
0.0
  0
VERTEX
  5
4C1
  8
0
  6
CONTINUOUS
 62
     7
 10
4.1020975884999986
 20
4.1612020865999986
 30
0.0
  0
VERTEX
  5
4C2
  8
0
  6
CONTINUOUS
 62
     7
 10
4.1007715636999986
 20
4.1624504577000003
 30
0.0
  0
VERTEX
  5
4C3
  8
0
  6
CONTINUOUS
 62
     7
 10
4.0994205539999991
 20
4.1636721387999991
 30
0.0
  0
VERTEX
  5
4C4
  8
0
  6
CONTINUOUS
 62
     7
 10
4.0980451579999988
 20
4.164866514199999
 30
0.0
  0
VERTEX
  5
4C5
  8
0
  6
CONTINUOUS
 62
     7
 10
4.0966459744000003
 20
4.1660329679999988
 30
0.0
  0
VERTEX
  5
4C6
  8
0
  6
CONTINUOUS
 62
     7
 10
4.0951099635999988
 20
4.1672598072999989
 30
0.0
  0
VERTEX
  5
4C7
  8
0
  6
CONTINUOUS
 62
     7
 10
4.0935476449000001
 20
4.1684528405999988
 30
0.0
  0
VERTEX
  5
4C8
  8
0
  6
CONTINUOUS
 62
     7
 10
4.0919597184000001
 20
4.1696114986000001
 30
0.0
  0
VERTEX
  5
4C9
  8
0
  6
CONTINUOUS
 62
     7
 10
4.0903468837999988
 20
4.1707352121000003
 30
0.0
  0
VERTEX
  5
4CA
  8
0
  6
CONTINUOUS
 62
     7
 10
4.0887098411
 20
4.1718234117000002
 30
0.0
  0
VERTEX
  5
4CB
  8
0
  6
CONTINUOUS
 62
     7
 10
4.0869091313999988
 20
4.172962040299999
 30
0.0
  0
VERTEX
  5
4CC
  8
0
  6
CONTINUOUS
 62
     7
 10
4.0850818324000002
 20
4.174057637899999
 30
0.0
  0
VERTEX
  5
4CD
  8
0
  6
CONTINUOUS
 62
     7
 10
4.0832289676000002
 20
4.1751095566999989
 30
0.0
  0
VERTEX
  5
4CE
  8
0
  6
CONTINUOUS
 62
     7
 10
4.081351560199999
 20
4.1761171486999986
 30
0.0
  0
VERTEX
  5
4CF
  8
0
  6
CONTINUOUS
 62
     7
 10
4.0794506335999987
 20
4.1770797661000003
 30
0.0
  0
VERTEX
  5
4D0
  8
0
  6
CONTINUOUS
 62
     7
 10
4.0777115134999988
 20
4.1779113517999988
 30
0.0
  0
VERTEX
  5
4D1
  8
0
  6
CONTINUOUS
 62
     7
 10
4.0759548144000002
 20
4.1787052223999988
 30
0.0
  0
VERTEX
  5
4D2
  8
0
  6
CONTINUOUS
 62
     7
 10
4.0741813689999988
 20
4.1794610016
 30
0.0
  0
VERTEX
  5
4D3
  8
0
  6
CONTINUOUS
 62
     7
 10
4.0723920096999988
 20
4.180178313599999
 30
0.0
  0
VERTEX
  5
4D4
  8
0
  6
CONTINUOUS
 62
     7
 10
4.0705875688999988
 20
4.1808567821000002
 30
0.0
  0
VERTEX
  5
4D5
  8
0
  6
CONTINUOUS
 62
     7
 10
4.0687688794000003
 20
4.1814960313
 30
0.0
  0
VERTEX
  5
4D6
  8
0
  6
CONTINUOUS
 62
     7
 10
4.0667834799999989
 20
4.1821438879999988
 30
0.0
  0
VERTEX
  5
4D7
  8
0
  6
CONTINUOUS
 62
     7
 10
4.0647833723999991
 20
4.182744915699999
 30
0.0
  0
VERTEX
  5
4D8
  8
0
  6
CONTINUOUS
 62
     7
 10
4.0627695940999988
 20
4.1832987563000001
 30
0.0
  0
VERTEX
  5
4D9
  8
0
  6
CONTINUOUS
 62
     7
 10
4.0607431830999987
 20
4.1838050522000003
 30
0.0
  0
VERTEX
  5
4DA
  8
0
  6
CONTINUOUS
 62
     7
 10
4.0587051771000002
 20
4.1842634454000001
 30
0.0
  0
VERTEX
  5
4DB
  8
0
  6
CONTINUOUS
 62
     7
 10
4.0566566138999987
 20
4.1846735781999991
 30
0.0
  0
VERTEX
  5
4DC
  8
0
  6
CONTINUOUS
 62
     7
 10
4.0547518923999988
 20
4.1850099287999987
 30
0.0
  0
VERTEX
  5
4DD
  8
0
  6
CONTINUOUS
 62
     7
 10
4.0528401204999991
 20
4.185304531399999
 30
0.0
  0
VERTEX
  5
4DE
  8
0
  6
CONTINUOUS
 62
     7
 10
4.0509224044999987
 20
4.1855572959999989
 30
0.0
  0
VERTEX
  5
4DF
  8
0
  6
CONTINUOUS
 62
     7
 10
4.0489998505999987
 20
4.1857681323999989
 30
0.0
  0
VERTEX
  5
4E0
  8
0
  6
CONTINUOUS
 62
     7
 10
4.0470735650999989
 20
4.1859369505999986
 30
0.0
  0
VERTEX
  5
4E1
  8
0
  6
CONTINUOUS
 62
     7
 10
4.0451446540999987
 20
4.1860636605999986
 30
0.0
  0
VERTEX
  5
4E2
  8
0
  6
CONTINUOUS
 62
     7
 10
4.0432142238999988
 20
4.1861481722000002
 30
0.0
  0
SEQEND
  5
4E3
  8
0
  6
CONTINUOUS
 62
     7
  0
POLYLINE
  5
22C
  8
0
  6
CONTINUOUS
 62
     7
 66
     1
 10
0.0
 20
0.0
 30
0.0
  0
VERTEX
  5
4E4
  8
0
  6
CONTINUOUS
 62
     7
 10
4.1033980299000001
 20
0.7270837217000001
 30
0.0
  0
VERTEX
  5
4E5
  8
0
  6
CONTINUOUS
 62
     7
 10
4.1020975884999986
 20
0.7258092763000001
 30
0.0
  0
VERTEX
  5
4E6
  8
0
  6
CONTINUOUS
 62
     7
 10
4.1007715636999986
 20
0.7245609052000001
 30
0.0
  0
VERTEX
  5
4E7
  8
0
  6
CONTINUOUS
 62
     7
 10
4.0994205539999991
 20
0.7233392241
 30
0.0
  0
VERTEX
  5
4E8
  8
0
  6
CONTINUOUS
 62
     7
 10
4.0980451579999988
 20
0.7221448487
 30
0.0
  0
VERTEX
  5
4E9
  8
0
  6
CONTINUOUS
 62
     7
 10
4.0966459744000003
 20
0.7209783949000002
 30
0.0
  0
VERTEX
  5
4EA
  8
0
  6
CONTINUOUS
 62
     7
 10
4.0951099635999988
 20
0.7197515556000002
 30
0.0
  0
VERTEX
  5
4EB
  8
0
  6
CONTINUOUS
 62
     7
 10
4.0935476449000001
 20
0.7185585223000001
 30
0.0
  0
VERTEX
  5
4EC
  8
0
  6
CONTINUOUS
 62
     7
 10
4.0919597184000001
 20
0.7173998643
 30
0.0
  0
VERTEX
  5
4ED
  8
0
  6
CONTINUOUS
 62
     7
 10
4.0903468837999988
 20
0.7162761508
 30
0.0
  0
VERTEX
  5
4EE
  8
0
  6
CONTINUOUS
 62
     7
 10
4.0887098411
 20
0.7151879512
 30
0.0
  0
VERTEX
  5
4EF
  8
0
  6
CONTINUOUS
 62
     7
 10
4.0869091313999988
 20
0.7140493226000001
 30
0.0
  0
VERTEX
  5
4F0
  8
0
  6
CONTINUOUS
 62
     7
 10
4.0850818324000002
 20
0.7129537250000001
 30
0.0
  0
VERTEX
  5
4F1
  8
0
  6
CONTINUOUS
 62
     7
 10
4.0832289676000002
 20
0.7119018062000001
 30
0.0
  0
VERTEX
  5
4F2
  8
0
  6
CONTINUOUS
 62
     7
 10
4.081351560199999
 20
0.7108942142
 30
0.0
  0
VERTEX
  5
4F3
  8
0
  6
CONTINUOUS
 62
     7
 10
4.0794506335999987
 20
0.7099315968
 30
0.0
  0
VERTEX
  5
4F4
  8
0
  6
CONTINUOUS
 62
     7
 10
4.0777115134999988
 20
0.7091000111
 30
0.0
  0
VERTEX
  5
4F5
  8
0
  6
CONTINUOUS
 62
     7
 10
4.0759548144000002
 20
0.7083061405
 30
0.0
  0
VERTEX
  5
4F6
  8
0
  6
CONTINUOUS
 62
     7
 10
4.0741813689999988
 20
0.7075503613000002
 30
0.0
  0
VERTEX
  5
4F7
  8
0
  6
CONTINUOUS
 62
     7
 10
4.0723920096999988
 20
0.7068330493000001
 30
0.0
  0
VERTEX
  5
4F8
  8
0
  6
CONTINUOUS
 62
     7
 10
4.0705875688999988
 20
0.7061545808
 30
0.0
  0
VERTEX
  5
4F9
  8
0
  6
CONTINUOUS
 62
     7
 10
4.0687688794000003
 20
0.7055153316000001
 30
0.0
  0
VERTEX
  5
4FA
  8
0
  6
CONTINUOUS
 62
     7
 10
4.0667834799999989
 20
0.7048674749
 30
0.0
  0
VERTEX
  5
4FB
  8
0
  6
CONTINUOUS
 62
     7
 10
4.0647833723999991
 20
0.7042664473000001
 30
0.0
  0
VERTEX
  5
4FC
  8
0
  6
CONTINUOUS
 62
     7
 10
4.0627695940999988
 20
0.7037126066
 30
0.0
  0
VERTEX
  5
4FD
  8
0
  6
CONTINUOUS
 62
     7
 10
4.0607431830999987
 20
0.7032063107000001
 30
0.0
  0
VERTEX
  5
4FE
  8
0
  6
CONTINUOUS
 62
     7
 10
4.0587051771000002
 20
0.7027479175
 30
0.0
  0
VERTEX
  5
4FF
  8
0
  6
CONTINUOUS
 62
     7
 10
4.0566566138999987
 20
0.7023377847
 30
0.0
  0
VERTEX
  5
500
  8
0
  6
CONTINUOUS
 62
     7
 10
4.0547518923999988
 20
0.7020014341000002
 30
0.0
  0
VERTEX
  5
501
  8
0
  6
CONTINUOUS
 62
     7
 10
4.0528401204999991
 20
0.7017068315000001
 30
0.0
  0
VERTEX
  5
502
  8
0
  6
CONTINUOUS
 62
     7
 10
4.0509224044999987
 20
0.7014540669000001
 30
0.0
  0
VERTEX
  5
503
  8
0
  6
CONTINUOUS
 62
     7
 10
4.0489998505999987
 20
0.7012432305000002
 30
0.0
  0
VERTEX
  5
504
  8
0
  6
CONTINUOUS
 62
     7
 10
4.0470735650999989
 20
0.7010744123000001
 30
0.0
  0
VERTEX
  5
505
  8
0
  6
CONTINUOUS
 62
     7
 10
4.0451446540999987
 20
0.7009477023000001
 30
0.0
  0
VERTEX
  5
506
  8
0
  6
CONTINUOUS
 62
     7
 10
4.0432142238999988
 20
0.7008631907
 30
0.0
  0
SEQEND
  5
507
  8
0
  6
CONTINUOUS
 62
     7
  0
POLYLINE
  5
22D
  8
0
  6
CONTINUOUS
 62
     7
 66
     1
 10
0.0
 20
0.0
 30
0.0
  0
VERTEX
  5
508
  8
0
  6
CONTINUOUS
 62
     7
 10
4.7532619392999989
 20
-0.0027245109
 30
0.0
  0
VERTEX
  5
509
  8
0
  6
CONTINUOUS
 62
     7
 10
4.7637048137999987
 20
-0.0020405606
 30
0.0
  0
VERTEX
  5
50A
  8
0
  6
CONTINUOUS
 62
     7
 10
4.7739660263000001
 20
0.0
 30
0.0
  0
VERTEX
  5
50B
  8
0
  6
CONTINUOUS
 62
     7
 10
4.7838704790999991
 20
0.0033616499
 30
0.0
  0
VERTEX
  5
50C
  8
0
  6
CONTINUOUS
 62
     7
 10
4.7932489312999991
 20
0.0079860895
 30
0.0
  0
VERTEX
  5
50D
  8
0
  6
CONTINUOUS
 62
     7
 10
4.8019418559
 20
0.0137939652
 30
0.0
  0
VERTEX
  5
50E
  8
0
  6
CONTINUOUS
 62
     7
 10
4.8098018577999992
 20
0.0206867013
 30
0.0
  0
VERTEX
  5
50F
  8
0
  6
CONTINUOUS
 62
     7
 10
4.8166946225
 20
0.0285466994
 30
0.0
  0
VERTEX
  5
510
  8
0
  6
CONTINUOUS
 62
     7
 10
4.822502535099999
 20
0.0372396421
 30
0.0
  0
VERTEX
  5
511
  8
0
  6
CONTINUOUS
 62
     7
 10
4.8271270053999986
 20
0.0466181206
 30
0.0
  0
VERTEX
  5
512
  8
0
  6
CONTINUOUS
 62
     7
 10
4.830488676499999
 20
0.0565226007
 30
0.0
  0
VERTEX
  5
513
  8
0
  6
CONTINUOUS
 62
     7
 10
4.8325292504999986
 20
0.0667838453
 30
0.0
  0
VERTEX
  5
514
  8
0
  6
CONTINUOUS
 62
     7
 10
4.833213205499999
 20
0.0772267552
 30
0.0
  0
SEQEND
  5
515
  8
0
  6
CONTINUOUS
 62
     7
  0
POLYLINE
  5
22E
  8
0
  6
CONTINUOUS
 62
     7
 66
     1
 10
0.0
 20
0.0
 30
0.0
  0
VERTEX
  5
516
  8
0
  6
CONTINUOUS
 62
     7
 10
0.0207040869
 20
-0.0027245109
 30
0.0
  0
VERTEX
  5
517
  8
0
  6
CONTINUOUS
 62
     7
 10
0.0102612125
 20
-0.0020405606
 30
0.0
  0
VERTEX
  5
518
  8
0
  6
CONTINUOUS
 62
     7
 10
0.0
 20
0.0
 30
0.0
  0
VERTEX
  5
519
  8
0
  6
CONTINUOUS
 62
     7
 10
-0.0099044528
 20
0.0033616499
 30
0.0
  0
VERTEX
  5
51A
  8
0
  6
CONTINUOUS
 62
     7
 10
-0.0192829051
 20
0.0079860895
 30
0.0
  0
VERTEX
  5
51B
  8
0
  6
CONTINUOUS
 62
     7
 10
-0.0279758297
 20
0.0137939652
 30
0.0
  0
VERTEX
  5
51C
  8
0
  6
CONTINUOUS
 62
     7
 10
-0.0358358316
 20
0.0206867013
 30
0.0
  0
VERTEX
  5
51D
  8
0
  6
CONTINUOUS
 62
     7
 10
-0.0427285963
 20
0.0285466994
 30
0.0
  0
VERTEX
  5
51E
  8
0
  6
CONTINUOUS
 62
     7
 10
-0.0485365089
 20
0.0372396421
 30
0.0
  0
VERTEX
  5
51F
  8
0
  6
CONTINUOUS
 62
     7
 10
-0.0531609792
 20
0.0466181206
 30
0.0
  0
VERTEX
  5
520
  8
0
  6
CONTINUOUS
 62
     7
 10
-0.0565226503
 20
0.0565226007
 30
0.0
  0
VERTEX
  5
521
  8
0
  6
CONTINUOUS
 62
     7
 10
-0.0585632243
 20
0.0667838453
 30
0.0
  0
VERTEX
  5
522
  8
0
  6
CONTINUOUS
 62
     7
 10
-0.0592471792
 20
0.0772267552
 30
0.0
  0
SEQEND
  5
523
  8
0
  6
CONTINUOUS
 62
     7
  0
LINE
  5
22F
  8
0
  6
CONTINUOUS
 62
     7
 10
-0.0592471792
 20
4.8097846077000002
 30
0.0
 11
-0.0592471792
 21
0.0772267552
 31
0.0
  0
LINE
  5
230
  8
0
  6
CONTINUOUS
 62
     7
 10
0.0207040869
 20
-0.0027245109
 30
0.0
 11
4.7532619392999989
 21
-0.0027245109
 31
0.0
  0
POLYLINE
  5
248
  8
0
  6
CONTINUOUS
 62
     7
 66
     1
 10
0.0
 20
0.0
 30
0.0
  0
VERTEX
  5
524
  8
0
  6
CONTINUOUS
 62
     7
 10
1.4519223655
 20
2.4435056815
 30
0.0
  0
VERTEX
  5
525
  8
0
  6
CONTINUOUS
 62
     7
 10
1.4523405015999999
 20
2.4474609734999988
 30
0.0
  0
VERTEX
  5
526
  8
0
  6
CONTINUOUS
 62
     7
 10
1.4533176484000001
 20
2.4510833388999989
 30
0.0
  0
VERTEX
  5
527
  8
0
  6
CONTINUOUS
 62
     7
 10
1.4548538057
 20
2.4543727776999988
 30
0.0
  0
VERTEX
  5
528
  8
0
  6
CONTINUOUS
 62
     7
 10
1.4570420248
 20
2.4574075221
 30
0.0
  0
VERTEX
  5
529
  8
0
  6
CONTINUOUS
 62
     7
 10
1.4597892544999991
 20
2.4601093397999989
 30
0.0
  0
VERTEX
  5
52A
  8
0
  6
CONTINUOUS
 62
     7
 10
1.462816341299999
 20
2.4622435342999989
 30
0.0
  0
VERTEX
  5
52B
  8
0
  6
CONTINUOUS
 62
     7
 10
1.4661235195999991
 20
2.4637472689999989
 30
0.0
  0
VERTEX
  5
52C
  8
0
  6
CONTINUOUS
 62
     7
 10
1.4697105548999989
 20
2.464683380499999
 30
0.0
  0
VERTEX
  5
52D
  8
0
  6
CONTINUOUS
 62
     7
 10
1.4732975902000001
 20
2.4650056815000001
 30
0.0
  0
VERTEX
  5
52E
  8
0
  6
CONTINUOUS
 62
     7
 10
1.476884625599999
 20
2.464683380499999
 30
0.0
  0
VERTEX
  5
52F
  8
0
  6
CONTINUOUS
 62
     7
 10
1.4804716608999999
 20
2.4637472689999989
 30
0.0
  0
VERTEX
  5
530
  8
0
  6
CONTINUOUS
 62
     7
 10
1.4837788392
 20
2.4622435342999989
 30
0.0
  0
VERTEX
  5
531
  8
0
  6
CONTINUOUS
 62
     7
 10
1.4868059258999999
 20
2.4601093397999989
 30
0.0
  0
VERTEX
  5
532
  8
0
  6
CONTINUOUS
 62
     7
 10
1.489553155699999
 20
2.4574075221
 30
0.0
  0
VERTEX
  5
533
  8
0
  6
CONTINUOUS
 62
     7
 10
1.4917413747999999
 20
2.4543727776999988
 30
0.0
  0
VERTEX
  5
534
  8
0
  6
CONTINUOUS
 62
     7
 10
1.4932775321
 20
2.4510833388999989
 30
0.0
  0
VERTEX
  5
535
  8
0
  6
CONTINUOUS
 62
     7
 10
1.4942546787999991
 20
2.4474609734999988
 30
0.0
  0
VERTEX
  5
536
  8
0
  6
CONTINUOUS
 62
     7
 10
1.494672814999999
 20
2.4435056815
 30
0.0
  0
SEQEND
  5
537
  8
0
  6
CONTINUOUS
 62
     7
  0
POLYLINE
  5
249
  8
0
  6
CONTINUOUS
 62
     7
 66
     1
 10
0.0
 20
0.0
 30
0.0
  0
VERTEX
  5
538
  8
0
  6
CONTINUOUS
 62
     7
 10
1.4515898408000001
 20
2.8982461683
 30
0.0
  0
VERTEX
  5
539
  8
0
  6
CONTINUOUS
 62
     7
 10
1.452023179799999
 20
2.9021988987
 30
0.0
  0
VERTEX
  5
53A
  8
0
  6
CONTINUOUS
 62
     7
 10
1.4530143219
 20
2.9058189180999991
 30
0.0
  0
VERTEX
  5
53B
  8
0
  6
CONTINUOUS
 62
     7
 10
1.4545632669999999
 20
2.9091062265000001
 30
0.0
  0
VERTEX
  5
53C
  8
0
  6
CONTINUOUS
 62
     7
 10
1.4567633773999999
 20
2.9121390053999989
 30
0.0
  0
VERTEX
  5
53D
  8
0
  6
CONTINUOUS
 62
     7
 10
1.4595212908999999
 20
2.9148390731999991
 30
0.0
  0
VERTEX
  5
53E
  8
0
  6
CONTINUOUS
 62
     7
 10
1.4625569209
 20
2.9169718854999989
 30
0.0
  0
VERTEX
  5
53F
  8
0
  6
CONTINUOUS
 62
     7
 10
1.4658702613000001
 20
2.9184746462999991
 30
0.0
  0
VERTEX
  5
540
  8
0
  6
CONTINUOUS
 62
     7
 10
1.4694613182
 20
2.9194101514999988
 30
0.0
  0
VERTEX
  5
541
  8
0
  6
CONTINUOUS
 62
     7
 10
1.4730500237999991
 20
2.9197322438
 30
0.0
  0
VERTEX
  5
542
  8
0
  6
CONTINUOUS
 62
     7
 10
1.4766362598999989
 20
2.9194101514999988
 30
0.0
  0
VERTEX
  5
543
  8
0
  6
CONTINUOUS
 62
     7
 10
1.4802201447000001
 20
2.9184746462999991
 30
0.0
  0
VERTEX
  5
544
  8
0
  6
CONTINUOUS
 62
     7
 10
1.483521963899999
 20
2.9169718854999989
 30
0.0
  0
VERTEX
  5
545
  8
0
  6
CONTINUOUS
 62
     7
 10
1.4865412423999991
 20
2.9148390731999991
 30
0.0
  0
VERTEX
  5
546
  8
0
  6
CONTINUOUS
 62
     7
 10
1.4892784555
 20
2.9121390053999989
 30
0.0
  0
VERTEX
  5
547
  8
0
  6
CONTINUOUS
 62
     7
 10
1.4914553146
 20
2.9091062265000001
 30
0.0
  0
VERTEX
  5
548
  8
0
  6
CONTINUOUS
 62
     7
 10
1.492979057199999
 20
2.9058189180999991
 30
0.0
  0
VERTEX
  5
549
  8
0
  6
CONTINUOUS
 62
     7
 10
1.4939424457999999
 20
2.9021988987
 30
0.0
  0
VERTEX
  5
54A
  8
0
  6
CONTINUOUS
 62
     7
 10
1.4943454805999989
 20
2.8982461683
 30
0.0
  0
SEQEND
  5
54B
  8
0
  6
CONTINUOUS
 62
     7
  0
POLYLINE
  5
24A
  8
0
  6
CONTINUOUS
 62
     7
 66
     1
 10
0.0
 20
0.0
 30
0.0
  0
VERTEX
  5
54C
  8
0
  6
CONTINUOUS
 62
     7
 10
1.4943454805999989
 20
2.8982461683
 30
0.0
  0
VERTEX
  5
54D
  8
0
  6
CONTINUOUS
 62
     7
 10
1.4939121417000001
 20
2.8942934379
 30
0.0
  0
VERTEX
  5
54E
  8
0
  6
CONTINUOUS
 62
     7
 10
1.492920999599999
 20
2.8906734185
 30
0.0
  0
VERTEX
  5
54F
  8
0
  6
CONTINUOUS
 62
     7
 10
1.4913720545
 20
2.8873861100999991
 30
0.0
  0
VERTEX
  5
550
  8
0
  6
CONTINUOUS
 62
     7
 10
1.4891719441
 20
2.8843533311999989
 30
0.0
  0
VERTEX
  5
551
  8
0
  6
CONTINUOUS
 62
     7
 10
1.4864140306
 20
2.8816532633
 30
0.0
  0
VERTEX
  5
552
  8
0
  6
CONTINUOUS
 62
     7
 10
1.483378400499999
 20
2.879520451099999
 30
0.0
  0
VERTEX
  5
553
  8
0
  6
CONTINUOUS
 62
     7
 10
1.4800650601999989
 20
2.8780176903000001
 30
0.0
  0
VERTEX
  5
554
  8
0
  6
CONTINUOUS
 62
     7
 10
1.476474003199999
 20
2.877082185099999
 30
0.0
  0
VERTEX
  5
555
  8
0
  6
CONTINUOUS
 62
     7
 10
1.4728852976999991
 20
2.8767600928000001
 30
0.0
  0
VERTEX
  5
556
  8
0
  6
CONTINUOUS
 62
     7
 10
1.4692990615999999
 20
2.877082185099999
 30
0.0
  0
VERTEX
  5
557
  8
0
  6
CONTINUOUS
 62
     7
 10
1.465715176799999
 20
2.8780176903000001
 30
0.0
  0
VERTEX
  5
558
  8
0
  6
CONTINUOUS
 62
     7
 10
1.4624133576
 20
2.879520451099999
 30
0.0
  0
VERTEX
  5
559
  8
0
  6
CONTINUOUS
 62
     7
 10
1.4593940789999991
 20
2.8816532633
 30
0.0
  0
VERTEX
  5
55A
  8
0
  6
CONTINUOUS
 62
     7
 10
1.456656865999999
 20
2.8843533311999989
 30
0.0
  0
VERTEX
  5
55B
  8
0
  6
CONTINUOUS
 62
     7
 10
1.454480006799999
 20
2.8873861100999991
 30
0.0
  0
VERTEX
  5
55C
  8
0
  6
CONTINUOUS
 62
     7
 10
1.4529562643
 20
2.8906734185
 30
0.0
  0
VERTEX
  5
55D
  8
0
  6
CONTINUOUS
 62
     7
 10
1.4519928755999989
 20
2.8942934379
 30
0.0
  0
VERTEX
  5
55E
  8
0
  6
CONTINUOUS
 62
     7
 10
1.4515898408000001
 20
2.8982461683
 30
0.0
  0
SEQEND
  5
55F
  8
0
  6
CONTINUOUS
 62
     7
  0
POLYLINE
  5
24B
  8
0
  6
CONTINUOUS
 62
     7
 66
     1
 10
0.0
 20
0.0
 30
0.0
  0
VERTEX
  5
560
  8
0
  6
CONTINUOUS
 62
     7
 10
1.448836557199999
 20
3.3602631395999989
 30
0.0
  0
VERTEX
  5
561
  8
0
  6
CONTINUOUS
 62
     7
 10
1.4492954905999991
 20
3.3641982195999991
 30
0.0
  0
VERTEX
  5
562
  8
0
  6
CONTINUOUS
 62
     7
 10
1.4503103836
 20
3.3678020743000001
 30
0.0
  0
VERTEX
  5
563
  8
0
  6
CONTINUOUS
 62
     7
 10
1.4518812359
 20
3.3710747035999988
 30
0.0
  0
VERTEX
  5
564
  8
0
  6
CONTINUOUS
 62
     7
 10
1.4541019605000001
 20
3.374093939999999
 30
0.0
  0
VERTEX
  5
565
  8
0
  6
CONTINUOUS
 62
     7
 10
1.4568786445999999
 20
3.376781951099999
 30
0.0
  0
VERTEX
  5
566
  8
0
  6
CONTINUOUS
 62
     7
 10
1.4599295499
 20
3.378905239599999
 30
0.0
  0
VERTEX
  5
567
  8
0
  6
CONTINUOUS
 62
     7
 10
1.4632542671999991
 20
3.3804012901
 30
0.0
  0
VERTEX
  5
568
  8
0
  6
CONTINUOUS
 62
     7
 10
1.4668532057000001
 20
3.3813326179000001
 30
0.0
  0
VERTEX
  5
569
  8
0
  6
CONTINUOUS
 62
     7
 10
1.470445854699999
 20
3.381653271899999
 30
0.0
  0
VERTEX
  5
56A
  8
0
  6
CONTINUOUS
 62
     7
 10
1.474031898899999
 20
3.3813326179000001
 30
0.0
  0
VERTEX
  5
56B
  8
0
  6
CONTINUOUS
 62
     7
 10
1.477611653699999
 20
3.3804012901
 30
0.0
  0
VERTEX
  5
56C
  8
0
  6
CONTINUOUS
 62
     7
 10
1.4809055549000001
 20
3.378905239599999
 30
0.0
  0
VERTEX
  5
56D
  8
0
  6
CONTINUOUS
 62
     7
 10
1.4839127242000001
 20
3.376781951099999
 30
0.0
  0
VERTEX
  5
56E
  8
0
  6
CONTINUOUS
 62
     7
 10
1.4866340399
 20
3.374093939999999
 30
0.0
  0
VERTEX
  5
56F
  8
0
  6
CONTINUOUS
 62
     7
 10
1.4887925735
 20
3.3710747035999988
 30
0.0
  0
VERTEX
  5
570
  8
0
  6
CONTINUOUS
 62
     7
 10
1.4902960154
 20
3.3678020743000001
 30
0.0
  0
VERTEX
  5
571
  8
0
  6
CONTINUOUS
 62
     7
 10
1.4912366751999999
 20
3.3641982195999991
 30
0.0
  0
VERTEX
  5
572
  8
0
  6
CONTINUOUS
 62
     7
 10
1.4916145528
 20
3.3602631395999989
 30
0.0
  0
SEQEND
  5
573
  8
0
  6
CONTINUOUS
 62
     7
  0
POLYLINE
  5
24C
  8
0
  6
CONTINUOUS
 62
     7
 66
     1
 10
0.0
 20
0.0
 30
0.0
  0
VERTEX
  5
574
  8
0
  6
CONTINUOUS
 62
     7
 10
1.4916145528
 20
3.3602631395999989
 30
0.0
  0
VERTEX
  5
575
  8
0
  6
CONTINUOUS
 62
     7
 10
1.4911556194
 20
3.3563280596
 30
0.0
  0
VERTEX
  5
576
  8
0
  6
CONTINUOUS
 62
     7
 10
1.4901407264999991
 20
3.352724204899999
 30
0.0
  0
VERTEX
  5
577
  8
0
  6
CONTINUOUS
 62
     7
 10
1.4885698740999991
 20
3.3494515754999989
 30
0.0
  0
VERTEX
  5
578
  8
0
  6
CONTINUOUS
 62
     7
 10
1.4863491495000001
 20
3.3464323390999988
 30
0.0
  0
VERTEX
  5
579
  8
0
  6
CONTINUOUS
 62
     7
 10
1.4835724653999991
 20
3.3437443280000001
 30
0.0
  0
VERTEX
  5
57A
  8
0
  6
CONTINUOUS
 62
     7
 10
1.4805215600999999
 20
3.3416210395000001
 30
0.0
  0
VERTEX
  5
57B
  8
0
  6
CONTINUOUS
 62
     7
 10
1.4771968429
 20
3.3401249890999991
 30
0.0
  0
VERTEX
  5
57C
  8
0
  6
CONTINUOUS
 62
     7
 10
1.4735979044
 20
3.3391936612999991
 30
0.0
  0
VERTEX
  5
57D
  8
0
  6
CONTINUOUS
 62
     7
 10
1.4700052552999989
 20
3.3388730072999988
 30
0.0
  0
VERTEX
  5
57E
  8
0
  6
CONTINUOUS
 62
     7
 10
1.466419211099999
 20
3.3391936612999991
 30
0.0
  0
VERTEX
  5
57F
  8
0
  6
CONTINUOUS
 62
     7
 10
1.4628394563
 20
3.3401249890999991
 30
0.0
  0
VERTEX
  5
580
  8
0
  6
CONTINUOUS
 62
     7
 10
1.4595455551000001
 20
3.3416210395000001
 30
0.0
  0
VERTEX
  5
581
  8
0
  6
CONTINUOUS
 62
     7
 10
1.4565383859000001
 20
3.3437443280000001
 30
0.0
  0
VERTEX
  5
582
  8
0
  6
CONTINUOUS
 62
     7
 10
1.4538170700999991
 20
3.3464323390999988
 30
0.0
  0
VERTEX
  5
583
  8
0
  6
CONTINUOUS
 62
     7
 10
1.4516585366000001
 20
3.3494515754999989
 30
0.0
  0
VERTEX
  5
584
  8
0
  6
CONTINUOUS
 62
     7
 10
1.450155094599999
 20
3.352724204899999
 30
0.0
  0
VERTEX
  5
585
  8
0
  6
CONTINUOUS
 62
     7
 10
1.4492144348
 20
3.3563280596
 30
0.0
  0
VERTEX
  5
586
  8
0
  6
CONTINUOUS
 62
     7
 10
1.448836557199999
 20
3.3602631395999989
 30
0.0
  0
SEQEND
  5
587
  8
0
  6
CONTINUOUS
 62
     7
  0
POLYLINE
  5
24D
  8
0
  6
CONTINUOUS
 62
     7
 66
     1
 10
0.0
 20
0.0
 30
0.0
  0
VERTEX
  5
588
  8
0
  6
CONTINUOUS
 62
     7
 10
2.3869830131000001
 20
1.5084450337999999
 30
0.0
  0
VERTEX
  5
589
  8
0
  6
CONTINUOUS
 62
     7
 10
2.3830277210999991
 20
1.5088631699999999
 30
0.0
  0
VERTEX
  5
58A
  8
0
  6
CONTINUOUS
 62
     7
 10
2.3794053556999999
 20
1.5098403167000001
 30
0.0
  0
VERTEX
  5
58B
  8
0
  6
CONTINUOUS
 62
     7
 10
2.376115916899999
 20
1.5113764739999991
 30
0.0
  0
VERTEX
  5
58C
  8
0
  6
CONTINUOUS
 62
     7
 10
2.3730811725000001
 20
1.5135646931
 30
0.0
  0
VERTEX
  5
58D
  8
0
  6
CONTINUOUS
 62
     7
 10
2.3703793547999998
 20
1.516311922799999
 30
0.0
  0
VERTEX
  5
58E
  8
0
  6
CONTINUOUS
 62
     7
 10
2.3682451602999999
 20
1.519339009599999
 30
0.0
  0
VERTEX
  5
58F
  8
0
  6
CONTINUOUS
 62
     7
 10
2.3667414255999999
 20
1.5226461878999991
 30
0.0
  0
VERTEX
  5
590
  8
0
  6
CONTINUOUS
 62
     7
 10
2.3658053141000002
 20
1.5262332232
 30
0.0
  0
VERTEX
  5
591
  8
0
  6
CONTINUOUS
 62
     7
 10
2.3654830130999991
 20
1.5298202586
 30
0.0
  0
VERTEX
  5
592
  8
0
  6
CONTINUOUS
 62
     7
 10
2.3658053141000002
 20
1.533407293899999
 30
0.0
  0
VERTEX
  5
593
  8
0
  6
CONTINUOUS
 62
     7
 10
2.3667414255999999
 20
1.5369943291999999
 30
0.0
  0
VERTEX
  5
594
  8
0
  6
CONTINUOUS
 62
     7
 10
2.3682451602999999
 20
1.5403015074999999
 30
0.0
  0
VERTEX
  5
595
  8
0
  6
CONTINUOUS
 62
     7
 10
2.3703793547999998
 20
1.5433285942999999
 30
0.0
  0
VERTEX
  5
596
  8
0
  6
CONTINUOUS
 62
     7
 10
2.3730811725000001
 20
1.546075823999999
 30
0.0
  0
VERTEX
  5
597
  8
0
  6
CONTINUOUS
 62
     7
 10
2.376115916899999
 20
1.5482640431000001
 30
0.0
  0
VERTEX
  5
598
  8
0
  6
CONTINUOUS
 62
     7
 10
2.3794053556999999
 20
1.5498002003999991
 30
0.0
  0
VERTEX
  5
599
  8
0
  6
CONTINUOUS
 62
     7
 10
2.3830277210999991
 20
1.550777347199999
 30
0.0
  0
VERTEX
  5
59A
  8
0
  6
CONTINUOUS
 62
     7
 10
2.3869830131000001
 20
1.551195483299999
 30
0.0
  0
SEQEND
  5
59B
  8
0
  6
CONTINUOUS
 62
     7
  0
POLYLINE
  5
24E
  8
0
  6
CONTINUOUS
 62
     7
 66
     1
 10
0.0
 20
0.0
 30
0.0
  0
VERTEX
  5
59C
  8
0
  6
CONTINUOUS
 62
     7
 10
1.9322425262999989
 20
1.5081125092000001
 30
0.0
  0
VERTEX
  5
59D
  8
0
  6
CONTINUOUS
 62
     7
 10
1.9282897958999989
 20
1.5085458480999989
 30
0.0
  0
VERTEX
  5
59E
  8
0
  6
CONTINUOUS
 62
     7
 10
1.9246697765
 20
1.5095369901999991
 30
0.0
  0
VERTEX
  5
59F
  8
0
  6
CONTINUOUS
 62
     7
 10
1.9213824681
 20
1.5110859352999999
 30
0.0
  0
VERTEX
  5
5A0
  8
0
  6
CONTINUOUS
 62
     7
 10
1.9183496891999989
 20
1.5132860457999999
 30
0.0
  0
VERTEX
  5
5A1
  8
0
  6
CONTINUOUS
 62
     7
 10
1.9156496213
 20
1.5160439591999999
 30
0.0
  0
VERTEX
  5
5A2
  8
0
  6
CONTINUOUS
 62
     7
 10
1.913516809099999
 20
1.5190795892999991
 30
0.0
  0
VERTEX
  5
5A3
  8
0
  6
CONTINUOUS
 62
     7
 10
1.9120140483000001
 20
1.5223929296000001
 30
0.0
  0
VERTEX
  5
5A4
  8
0
  6
CONTINUOUS
 62
     7
 10
1.9110785430999999
 20
1.5259839866
 30
0.0
  0
VERTEX
  5
5A5
  8
0
  6
CONTINUOUS
 62
     7
 10
1.9107564507999999
 20
1.529572692099999
 30
0.0
  0
VERTEX
  5
5A6
  8
0
  6
CONTINUOUS
 62
     7
 10
1.9110785430999999
 20
1.5331589282
 30
0.0
  0
VERTEX
  5
5A7
  8
0
  6
CONTINUOUS
 62
     7
 10
1.9120140483000001
 20
1.536742813
 30
0.0
  0
VERTEX
  5
5A8
  8
0
  6
CONTINUOUS
 62
     7
 10
1.913516809099999
 20
1.540044632199999
 30
0.0
  0
VERTEX
  5
5A9
  8
0
  6
CONTINUOUS
 62
     7
 10
1.9156496213
 20
1.5430639107999991
 30
0.0
  0
VERTEX
  5
5AA
  8
0
  6
CONTINUOUS
 62
     7
 10
1.9183496891999989
 20
1.5458011238
 30
0.0
  0
VERTEX
  5
5AB
  8
0
  6
CONTINUOUS
 62
     7
 10
1.9213824681
 20
1.547977983
 30
0.0
  0
VERTEX
  5
5AC
  8
0
  6
CONTINUOUS
 62
     7
 10
1.9246697765
 20
1.549501725499999
 30
0.0
  0
VERTEX
  5
5AD
  8
0
  6
CONTINUOUS
 62
     7
 10
1.9282897958999989
 20
1.5504651142000001
 30
0.0
  0
VERTEX
  5
5AE
  8
0
  6
CONTINUOUS
 62
     7
 10
1.9322425262999989
 20
1.5508681489999989
 30
0.0
  0
SEQEND
  5
5AF
  8
0
  6
CONTINUOUS
 62
     7
  0
POLYLINE
  5
24F
  8
0
  6
CONTINUOUS
 62
     7
 66
     1
 10
0.0
 20
0.0
 30
0.0
  0
VERTEX
  5
5B0
  8
0
  6
CONTINUOUS
 62
     7
 10
1.9322425262999989
 20
1.5508681489999989
 30
0.0
  0
VERTEX
  5
5B1
  8
0
  6
CONTINUOUS
 62
     7
 10
1.9361952566999989
 20
1.5504348100000001
 30
0.0
  0
VERTEX
  5
5B2
  8
0
  6
CONTINUOUS
 62
     7
 10
1.9398152761
 20
1.549443667899999
 30
0.0
  0
VERTEX
  5
5B3
  8
0
  6
CONTINUOUS
 62
     7
 10
1.9431025844000001
 20
1.5478947228
 30
0.0
  0
VERTEX
  5
5B4
  8
0
  6
CONTINUOUS
 62
     7
 10
1.9461353633999989
 20
1.5456946123999999
 30
0.0
  0
VERTEX
  5
5B5
  8
0
  6
CONTINUOUS
 62
     7
 10
1.9488354312
 20
1.5429366989
 30
0.0
  0
VERTEX
  5
5B6
  8
0
  6
CONTINUOUS
 62
     7
 10
1.9509682435
 20
1.539901068899999
 30
0.0
  0
VERTEX
  5
5B7
  8
0
  6
CONTINUOUS
 62
     7
 10
1.9524710042999991
 20
1.5365877284999989
 30
0.0
  0
VERTEX
  5
5B8
  8
0
  6
CONTINUOUS
 62
     7
 10
1.9534065094999999
 20
1.532996671599999
 30
0.0
  0
VERTEX
  5
5B9
  8
0
  6
CONTINUOUS
 62
     7
 10
1.9537286017999991
 20
1.5294079659999991
 30
0.0
  0
VERTEX
  5
5BA
  8
0
  6
CONTINUOUS
 62
     7
 10
1.9534065094999999
 20
1.5258217299000001
 30
0.0
  0
VERTEX
  5
5BB
  8
0
  6
CONTINUOUS
 62
     7
 10
1.9524710042999991
 20
1.5222378451999989
 30
0.0
  0
VERTEX
  5
5BC
  8
0
  6
CONTINUOUS
 62
     7
 10
1.9509682435
 20
1.5189360258999991
 30
0.0
  0
VERTEX
  5
5BD
  8
0
  6
CONTINUOUS
 62
     7
 10
1.9488354312
 20
1.515916747399999
 30
0.0
  0
VERTEX
  5
5BE
  8
0
  6
CONTINUOUS
 62
     7
 10
1.9461353633999989
 20
1.513179534299999
 30
0.0
  0
VERTEX
  5
5BF
  8
0
  6
CONTINUOUS
 62
     7
 10
1.9431025844000001
 20
1.511002675199999
 30
0.0
  0
VERTEX
  5
5C0
  8
0
  6
CONTINUOUS
 62
     7
 10
1.9398152761
 20
1.5094789325999991
 30
0.0
  0
VERTEX
  5
5C1
  8
0
  6
CONTINUOUS
 62
     7
 10
1.9361952566999989
 20
1.508515544
 30
0.0
  0
VERTEX
  5
5C2
  8
0
  6
CONTINUOUS
 62
     7
 10
1.9322425262999989
 20
1.5081125092000001
 30
0.0
  0
SEQEND
  5
5C3
  8
0
  6
CONTINUOUS
 62
     7
  0
POLYLINE
  5
251
  8
0
  6
CONTINUOUS
 62
     7
 66
     1
 10
0.0
 20
0.0
 30
0.0
  0
VERTEX
  5
5C4
  8
0
  6
CONTINUOUS
 62
     7
 10
1.448836557199999
 20
1.5267482232999989
 30
0.0
  0
VERTEX
  5
5C5
  8
0
  6
CONTINUOUS
 62
     7
 10
1.4492144348
 20
1.5306833034
 30
0.0
  0
VERTEX
  5
5C6
  8
0
  6
CONTINUOUS
 62
     7
 10
1.450155094599999
 20
1.5342871579999999
 30
0.0
  0
VERTEX
  5
5C7
  8
0
  6
CONTINUOUS
 62
     7
 10
1.4516585366000001
 20
1.5375597874
 30
0.0
  0
VERTEX
  5
5C8
  8
0
  6
CONTINUOUS
 62
     7
 10
1.4538170700999991
 20
1.540579023799999
 30
0.0
  0
VERTEX
  5
5C9
  8
0
  6
CONTINUOUS
 62
     7
 10
1.4565383859000001
 20
1.5432670348999991
 30
0.0
  0
VERTEX
  5
5CA
  8
0
  6
CONTINUOUS
 62
     7
 10
1.4595455551000001
 20
1.545390323399999
 30
0.0
  0
VERTEX
  5
5CB
  8
0
  6
CONTINUOUS
 62
     7
 10
1.4628394563
 20
1.5468863738
 30
0.0
  0
VERTEX
  5
5CC
  8
0
  6
CONTINUOUS
 62
     7
 10
1.466419211099999
 20
1.5478177016000001
 30
0.0
  0
VERTEX
  5
5CD
  8
0
  6
CONTINUOUS
 62
     7
 10
1.4700052552999989
 20
1.548138355599999
 30
0.0
  0
VERTEX
  5
5CE
  8
0
  6
CONTINUOUS
 62
     7
 10
1.4735979044
 20
1.5478177016000001
 30
0.0
  0
VERTEX
  5
5CF
  8
0
  6
CONTINUOUS
 62
     7
 10
1.4771968429
 20
1.5468863738
 30
0.0
  0
VERTEX
  5
5D0
  8
0
  6
CONTINUOUS
 62
     7
 10
1.4805215600999999
 20
1.545390323399999
 30
0.0
  0
VERTEX
  5
5D1
  8
0
  6
CONTINUOUS
 62
     7
 10
1.4835724653999991
 20
1.5432670348999991
 30
0.0
  0
VERTEX
  5
5D2
  8
0
  6
CONTINUOUS
 62
     7
 10
1.4863491495000001
 20
1.540579023799999
 30
0.0
  0
VERTEX
  5
5D3
  8
0
  6
CONTINUOUS
 62
     7
 10
1.4885698740999991
 20
1.5375597874
 30
0.0
  0
VERTEX
  5
5D4
  8
0
  6
CONTINUOUS
 62
     7
 10
1.4901407264999991
 20
1.5342871579999999
 30
0.0
  0
VERTEX
  5
5D5
  8
0
  6
CONTINUOUS
 62
     7
 10
1.4911556194
 20
1.5306833034
 30
0.0
  0
VERTEX
  5
5D6
  8
0
  6
CONTINUOUS
 62
     7
 10
1.4916145528
 20
1.5267482232999989
 30
0.0
  0
SEQEND
  5
5D7
  8
0
  6
CONTINUOUS
 62
     7
  0
POLYLINE
  5
252
  8
0
  6
CONTINUOUS
 62
     7
 66
     1
 10
0.0
 20
0.0
 30
0.0
  0
VERTEX
  5
5D8
  8
0
  6
CONTINUOUS
 62
     7
 10
1.4916145528
 20
1.5267482232999989
 30
0.0
  0
VERTEX
  5
5D9
  8
0
  6
CONTINUOUS
 62
     7
 10
1.4912366751999999
 20
1.5228131433000001
 30
0.0
  0
VERTEX
  5
5DA
  8
0
  6
CONTINUOUS
 62
     7
 10
1.4902960154
 20
1.519209288699999
 30
0.0
  0
VERTEX
  5
5DB
  8
0
  6
CONTINUOUS
 62
     7
 10
1.4887925735
 20
1.515936659299999
 30
0.0
  0
VERTEX
  5
5DC
  8
0
  6
CONTINUOUS
 62
     7
 10
1.4866340399
 20
1.5129174229
 30
0.0
  0
VERTEX
  5
5DD
  8
0
  6
CONTINUOUS
 62
     7
 10
1.4839127242000001
 20
1.5102294117999999
 30
0.0
  0
VERTEX
  5
5DE
  8
0
  6
CONTINUOUS
 62
     7
 10
1.4809055549000001
 20
1.5081061232999999
 30
0.0
  0
VERTEX
  5
5DF
  8
0
  6
CONTINUOUS
 62
     7
 10
1.477611653699999
 20
1.5066100729
 30
0.0
  0
VERTEX
  5
5E0
  8
0
  6
CONTINUOUS
 62
     7
 10
1.474031898899999
 20
1.5056787449999991
 30
0.0
  0
VERTEX
  5
5E1
  8
0
  6
CONTINUOUS
 62
     7
 10
1.470445854699999
 20
1.505358091
 30
0.0
  0
VERTEX
  5
5E2
  8
0
  6
CONTINUOUS
 62
     7
 10
1.4668532057000001
 20
1.5056787449999991
 30
0.0
  0
VERTEX
  5
5E3
  8
0
  6
CONTINUOUS
 62
     7
 10
1.4632542671999991
 20
1.5066100729
 30
0.0
  0
VERTEX
  5
5E4
  8
0
  6
CONTINUOUS
 62
     7
 10
1.4599295499
 20
1.5081061232999999
 30
0.0
  0
VERTEX
  5
5E5
  8
0
  6
CONTINUOUS
 62
     7
 10
1.4568786445999999
 20
1.5102294117999999
 30
0.0
  0
VERTEX
  5
5E6
  8
0
  6
CONTINUOUS
 62
     7
 10
1.4541019605000001
 20
1.5129174229
 30
0.0
  0
VERTEX
  5
5E7
  8
0
  6
CONTINUOUS
 62
     7
 10
1.4518812359
 20
1.515936659299999
 30
0.0
  0
VERTEX
  5
5E8
  8
0
  6
CONTINUOUS
 62
     7
 10
1.4503103836
 20
1.519209288699999
 30
0.0
  0
VERTEX
  5
5E9
  8
0
  6
CONTINUOUS
 62
     7
 10
1.4492954905999991
 20
1.5228131433000001
 30
0.0
  0
VERTEX
  5
5EA
  8
0
  6
CONTINUOUS
 62
     7
 10
1.448836557199999
 20
1.5267482232999989
 30
0.0
  0
SEQEND
  5
5EB
  8
0
  6
CONTINUOUS
 62
     7
  0
POLYLINE
  5
253
  8
0
  6
CONTINUOUS
 62
     7
 66
     1
 10
0.0
 20
0.0
 30
0.0
  0
VERTEX
  5
5EC
  8
0
  6
CONTINUOUS
 62
     7
 10
1.4515898408000001
 20
1.9887651946
 30
0.0
  0
VERTEX
  5
5ED
  8
0
  6
CONTINUOUS
 62
     7
 10
1.4519928755999989
 20
1.992717925
 30
0.0
  0
VERTEX
  5
5EE
  8
0
  6
CONTINUOUS
 62
     7
 10
1.4529562643
 20
1.9963379444
 30
0.0
  0
VERTEX
  5
5EF
  8
0
  6
CONTINUOUS
 62
     7
 10
1.454480006799999
 20
1.9996252527999989
 30
0.0
  0
VERTEX
  5
5F0
  8
0
  6
CONTINUOUS
 62
     7
 10
1.456656865999999
 20
2.0026580316999989
 30
0.0
  0
VERTEX
  5
5F1
  8
0
  6
CONTINUOUS
 62
     7
 10
1.4593940789999991
 20
2.0053580995999991
 30
0.0
  0
VERTEX
  5
5F2
  8
0
  6
CONTINUOUS
 62
     7
 10
1.4624133576
 20
2.0074909118000002
 30
0.0
  0
VERTEX
  5
5F3
  8
0
  6
CONTINUOUS
 62
     7
 10
1.465715176799999
 20
2.0089936726999991
 30
0.0
  0
VERTEX
  5
5F4
  8
0
  6
CONTINUOUS
 62
     7
 10
1.4692990615999999
 20
2.0099291778000001
 30
0.0
  0
VERTEX
  5
5F5
  8
0
  6
CONTINUOUS
 62
     7
 10
1.4728852976999991
 20
2.010251270099999
 30
0.0
  0
VERTEX
  5
5F6
  8
0
  6
CONTINUOUS
 62
     7
 10
1.476474003199999
 20
2.0099291778000001
 30
0.0
  0
VERTEX
  5
5F7
  8
0
  6
CONTINUOUS
 62
     7
 10
1.4800650601999989
 20
2.0089936726999991
 30
0.0
  0
VERTEX
  5
5F8
  8
0
  6
CONTINUOUS
 62
     7
 10
1.483378400499999
 20
2.0074909118000002
 30
0.0
  0
VERTEX
  5
5F9
  8
0
  6
CONTINUOUS
 62
     7
 10
1.4864140306
 20
2.0053580995999991
 30
0.0
  0
VERTEX
  5
5FA
  8
0
  6
CONTINUOUS
 62
     7
 10
1.4891719441
 20
2.0026580316999989
 30
0.0
  0
VERTEX
  5
5FB
  8
0
  6
CONTINUOUS
 62
     7
 10
1.4913720545
 20
1.9996252527999989
 30
0.0
  0
VERTEX
  5
5FC
  8
0
  6
CONTINUOUS
 62
     7
 10
1.492920999599999
 20
1.9963379444
 30
0.0
  0
VERTEX
  5
5FD
  8
0
  6
CONTINUOUS
 62
     7
 10
1.4939121417000001
 20
1.992717925
 30
0.0
  0
VERTEX
  5
5FE
  8
0
  6
CONTINUOUS
 62
     7
 10
1.4943454805999989
 20
1.9887651946
 30
0.0
  0
SEQEND
  5
5FF
  8
0
  6
CONTINUOUS
 62
     7
  0
POLYLINE
  5
254
  8
0
  6
CONTINUOUS
 62
     7
 66
     1
 10
0.0
 20
0.0
 30
0.0
  0
VERTEX
  5
600
  8
0
  6
CONTINUOUS
 62
     7
 10
1.4943454805999989
 20
1.9887651946
 30
0.0
  0
VERTEX
  5
601
  8
0
  6
CONTINUOUS
 62
     7
 10
1.4939424457999999
 20
1.9848124642
 30
0.0
  0
VERTEX
  5
602
  8
0
  6
CONTINUOUS
 62
     7
 10
1.492979057199999
 20
1.9811924447999989
 30
0.0
  0
VERTEX
  5
603
  8
0
  6
CONTINUOUS
 62
     7
 10
1.4914553146
 20
1.9779051365
 30
0.0
  0
VERTEX
  5
604
  8
0
  6
CONTINUOUS
 62
     7
 10
1.4892784555
 20
1.9748723575999989
 30
0.0
  0
VERTEX
  5
605
  8
0
  6
CONTINUOUS
 62
     7
 10
1.4865412423999991
 20
1.9721722896999989
 30
0.0
  0
VERTEX
  5
606
  8
0
  6
CONTINUOUS
 62
     7
 10
1.483521963899999
 20
1.970039477399999
 30
0.0
  0
VERTEX
  5
607
  8
0
  6
CONTINUOUS
 62
     7
 10
1.4802201447000001
 20
1.9685367166000001
 30
0.0
  0
VERTEX
  5
608
  8
0
  6
CONTINUOUS
 62
     7
 10
1.4766362598999989
 20
1.967601211399999
 30
0.0
  0
VERTEX
  5
609
  8
0
  6
CONTINUOUS
 62
     7
 10
1.4730500237999991
 20
1.9672791191000001
 30
0.0
  0
VERTEX
  5
60A
  8
0
  6
CONTINUOUS
 62
     7
 10
1.4694613182
 20
1.967601211399999
 30
0.0
  0
VERTEX
  5
60B
  8
0
  6
CONTINUOUS
 62
     7
 10
1.4658702613000001
 20
1.9685367166000001
 30
0.0
  0
VERTEX
  5
60C
  8
0
  6
CONTINUOUS
 62
     7
 10
1.4625569209
 20
1.970039477399999
 30
0.0
  0
VERTEX
  5
60D
  8
0
  6
CONTINUOUS
 62
     7
 10
1.4595212908999999
 20
1.9721722896999989
 30
0.0
  0
VERTEX
  5
60E
  8
0
  6
CONTINUOUS
 62
     7
 10
1.4567633773999999
 20
1.9748723575999989
 30
0.0
  0
VERTEX
  5
60F
  8
0
  6
CONTINUOUS
 62
     7
 10
1.4545632669999999
 20
1.9779051365
 30
0.0
  0
VERTEX
  5
610
  8
0
  6
CONTINUOUS
 62
     7
 10
1.4530143219
 20
1.9811924447999989
 30
0.0
  0
VERTEX
  5
611
  8
0
  6
CONTINUOUS
 62
     7
 10
1.452023179799999
 20
1.9848124642
 30
0.0
  0
VERTEX
  5
612
  8
0
  6
CONTINUOUS
 62
     7
 10
1.4515898408000001
 20
1.9887651946
 30
0.0
  0
SEQEND
  5
613
  8
0
  6
CONTINUOUS
 62
     7
  0
POLYLINE
  5
255
  8
0
  6
CONTINUOUS
 62
     7
 66
     1
 10
0.0
 20
0.0
 30
0.0
  0
VERTEX
  5
614
  8
0
  6
CONTINUOUS
 62
     7
 10
1.494672814999999
 20
2.4435056815
 30
0.0
  0
VERTEX
  5
615
  8
0
  6
CONTINUOUS
 62
     7
 10
1.4942546787999991
 20
2.439550389399999
 30
0.0
  0
VERTEX
  5
616
  8
0
  6
CONTINUOUS
 62
     7
 10
1.4932775321
 20
2.435928023999999
 30
0.0
  0
VERTEX
  5
617
  8
0
  6
CONTINUOUS
 62
     7
 10
1.4917413747999999
 20
2.432638585199999
 30
0.0
  0
VERTEX
  5
618
  8
0
  6
CONTINUOUS
 62
     7
 10
1.489553155699999
 20
2.4296038408
 30
0.0
  0
VERTEX
  5
619
  8
0
  6
CONTINUOUS
 62
     7
 10
1.4868059258999999
 20
2.4269020230999989
 30
0.0
  0
VERTEX
  5
61A
  8
0
  6
CONTINUOUS
 62
     7
 10
1.4837788392
 20
2.424767828599999
 30
0.0
  0
VERTEX
  5
61B
  8
0
  6
CONTINUOUS
 62
     7
 10
1.4804716608999999
 20
2.423264093899999
 30
0.0
  0
VERTEX
  5
61C
  8
0
  6
CONTINUOUS
 62
     7
 10
1.476884625599999
 20
2.4223279823999988
 30
0.0
  0
VERTEX
  5
61D
  8
0
  6
CONTINUOUS
 62
     7
 10
1.4732975902000001
 20
2.4220056814999991
 30
0.0
  0
VERTEX
  5
61E
  8
0
  6
CONTINUOUS
 62
     7
 10
1.4697105548999989
 20
2.4223279823999988
 30
0.0
  0
VERTEX
  5
61F
  8
0
  6
CONTINUOUS
 62
     7
 10
1.4661235195999991
 20
2.423264093899999
 30
0.0
  0
VERTEX
  5
620
  8
0
  6
CONTINUOUS
 62
     7
 10
1.462816341299999
 20
2.424767828599999
 30
0.0
  0
VERTEX
  5
621
  8
0
  6
CONTINUOUS
 62
     7
 10
1.4597892544999991
 20
2.4269020230999989
 30
0.0
  0
VERTEX
  5
622
  8
0
  6
CONTINUOUS
 62
     7
 10
1.4570420248
 20
2.4296038408
 30
0.0
  0
VERTEX
  5
623
  8
0
  6
CONTINUOUS
 62
     7
 10
1.4548538057
 20
2.432638585199999
 30
0.0
  0
VERTEX
  5
624
  8
0
  6
CONTINUOUS
 62
     7
 10
1.4533176484000001
 20
2.435928023999999
 30
0.0
  0
VERTEX
  5
625
  8
0
  6
CONTINUOUS
 62
     7
 10
1.4523405015999999
 20
2.439550389399999
 30
0.0
  0
VERTEX
  5
626
  8
0
  6
CONTINUOUS
 62
     7
 10
1.4519223655
 20
2.4435056815
 30
0.0
  0
SEQEND
  5
627
  8
0
  6
CONTINUOUS
 62
     7
  0
POLYLINE
  5
256
  8
0
  6
CONTINUOUS
 62
     7
 66
     1
 10
0.0
 20
0.0
 30
0.0
  0
VERTEX
  5
628
  8
0
  6
CONTINUOUS
 62
     7
 10
2.8417235000000001
 20
1.5081125092000001
 30
0.0
  0
VERTEX
  5
629
  8
0
  6
CONTINUOUS
 62
     7
 10
2.8377707696000001
 20
1.508515544
 30
0.0
  0
VERTEX
  5
62A
  8
0
  6
CONTINUOUS
 62
     7
 10
2.8341507502000001
 20
1.5094789325999991
 30
0.0
  0
VERTEX
  5
62B
  8
0
  6
CONTINUOUS
 62
     7
 10
2.8308634418
 20
1.511002675199999
 30
0.0
  0
VERTEX
  5
62C
  8
0
  6
CONTINUOUS
 62
     7
 10
2.8278306628999998
 20
1.513179534299999
 30
0.0
  0
VERTEX
  5
62D
  8
0
  6
CONTINUOUS
 62
     7
 10
2.8251305950000001
 20
1.515916747399999
 30
0.0
  0
VERTEX
  5
62E
  8
0
  6
CONTINUOUS
 62
     7
 10
2.822997782799999
 20
1.5189360258999991
 30
0.0
  0
VERTEX
  5
62F
  8
0
  6
CONTINUOUS
 62
     7
 10
2.8214950219000001
 20
1.5222378451999989
 30
0.0
  0
VERTEX
  5
630
  8
0
  6
CONTINUOUS
 62
     7
 10
2.820559516699999
 20
1.5258217299000001
 30
0.0
  0
VERTEX
  5
631
  8
0
  6
CONTINUOUS
 62
     7
 10
2.8202374245000001
 20
1.5294079659999991
 30
0.0
  0
VERTEX
  5
632
  8
0
  6
CONTINUOUS
 62
     7
 10
2.820559516699999
 20
1.532996671599999
 30
0.0
  0
VERTEX
  5
633
  8
0
  6
CONTINUOUS
 62
     7
 10
2.8214950219000001
 20
1.5365877284999989
 30
0.0
  0
VERTEX
  5
634
  8
0
  6
CONTINUOUS
 62
     7
 10
2.822997782799999
 20
1.539901068899999
 30
0.0
  0
VERTEX
  5
635
  8
0
  6
CONTINUOUS
 62
     7
 10
2.8251305950000001
 20
1.5429366989
 30
0.0
  0
VERTEX
  5
636
  8
0
  6
CONTINUOUS
 62
     7
 10
2.8278306628999998
 20
1.5456946123999999
 30
0.0
  0
VERTEX
  5
637
  8
0
  6
CONTINUOUS
 62
     7
 10
2.8308634418
 20
1.5478947228
 30
0.0
  0
VERTEX
  5
638
  8
0
  6
CONTINUOUS
 62
     7
 10
2.8341507502000001
 20
1.549443667899999
 30
0.0
  0
VERTEX
  5
639
  8
0
  6
CONTINUOUS
 62
     7
 10
2.8377707696000001
 20
1.5504348100000001
 30
0.0
  0
VERTEX
  5
63A
  8
0
  6
CONTINUOUS
 62
     7
 10
2.8417235000000001
 20
1.5508681489999989
 30
0.0
  0
SEQEND
  5
63B
  8
0
  6
CONTINUOUS
 62
     7
  0
POLYLINE
  5
257
  8
0
  6
CONTINUOUS
 62
     7
 66
     1
 10
0.0
 20
0.0
 30
0.0
  0
VERTEX
  5
63C
  8
0
  6
CONTINUOUS
 62
     7
 10
2.8417235000000001
 20
1.5508681489999989
 30
0.0
  0
VERTEX
  5
63D
  8
0
  6
CONTINUOUS
 62
     7
 10
2.8456762304000001
 20
1.5504651142000001
 30
0.0
  0
VERTEX
  5
63E
  8
0
  6
CONTINUOUS
 62
     7
 10
2.8492962497000001
 20
1.549501725499999
 30
0.0
  0
VERTEX
  5
63F
  8
0
  6
CONTINUOUS
 62
     7
 10
2.8525835581000001
 20
1.547977983
 30
0.0
  0
VERTEX
  5
640
  8
0
  6
CONTINUOUS
 62
     7
 10
2.8556163369999998
 20
1.5458011238
 30
0.0
  0
VERTEX
  5
641
  8
0
  6
CONTINUOUS
 62
     7
 10
2.8583164049000001
 20
1.5430639107999991
 30
0.0
  0
VERTEX
  5
642
  8
0
  6
CONTINUOUS
 62
     7
 10
2.8604492171999998
 20
1.540044632199999
 30
0.0
  0
VERTEX
  5
643
  8
0
  6
CONTINUOUS
 62
     7
 10
2.861951978
 20
1.536742813
 30
0.0
  0
VERTEX
  5
644
  8
0
  6
CONTINUOUS
 62
     7
 10
2.8628874832000002
 20
1.5331589282
 30
0.0
  0
VERTEX
  5
645
  8
0
  6
CONTINUOUS
 62
     7
 10
2.8632095753999991
 20
1.529572692099999
 30
0.0
  0
VERTEX
  5
646
  8
0
  6
CONTINUOUS
 62
     7
 10
2.8628874832000002
 20
1.5259839866
 30
0.0
  0
VERTEX
  5
647
  8
0
  6
CONTINUOUS
 62
     7
 10
2.861951978
 20
1.5223929297000001
 30
0.0
  0
VERTEX
  5
648
  8
0
  6
CONTINUOUS
 62
     7
 10
2.8604492171999998
 20
1.5190795892999991
 30
0.0
  0
VERTEX
  5
649
  8
0
  6
CONTINUOUS
 62
     7
 10
2.8583164049000001
 20
1.5160439591999999
 30
0.0
  0
VERTEX
  5
64A
  8
0
  6
CONTINUOUS
 62
     7
 10
2.8556163369999998
 20
1.5132860457999999
 30
0.0
  0
VERTEX
  5
64B
  8
0
  6
CONTINUOUS
 62
     7
 10
2.8525835581000001
 20
1.5110859352999999
 30
0.0
  0
VERTEX
  5
64C
  8
0
  6
CONTINUOUS
 62
     7
 10
2.8492962497000001
 20
1.5095369901999991
 30
0.0
  0
VERTEX
  5
64D
  8
0
  6
CONTINUOUS
 62
     7
 10
2.8456762304000001
 20
1.5085458480999989
 30
0.0
  0
VERTEX
  5
64E
  8
0
  6
CONTINUOUS
 62
     7
 10
2.8417235000000001
 20
1.5081125092000001
 30
0.0
  0
SEQEND
  5
64F
  8
0
  6
CONTINUOUS
 62
     7
  0
POLYLINE
  5
258
  8
0
  6
CONTINUOUS
 62
     7
 66
     1
 10
0.0
 20
0.0
 30
0.0
  0
VERTEX
  5
650
  8
0
  6
CONTINUOUS
 62
     7
 10
2.3869830131000001
 20
1.551195483299999
 30
0.0
  0
VERTEX
  5
651
  8
0
  6
CONTINUOUS
 62
     7
 10
2.3909383052000002
 20
1.550777347199999
 30
0.0
  0
VERTEX
  5
652
  8
0
  6
CONTINUOUS
 62
     7
 10
2.3945606706000002
 20
1.5498002003999991
 30
0.0
  0
VERTEX
  5
653
  8
0
  6
CONTINUOUS
 62
     7
 10
2.3978501094000002
 20
1.5482640431000001
 30
0.0
  0
VERTEX
  5
654
  8
0
  6
CONTINUOUS
 62
     7
 10
2.4008848537
 20
1.546075823999999
 30
0.0
  0
VERTEX
  5
655
  8
0
  6
CONTINUOUS
 62
     7
 10
2.4035866714999998
 20
1.5433285942999999
 30
0.0
  0
VERTEX
  5
656
  8
0
  6
CONTINUOUS
 62
     7
 10
2.4057208658999998
 20
1.5403015074999999
 30
0.0
  0
VERTEX
  5
657
  8
0
  6
CONTINUOUS
 62
     7
 10
2.4072246007000002
 20
1.5369943291999999
 30
0.0
  0
VERTEX
  5
658
  8
0
  6
CONTINUOUS
 62
     7
 10
2.408160712099999
 20
1.533407293899999
 30
0.0
  0
VERTEX
  5
659
  8
0
  6
CONTINUOUS
 62
     7
 10
2.4084830131000001
 20
1.5298202586
 30
0.0
  0
VERTEX
  5
65A
  8
0
  6
CONTINUOUS
 62
     7
 10
2.408160712099999
 20
1.5262332232
 30
0.0
  0
VERTEX
  5
65B
  8
0
  6
CONTINUOUS
 62
     7
 10
2.4072246007000002
 20
1.5226461878999991
 30
0.0
  0
VERTEX
  5
65C
  8
0
  6
CONTINUOUS
 62
     7
 10
2.4057208658999998
 20
1.519339009599999
 30
0.0
  0
VERTEX
  5
65D
  8
0
  6
CONTINUOUS
 62
     7
 10
2.4035866714999998
 20
1.516311922799999
 30
0.0
  0
VERTEX
  5
65E
  8
0
  6
CONTINUOUS
 62
     7
 10
2.4008848537
 20
1.5135646931
 30
0.0
  0
VERTEX
  5
65F
  8
0
  6
CONTINUOUS
 62
     7
 10
2.3978501094000002
 20
1.5113764739999991
 30
0.0
  0
VERTEX
  5
660
  8
0
  6
CONTINUOUS
 62
     7
 10
2.3945606706000002
 20
1.5098403167000001
 30
0.0
  0
VERTEX
  5
661
  8
0
  6
CONTINUOUS
 62
     7
 10
2.3909383052000002
 20
1.5088631699999999
 30
0.0
  0
VERTEX
  5
662
  8
0
  6
CONTINUOUS
 62
     7
 10
2.3869830131000001
 20
1.5084450337999999
 30
0.0
  0
SEQEND
  5
663
  8
0
  6
CONTINUOUS
 62
     7
  0
POLYLINE
  5
259
  8
0
  6
CONTINUOUS
 62
     7
 66
     1
 10
0.0
 20
0.0
 30
0.0
  0
VERTEX
  5
664
  8
0
  6
CONTINUOUS
 62
     7
 10
1.9112640572999999
 20
2.897746186
 30
0.0
  0
VERTEX
  5
665
  8
0
  6
CONTINUOUS
 62
     7
 10
1.9116921294
 20
2.9016975217000001
 30
0.0
  0
VERTEX
  5
666
  8
0
  6
CONTINUOUS
 62
     7
 10
1.912681245199999
 20
2.9053162637999992
 30
0.0
  0
VERTEX
  5
667
  8
0
  6
CONTINUOUS
 62
     7
 10
1.914231405
 20
2.9086024123000001
 30
0.0
  0
VERTEX
  5
668
  8
0
  6
CONTINUOUS
 62
     7
 10
1.9164362656999989
 20
2.9116341211000001
 30
0.0
  0
VERTEX
  5
669
  8
0
  6
CONTINUOUS
 62
     7
 10
1.9192021701999999
 20
2.9143332363000001
 30
0.0
  0
VERTEX
  5
66A
  8
0
  6
CONTINUOUS
 62
     7
 10
1.922248147199999
 20
2.9164652960999988
 30
0.0
  0
VERTEX
  5
66B
  8
0
  6
CONTINUOUS
 62
     7
 10
1.9255743064999999
 20
2.9179675267
 30
0.0
  0
VERTEX
  5
66C
  8
0
  6
CONTINUOUS
 62
     7
 10
1.9291805381999989
 20
2.9189027018
 30
0.0
  0
VERTEX
  5
66D
  8
0
  6
CONTINUOUS
 62
     7
 10
1.932785541399999
 20
2.9192246803999988
 30
0.0
  0
VERTEX
  5
66E
  8
0
  6
CONTINUOUS
 62
     7
 10
1.936389254299999
 20
2.9189027018
 30
0.0
  0
VERTEX
  5
66F
  8
0
  6
CONTINUOUS
 62
     7
 10
1.939991738799999
 20
2.9179675267
 30
0.0
  0
VERTEX
  5
670
  8
0
  6
CONTINUOUS
 62
     7
 10
1.943311878499999
 20
2.9164652960999988
 30
0.0
  0
VERTEX
  5
671
  8
0
  6
CONTINUOUS
 62
     7
 10
1.9463493122
 20
2.9143332363000001
 30
0.0
  0
VERTEX
  5
672
  8
0
  6
CONTINUOUS
 62
     7
 10
1.949104401299999
 20
2.9116341211000001
 30
0.0
  0
VERTEX
  5
673
  8
0
  6
CONTINUOUS
 62
     7
 10
1.951297113699999
 20
2.9086024123000001
 30
0.0
  0
VERTEX
  5
674
  8
0
  6
CONTINUOUS
 62
     7
 10
1.9528341057
 20
2.9053162637999992
 30
0.0
  0
VERTEX
  5
675
  8
0
  6
CONTINUOUS
 62
     7
 10
1.9538087210999999
 20
2.9016975217000001
 30
0.0
  0
VERTEX
  5
676
  8
0
  6
CONTINUOUS
 62
     7
 10
1.9542209599
 20
2.897746186
 30
0.0
  0
SEQEND
  5
677
  8
0
  6
CONTINUOUS
 62
     7
  0
POLYLINE
  5
25A
  8
0
  6
CONTINUOUS
 62
     7
 66
     1
 10
0.0
 20
0.0
 30
0.0
  0
VERTEX
  5
678
  8
0
  6
CONTINUOUS
 62
     7
 10
1.9542209599
 20
2.897746186
 30
0.0
  0
VERTEX
  5
679
  8
0
  6
CONTINUOUS
 62
     7
 10
1.9537928877999999
 20
2.8937948502999991
 30
0.0
  0
VERTEX
  5
67A
  8
0
  6
CONTINUOUS
 62
     7
 10
1.9528037719
 20
2.8901761081999999
 30
0.0
  0
VERTEX
  5
67B
  8
0
  6
CONTINUOUS
 62
     7
 10
1.9512536121999999
 20
2.8868899596999991
 30
0.0
  0
VERTEX
  5
67C
  8
0
  6
CONTINUOUS
 62
     7
 10
1.949048751499999
 20
2.883858250799999
 30
0.0
  0
VERTEX
  5
67D
  8
0
  6
CONTINUOUS
 62
     7
 10
1.9462828468999991
 20
2.881159135599999
 30
0.0
  0
VERTEX
  5
67E
  8
0
  6
CONTINUOUS
 62
     7
 10
1.9432368699
 20
2.879027075899999
 30
0.0
  0
VERTEX
  5
67F
  8
0
  6
CONTINUOUS
 62
     7
 10
1.9399107106999991
 20
2.8775248452999991
 30
0.0
  0
VERTEX
  5
680
  8
0
  6
CONTINUOUS
 62
     7
 10
1.9363044789999999
 20
2.8765896701999991
 30
0.0
  0
VERTEX
  5
681
  8
0
  6
CONTINUOUS
 62
     7
 10
1.9326994757999989
 20
2.876267691599999
 30
0.0
  0
VERTEX
  5
682
  8
0
  6
CONTINUOUS
 62
     7
 10
1.9290957627999989
 20
2.8765896701999991
 30
0.0
  0
VERTEX
  5
683
  8
0
  6
CONTINUOUS
 62
     7
 10
1.925493278399999
 20
2.8775248452999991
 30
0.0
  0
VERTEX
  5
684
  8
0
  6
CONTINUOUS
 62
     7
 10
1.922173138699999
 20
2.879027075899999
 30
0.0
  0
VERTEX
  5
685
  8
0
  6
CONTINUOUS
 62
     7
 10
1.919135705
 20
2.881159135599999
 30
0.0
  0
VERTEX
  5
686
  8
0
  6
CONTINUOUS
 62
     7
 10
1.916380615899999
 20
2.883858250799999
 30
0.0
  0
VERTEX
  5
687
  8
0
  6
CONTINUOUS
 62
     7
 10
1.9141879034
 20
2.8868899596999991
 30
0.0
  0
VERTEX
  5
688
  8
0
  6
CONTINUOUS
 62
     7
 10
1.9126509115000001
 20
2.8901761081999999
 30
0.0
  0
VERTEX
  5
689
  8
0
  6
CONTINUOUS
 62
     7
 10
1.9116762960999989
 20
2.8937948502999991
 30
0.0
  0
VERTEX
  5
68A
  8
0
  6
CONTINUOUS
 62
     7
 10
1.9112640572999999
 20
2.897746186
 30
0.0
  0
SEQEND
  5
68B
  8
0
  6
CONTINUOUS
 62
     7
  0
POLYLINE
  5
25B
  8
0
  6
CONTINUOUS
 62
     7
 66
     1
 10
0.0
 20
0.0
 30
0.0
  0
VERTEX
  5
68C
  8
0
  6
CONTINUOUS
 62
     7
 10
2.3869830131000001
 20
1.9674568281999989
 30
0.0
  0
VERTEX
  5
68D
  8
0
  6
CONTINUOUS
 62
     7
 10
2.3830277210999991
 20
1.9678768508
 30
0.0
  0
VERTEX
  5
68E
  8
0
  6
CONTINUOUS
 62
     7
 10
2.3794053556999999
 20
1.9688584058999989
 30
0.0
  0
VERTEX
  5
68F
  8
0
  6
CONTINUOUS
 62
     7
 10
2.376115916899999
 20
1.9704014934999989
 30
0.0
  0
VERTEX
  5
690
  8
0
  6
CONTINUOUS
 62
     7
 10
2.3730811725000001
 20
1.9725995847
 30
0.0
  0
VERTEX
  5
691
  8
0
  6
CONTINUOUS
 62
     7
 10
2.3703793547999998
 20
1.9753592084
 30
0.0
  0
VERTEX
  5
692
  8
0
  6
CONTINUOUS
 62
     7
 10
2.3682451602999999
 20
1.9783999517999999
 30
0.0
  0
VERTEX
  5
693
  8
0
  6
CONTINUOUS
 62
     7
 10
2.3667414255999999
 20
1.9817220502999999
 30
0.0
  0
VERTEX
  5
694
  8
0
  6
CONTINUOUS
 62
     7
 10
2.3658053141000002
 20
1.9853252684
 30
0.0
  0
VERTEX
  5
695
  8
0
  6
CONTINUOUS
 62
     7
 10
2.3654830130999991
 20
1.988928486499999
 30
0.0
  0
VERTEX
  5
696
  8
0
  6
CONTINUOUS
 62
     7
 10
2.3658053141000002
 20
1.9925317046
 30
0.0
  0
VERTEX
  5
697
  8
0
  6
CONTINUOUS
 62
     7
 10
2.3667414255999999
 20
1.9961349226999989
 30
0.0
  0
VERTEX
  5
698
  8
0
  6
CONTINUOUS
 62
     7
 10
2.3682451602999999
 20
1.9994570211999989
 30
0.0
  0
VERTEX
  5
699
  8
0
  6
CONTINUOUS
 62
     7
 10
2.3703793547999998
 20
2.0024977645000002
 30
0.0
  0
VERTEX
  5
69A
  8
0
  6
CONTINUOUS
 62
     7
 10
2.3730811725000001
 20
2.0052573882999991
 30
0.0
  0
VERTEX
  5
69B
  8
0
  6
CONTINUOUS
 62
     7
 10
2.376115916899999
 20
2.007455479499999
 30
0.0
  0
VERTEX
  5
69C
  8
0
  6
CONTINUOUS
 62
     7
 10
2.3794053556999999
 20
2.008998567099999
 30
0.0
  0
VERTEX
  5
69D
  8
0
  6
CONTINUOUS
 62
     7
 10
2.3830277210999991
 20
2.0099801221999991
 30
0.0
  0
VERTEX
  5
69E
  8
0
  6
CONTINUOUS
 62
     7
 10
2.3869830131000001
 20
2.0104001447000002
 30
0.0
  0
SEQEND
  5
69F
  8
0
  6
CONTINUOUS
 62
     7
  0
POLYLINE
  5
25C
  8
0
  6
CONTINUOUS
 62
     7
 66
     1
 10
0.0
 20
0.0
 30
0.0
  0
VERTEX
  5
6A0
  8
0
  6
CONTINUOUS
 62
     7
 10
2.3869830131000001
 20
2.0104001447000002
 30
0.0
  0
VERTEX
  5
6A1
  8
0
  6
CONTINUOUS
 62
     7
 10
2.3909383052000002
 20
2.0099801221999991
 30
0.0
  0
VERTEX
  5
6A2
  8
0
  6
CONTINUOUS
 62
     7
 10
2.3945606706000002
 20
2.008998567099999
 30
0.0
  0
VERTEX
  5
6A3
  8
0
  6
CONTINUOUS
 62
     7
 10
2.3978501094000002
 20
2.007455479499999
 30
0.0
  0
VERTEX
  5
6A4
  8
0
  6
CONTINUOUS
 62
     7
 10
2.4008848537
 20
2.0052573882999991
 30
0.0
  0
VERTEX
  5
6A5
  8
0
  6
CONTINUOUS
 62
     7
 10
2.4035866714999998
 20
2.0024977645000002
 30
0.0
  0
VERTEX
  5
6A6
  8
0
  6
CONTINUOUS
 62
     7
 10
2.4057208658999998
 20
1.9994570211999989
 30
0.0
  0
VERTEX
  5
6A7
  8
0
  6
CONTINUOUS
 62
     7
 10
2.4072246007000002
 20
1.9961349226999989
 30
0.0
  0
VERTEX
  5
6A8
  8
0
  6
CONTINUOUS
 62
     7
 10
2.408160712099999
 20
1.9925317046
 30
0.0
  0
VERTEX
  5
6A9
  8
0
  6
CONTINUOUS
 62
     7
 10
2.4084830131000001
 20
1.988928486499999
 30
0.0
  0
VERTEX
  5
6AA
  8
0
  6
CONTINUOUS
 62
     7
 10
2.408160712099999
 20
1.9853252684
 30
0.0
  0
VERTEX
  5
6AB
  8
0
  6
CONTINUOUS
 62
     7
 10
2.4072246007000002
 20
1.9817220502999999
 30
0.0
  0
VERTEX
  5
6AC
  8
0
  6
CONTINUOUS
 62
     7
 10
2.4057208658999998
 20
1.9783999517999999
 30
0.0
  0
VERTEX
  5
6AD
  8
0
  6
CONTINUOUS
 62
     7
 10
2.4035866714999998
 20
1.9753592084
 30
0.0
  0
VERTEX
  5
6AE
  8
0
  6
CONTINUOUS
 62
     7
 10
2.4008848537
 20
1.9725995847
 30
0.0
  0
VERTEX
  5
6AF
  8
0
  6
CONTINUOUS
 62
     7
 10
2.3978501094000002
 20
1.9704014934999989
 30
0.0
  0
VERTEX
  5
6B0
  8
0
  6
CONTINUOUS
 62
     7
 10
2.3945606706000002
 20
1.9688584058999989
 30
0.0
  0
VERTEX
  5
6B1
  8
0
  6
CONTINUOUS
 62
     7
 10
2.3909383052000002
 20
1.9678768508
 30
0.0
  0
VERTEX
  5
6B2
  8
0
  6
CONTINUOUS
 62
     7
 10
2.3869830131000001
 20
1.9674568281999989
 30
0.0
  0
SEQEND
  5
6B3
  8
0
  6
CONTINUOUS
 62
     7
  0
LINE
  5
25D
  8
0
  6
CONTINUOUS
 62
    40
 10
2.1379830130999991
 20
2.4798556814999988
 30
0.0
 11
2.1379830130999991
 21
2.4065056815000001
 31
0.0
  0
LINE
  5
25E
  8
0
  6
CONTINUOUS
 62
    40
 10
2.1423730130999989
 20
2.4065056815000001
 30
0.0
 11
2.1423730130999989
 21
2.4391856814999988
 31
0.0
  0
LINE
  5
25F
  8
0
  6
CONTINUOUS
 62
    40
 10
2.1423730130999989
 20
2.445985681499999
 30
0.0
 11
2.1423730130999989
 21
2.4798556814999988
 31
0.0
  0
POLYLINE
  5
260
  8
0
  6
CONTINUOUS
 62
     7
 66
     1
 10
0.0
 20
0.0
 30
0.0
  0
VERTEX
  5
6B4
  8
0
  6
CONTINUOUS
 62
     7
 10
1.9112640572999999
 20
1.9892651769
 30
0.0
  0
VERTEX
  5
6B5
  8
0
  6
CONTINUOUS
 62
     7
 10
1.9116762960999989
 20
1.9932165126000001
 30
0.0
  0
VERTEX
  5
6B6
  8
0
  6
CONTINUOUS
 62
     7
 10
1.9126509115000001
 20
1.9968352547999999
 30
0.0
  0
VERTEX
  5
6B7
  8
0
  6
CONTINUOUS
 62
     7
 10
1.9141879034
 20
2.0001214032000001
 30
0.0
  0
VERTEX
  5
6B8
  8
0
  6
CONTINUOUS
 62
     7
 10
1.916380615899999
 20
2.0031531121000001
 30
0.0
  0
VERTEX
  5
6B9
  8
0
  6
CONTINUOUS
 62
     7
 10
1.919135705
 20
2.0058522273000001
 30
0.0
  0
VERTEX
  5
6BA
  8
0
  6
CONTINUOUS
 62
     7
 10
1.922173138699999
 20
2.0079842870000002
 30
0.0
  0
VERTEX
  5
6BB
  8
0
  6
CONTINUOUS
 62
     7
 10
1.925493278399999
 20
2.0094865176000001
 30
0.0
  0
VERTEX
  5
6BC
  8
0
  6
CONTINUOUS
 62
     7
 10
1.9290957627999989
 20
2.0104216927
 30
0.0
  0
VERTEX
  5
6BD
  8
0
  6
CONTINUOUS
 62
     7
 10
1.9326994757999989
 20
2.0107436713000002
 30
0.0
  0
VERTEX
  5
6BE
  8
0
  6
CONTINUOUS
 62
     7
 10
1.9363044789999999
 20
2.0104216927
 30
0.0
  0
VERTEX
  5
6BF
  8
0
  6
CONTINUOUS
 62
     7
 10
1.9399107106999991
 20
2.0094865176000001
 30
0.0
  0
VERTEX
  5
6C0
  8
0
  6
CONTINUOUS
 62
     7
 10
1.9432368699
 20
2.0079842870000002
 30
0.0
  0
VERTEX
  5
6C1
  8
0
  6
CONTINUOUS
 62
     7
 10
1.9462828468999991
 20
2.0058522273000001
 30
0.0
  0
VERTEX
  5
6C2
  8
0
  6
CONTINUOUS
 62
     7
 10
1.949048751499999
 20
2.0031531121000001
 30
0.0
  0
VERTEX
  5
6C3
  8
0
  6
CONTINUOUS
 62
     7
 10
1.9512536121999999
 20
2.0001214032000001
 30
0.0
  0
VERTEX
  5
6C4
  8
0
  6
CONTINUOUS
 62
     7
 10
1.9528037719
 20
1.9968352547999999
 30
0.0
  0
VERTEX
  5
6C5
  8
0
  6
CONTINUOUS
 62
     7
 10
1.9537928877999999
 20
1.9932165126000001
 30
0.0
  0
VERTEX
  5
6C6
  8
0
  6
CONTINUOUS
 62
     7
 10
1.9542209599
 20
1.9892651769
 30
0.0
  0
SEQEND
  5
6C7
  8
0
  6
CONTINUOUS
 62
     7
  0
POLYLINE
  5
261
  8
0
  6
CONTINUOUS
 62
     7
 66
     1
 10
0.0
 20
0.0
 30
0.0
  0
VERTEX
  5
6C8
  8
0
  6
CONTINUOUS
 62
     7
 10
1.9542209599
 20
1.9892651769
 30
0.0
  0
VERTEX
  5
6C9
  8
0
  6
CONTINUOUS
 62
     7
 10
1.9538087210999999
 20
1.9853138411999991
 30
0.0
  0
VERTEX
  5
6CA
  8
0
  6
CONTINUOUS
 62
     7
 10
1.9528341057
 20
1.9816950990999991
 30
0.0
  0
VERTEX
  5
6CB
  8
0
  6
CONTINUOUS
 62
     7
 10
1.951297113699999
 20
1.9784089506
 30
0.0
  0
VERTEX
  5
6CC
  8
0
  6
CONTINUOUS
 62
     7
 10
1.949104401299999
 20
1.9753772418
 30
0.0
  0
VERTEX
  5
6CD
  8
0
  6
CONTINUOUS
 62
     7
 10
1.9463493122
 20
1.9726781265999991
 30
0.0
  0
VERTEX
  5
6CE
  8
0
  6
CONTINUOUS
 62
     7
 10
1.943311878499999
 20
1.970546066899999
 30
0.0
  0
VERTEX
  5
6CF
  8
0
  6
CONTINUOUS
 62
     7
 10
1.939991738799999
 20
1.9690438363
 30
0.0
  0
VERTEX
  5
6D0
  8
0
  6
CONTINUOUS
 62
     7
 10
1.936389254299999
 20
1.9681086611
 30
0.0
  0
VERTEX
  5
6D1
  8
0
  6
CONTINUOUS
 62
     7
 10
1.932785541399999
 20
1.967786682499999
 30
0.0
  0
VERTEX
  5
6D2
  8
0
  6
CONTINUOUS
 62
     7
 10
1.9291805381999989
 20
1.9681086611
 30
0.0
  0
VERTEX
  5
6D3
  8
0
  6
CONTINUOUS
 62
     7
 10
1.9255743064999999
 20
1.9690438363
 30
0.0
  0
VERTEX
  5
6D4
  8
0
  6
CONTINUOUS
 62
     7
 10
1.922248147199999
 20
1.970546066899999
 30
0.0
  0
VERTEX
  5
6D5
  8
0
  6
CONTINUOUS
 62
     7
 10
1.9192021701999999
 20
1.9726781265999991
 30
0.0
  0
VERTEX
  5
6D6
  8
0
  6
CONTINUOUS
 62
     7
 10
1.9164362656999989
 20
1.9753772418
 30
0.0
  0
VERTEX
  5
6D7
  8
0
  6
CONTINUOUS
 62
     7
 10
1.914231405
 20
1.9784089506
 30
0.0
  0
VERTEX
  5
6D8
  8
0
  6
CONTINUOUS
 62
     7
 10
1.912681245199999
 20
1.9816950990999991
 30
0.0
  0
VERTEX
  5
6D9
  8
0
  6
CONTINUOUS
 62
     7
 10
1.9116921294
 20
1.9853138411999991
 30
0.0
  0
VERTEX
  5
6DA
  8
0
  6
CONTINUOUS
 62
     7
 10
1.9112640572999999
 20
1.9892651769
 30
0.0
  0
SEQEND
  5
6DB
  8
0
  6
CONTINUOUS
 62
     7
  0
LINE
  5
262
  8
0
  6
CONTINUOUS
 62
    40
 10
2.2910930130999998
 20
2.4485256815000001
 30
0.0
 11
2.2914450131000001
 21
2.4433256814999988
 31
0.0
  0
LINE
  5
263
  8
0
  6
CONTINUOUS
 62
    40
 10
2.215714013099999
 20
2.4381756814999989
 30
0.0
 11
2.2153670130999998
 21
2.4433256814999988
 31
0.0
  0
LINE
  5
264
  8
0
  6
CONTINUOUS
 62
    40
 10
2.220041013099999
 20
2.4433256814999988
 30
0.0
 11
2.220346013099999
 21
2.4387656815000001
 31
0.0
  0
LINE
  5
265
  8
0
  6
CONTINUOUS
 62
    40
 10
2.2867790130999999
 20
2.4433256814999988
 30
0.0
 11
2.2864740130999999
 21
2.447885681499999
 31
0.0
  0
LINE
  5
266
  8
0
  6
CONTINUOUS
 62
    40
 10
2.3238080130999998
 20
2.4798556814999988
 30
0.0
 11
2.3238080130999998
 21
2.4065056815000001
 31
0.0
  0
LINE
  5
267
  8
0
  6
CONTINUOUS
 62
    40
 10
2.3249870130999999
 20
2.4486456814999991
 30
0.0
 11
2.3249870130999999
 21
2.444225681499999
 31
0.0
  0
LINE
  5
268
  8
0
  6
CONTINUOUS
 62
    40
 10
2.3282020130999999
 20
2.4065056815000001
 30
0.0
 11
2.3282020130999999
 21
2.4798556814999988
 31
0.0
  0
LINE
  5
269
  8
0
  6
CONTINUOUS
 62
    40
 10
2.3731720131
 20
2.4798556814999988
 30
0.0
 11
2.3731720131
 21
2.4065056815000001
 31
0.0
  0
LINE
  5
26A
  8
0
  6
CONTINUOUS
 62
    40
 10
2.3759100130999991
 20
2.444225681499999
 30
0.0
 11
2.3759100130999991
 21
2.4486456814999991
 31
0.0
  0
LINE
  5
26B
  8
0
  6
CONTINUOUS
 62
    40
 10
2.3775590130999991
 20
2.4065056815000001
 30
0.0
 11
2.3775590130999991
 21
2.4798556814999988
 31
0.0
  0
LINE
  5
26C
  8
0
  6
CONTINUOUS
 62
    40
 10
2.2153670130999998
 20
2.4433256814999988
 30
0.0
 11
2.215714013099999
 21
2.4485256815000001
 31
0.0
  0
LINE
  5
26D
  8
0
  6
CONTINUOUS
 62
    40
 10
2.220346013099999
 20
2.447885681499999
 30
0.0
 11
2.220041013099999
 21
2.4433256814999988
 31
0.0
  0
LINE
  5
26E
  8
0
  6
CONTINUOUS
 62
    40
 10
2.2864740130999999
 20
2.4387656815000001
 30
0.0
 11
2.2867790130999999
 21
2.4433256814999988
 31
0.0
  0
LINE
  5
26F
  8
0
  6
CONTINUOUS
 62
    40
 10
2.2914450131000001
 20
2.4433256814999988
 30
0.0
 11
2.2910930130999998
 21
2.4381756814999989
 31
0.0
  0
LINE
  5
270
  8
0
  6
CONTINUOUS
 62
    40
 10
2.215714013099999
 20
2.4485256815000001
 30
0.0
 11
2.2167230131000002
 21
2.453515681499999
 31
0.0
  0
LINE
  5
271
  8
0
  6
CONTINUOUS
 62
    40
 10
2.285588013099999
 20
2.4343856814999989
 30
0.0
 11
2.2864740130999999
 21
2.4387656815000001
 31
0.0
  0
LINE
  5
272
  8
0
  6
CONTINUOUS
 62
    40
 10
2.2212340131000001
 20
2.4522556815000001
 30
0.0
 11
2.220346013099999
 21
2.447885681499999
 31
0.0
  0
LINE
  5
273
  8
0
  6
CONTINUOUS
 62
    40
 10
2.2910930130999998
 20
2.4381756814999989
 30
0.0
 11
2.2900700130999998
 21
2.4332256814999988
 31
0.0
  0
LINE
  5
274
  8
0
  6
CONTINUOUS
 62
    40
 10
2.2167230131000002
 20
2.453515681499999
 30
0.0
 11
2.218351013099999
 21
2.4582456814999989
 31
0.0
  0
LINE
  5
275
  8
0
  6
CONTINUOUS
 62
    40
 10
2.2841590131
 20
2.4302356814999988
 30
0.0
 11
2.285588013099999
 21
2.4343856814999989
 31
0.0
  0
LINE
  5
276
  8
0
  6
CONTINUOUS
 62
    40
 10
2.2226650130999999
 20
2.4564056814999988
 30
0.0
 11
2.2212340131000001
 21
2.4522556815000001
 31
0.0
  0
LINE
  5
277
  8
0
  6
CONTINUOUS
 62
    40
 10
2.2900700130999998
 20
2.4332256814999988
 30
0.0
 11
2.2884230131000001
 21
2.4285256815
 31
0.0
  0
LINE
  5
278
  8
0
  6
CONTINUOUS
 62
    40
 10
2.218351013099999
 20
2.4582456814999989
 30
0.0
 11
2.2205520130999998
 21
2.462665681499999
 31
0.0
  0
LINE
  5
279
  8
0
  6
CONTINUOUS
 62
    40
 10
2.2246000130999999
 20
2.4602856814999989
 30
0.0
 11
2.2226650130999999
 21
2.4564056814999988
 31
0.0
  0
LINE
  5
27A
  8
0
  6
CONTINUOUS
 62
    40
 10
2.2822270130999991
 20
2.4263656815000001
 30
0.0
 11
2.2841590131
 21
2.4302356814999988
 31
0.0
  0
LINE
  5
27B
  8
0
  6
CONTINUOUS
 62
    40
 10
2.2884230131000001
 20
2.4285256815
 30
0.0
 11
2.2861990131000001
 21
2.4241056814999991
 31
0.0
  0
LINE
  5
27C
  8
0
  6
CONTINUOUS
 62
    40
 10
2.2798320131000001
 20
2.4227856814999988
 30
0.0
 11
2.2822270130999991
 21
2.4263656815000001
 31
0.0
  0
LINE
  5
27D
  8
0
  6
CONTINUOUS
 62
    40
 10
2.2205520130999998
 20
2.462665681499999
 30
0.0
 11
2.2232810130999998
 21
2.466735681499999
 31
0.0
  0
LINE
  5
27E
  8
0
  6
CONTINUOUS
 62
    40
 10
2.2269980130999998
 20
2.4638556814999988
 30
0.0
 11
2.2246000130999999
 21
2.4602856814999989
 31
0.0
  0
LINE
  5
27F
  8
0
  6
CONTINUOUS
 62
    40
 10
2.2861990131000001
 20
2.4241056814999991
 30
0.0
 11
2.2834480131000001
 21
2.420025681499999
 31
0.0
  0
LINE
  5
280
  8
0
  6
CONTINUOUS
 62
    40
 10
2.2232810130999998
 20
2.466735681499999
 30
0.0
 11
2.2264930130999998
 21
2.4704156815
 31
0.0
  0
LINE
  5
281
  8
0
  6
CONTINUOUS
 62
    40
 10
2.2770120130999998
 20
2.4195656814999991
 30
0.0
 11
2.2798320131000001
 21
2.4227856814999988
 31
0.0
  0
LINE
  5
282
  8
0
  6
CONTINUOUS
 62
    40
 10
2.2298190131000002
 20
2.467075681499999
 30
0.0
 11
2.2269980130999998
 21
2.4638556814999988
 31
0.0
  0
LINE
  5
283
  8
0
  6
CONTINUOUS
 62
    40
 10
2.2834480131000001
 20
2.420025681499999
 30
0.0
 11
2.2802150130999999
 21
2.4163356815000001
 31
0.0
  0
LINE
  5
284
  8
0
  6
CONTINUOUS
 62
    40
 10
2.2802150130999999
 20
2.4163356815000001
 30
0.0
 11
2.2765500131
 21
2.4130856814999988
 31
0.0
  0
LINE
  5
285
  8
0
  6
CONTINUOUS
 62
    40
 10
2.2738080131
 20
2.4167256815
 30
0.0
 11
2.2770120130999998
 21
2.4195656814999991
 31
0.0
  0
LINE
  5
286
  8
0
  6
CONTINUOUS
 62
    40
 10
2.2330240131000001
 20
2.469915681499999
 30
0.0
 11
2.2298190131000002
 21
2.467075681499999
 31
0.0
  0
LINE
  5
287
  8
0
  6
CONTINUOUS
 62
    40
 10
2.2264930130999998
 20
2.4704156815
 30
0.0
 11
2.2301440130999999
 21
2.473645681499999
 31
0.0
  0
LINE
  5
288
  8
0
  6
CONTINUOUS
 62
    40
 10
2.1454730131000002
 20
2.4424356814999988
 30
0.0
 11
2.1973930131000001
 21
2.4798556814999988
 31
0.0
  0
LINE
  5
289
  8
0
  6
CONTINUOUS
 62
    40
 10
2.190653013099999
 20
2.4798556814999988
 30
0.0
 11
2.1423730130999989
 21
2.445985681499999
 31
0.0
  0
LINE
  5
28A
  8
0
  6
CONTINUOUS
 62
    40
 10
2.2765500131
 20
2.4130856814999988
 30
0.0
 11
2.2725000131000002
 21
2.4103156814999989
 31
0.0
  0
LINE
  5
28B
  8
0
  6
CONTINUOUS
 62
    40
 10
2.2301440130999999
 20
2.473645681499999
 30
0.0
 11
2.2341890130999991
 21
2.4763956815000001
 31
0.0
  0
LINE
  5
28C
  8
0
  6
CONTINUOUS
 62
    40
 10
2.2365730131000001
 20
2.4723256815000001
 30
0.0
 11
2.2330240131000001
 21
2.469915681499999
 31
0.0
  0
LINE
  5
28D
  8
0
  6
CONTINUOUS
 62
    40
 10
2.2702600131000001
 20
2.4143156814999989
 30
0.0
 11
2.2738080131
 21
2.4167256815
 31
0.0
  0
LINE
  5
28E
  8
0
  6
CONTINUOUS
 62
    40
 10
2.2725000131000002
 20
2.4103156814999989
 30
0.0
 11
2.2681130130999998
 21
2.4080756814999988
 31
0.0
  0
LINE
  5
28F
  8
0
  6
CONTINUOUS
 62
    40
 10
2.2404250130999999
 20
2.4742756814999991
 30
0.0
 11
2.2365730131000001
 21
2.4723256815000001
 31
0.0
  0
LINE
  5
290
  8
0
  6
CONTINUOUS
 62
    40
 10
2.2341890130999991
 20
2.4763956815000001
 30
0.0
 11
2.2385820130999998
 21
2.4786156815
 31
0.0
  0
LINE
  5
291
  8
0
  6
CONTINUOUS
 62
    40
 10
2.2664060131000001
 20
2.412375681499999
 30
0.0
 11
2.2702600131000001
 21
2.4143156814999989
 31
0.0
  0
LINE
  5
292
  8
0
  6
CONTINUOUS
 62
    40
 10
2.2681130130999998
 20
2.4080756814999988
 30
0.0
 11
2.2634370130999999
 21
2.4064156814999991
 31
0.0
  0
LINE
  5
293
  8
0
  6
CONTINUOUS
 62
    40
 10
2.2445420130999998
 20
2.4757156815000001
 30
0.0
 11
2.2404250130999999
 21
2.4742756814999991
 31
0.0
  0
LINE
  5
294
  8
0
  6
CONTINUOUS
 62
    40
 10
2.2622860131000002
 20
2.4109356814999989
 30
0.0
 11
2.2664060131000001
 21
2.412375681499999
 31
0.0
  0
LINE
  5
295
  8
0
  6
CONTINUOUS
 62
    40
 10
2.2385820130999998
 20
2.4786156815
 30
0.0
 11
2.2432800131000001
 21
2.4802556815000001
 31
0.0
  0
LINE
  5
296
  8
0
  6
CONTINUOUS
 62
    40
 10
2.6098950131
 20
2.4463856814999989
 30
0.0
 11
2.6120310131000002
 21
2.4468856814999991
 31
0.0
  0
LINE
  5
297
  8
0
  6
CONTINUOUS
 62
    40
 10
2.6146360131000002
 20
2.442945681499999
 30
0.0
 11
2.6111040130999998
 21
2.442135681499999
 31
0.0
  0
LINE
  5
298
  8
0
  6
CONTINUOUS
 62
    40
 10
2.2634370130999999
 20
2.4064156814999991
 30
0.0
 11
2.2585180131000002
 21
2.405385681499999
 31
0.0
  0
LINE
  5
299
  8
0
  6
CONTINUOUS
 62
    40
 10
2.2579390131000001
 20
2.4100456814999989
 30
0.0
 11
2.2622860131000002
 21
2.4109356814999989
 31
0.0
  0
LINE
  5
29A
  8
0
  6
CONTINUOUS
 62
    40
 10
2.6075470131
 20
2.4460856815000001
 30
0.0
 11
2.6098950131
 21
2.4463856814999989
 31
0.0
  0
LINE
  5
29B
  8
0
  6
CONTINUOUS
 62
    40
 10
2.2585180131000002
 20
2.405385681499999
 30
0.0
 11
2.2534060131000002
 21
2.4050356814999989
 31
0.0
  0
LINE
  5
29C
  8
0
  6
CONTINUOUS
 62
    40
 10
2.2534060131000002
 20
2.4097356814999991
 30
0.0
 11
2.2579390131000001
 21
2.4100456814999989
 31
0.0
  0
LINE
  5
29D
  8
0
  6
CONTINUOUS
 62
    40
 10
2.6111040130999998
 20
2.442135681499999
 30
0.0
 11
2.6069150131000001
 21
2.441855681499999
 31
0.0
  0
LINE
  5
29E
  8
0
  6
CONTINUOUS
 62
    40
 10
2.6049900131000001
 20
2.445985681499999
 30
0.0
 11
2.6075470131
 21
2.4460856815000001
 31
0.0
  0
LINE
  5
29F
  8
0
  6
CONTINUOUS
 62
    40
 10
2.6353720131
 20
2.4065056815000001
 30
0.0
 11
2.6283990131000001
 21
2.4065056815000001
 31
0.0
  0
LINE
  5
2A0
  8
0
  6
CONTINUOUS
 62
    40
 10
2.5818630130999991
 20
2.4065056815000001
 30
0.0
 11
2.5774760131000001
 21
2.4065056815000001
 31
0.0
  0
LINE
  5
2A1
  8
0
  6
CONTINUOUS
 62
    40
 10
2.1379830130999991
 20
2.4065056815000001
 30
0.0
 11
2.1423730130999989
 21
2.4065056815000001
 31
0.0
  0
LINE
  5
2A2
  8
0
  6
CONTINUOUS
 62
    40
 10
2.1924030130999999
 20
2.4065056815000001
 30
0.0
 11
2.1994330131000002
 21
2.4065056815000001
 31
0.0
  0
LINE
  5
2A3
  8
0
  6
CONTINUOUS
 62
    40
 10
2.3238080130999998
 20
2.4065056815000001
 30
0.0
 11
2.3282020130999999
 21
2.4065056815000001
 31
0.0
  0
LINE
  5
2A4
  8
0
  6
CONTINUOUS
 62
    40
 10
2.3731720131
 20
2.4065056815000001
 30
0.0
 11
2.3775590130999991
 21
2.4065056815000001
 31
0.0
  0
LINE
  5
2A5
  8
0
  6
CONTINUOUS
 62
    40
 10
2.4192120131000001
 20
2.4065056815000001
 30
0.0
 11
2.4683520131000001
 21
2.4065056815000001
 31
0.0
  0
LINE
  5
2A6
  8
0
  6
CONTINUOUS
 62
    40
 10
2.495547013099999
 20
2.4065056815000001
 30
0.0
 11
2.5435410131
 21
2.4065056815000001
 31
0.0
  0
LINE
  5
2A7
  8
0
  6
CONTINUOUS
 62
    40
 10
2.5435410131
 20
2.4109256814999989
 30
0.0
 11
2.4978990131000001
 21
2.4109256814999989
 31
0.0
  0
LINE
  5
2A8
  8
0
  6
CONTINUOUS
 62
    40
 10
2.4683520131000001
 20
2.4109256814999989
 30
0.0
 11
2.4215310131000001
 21
2.4109256814999989
 31
0.0
  0
LINE
  5
2A9
  8
0
  6
CONTINUOUS
 62
    40
 10
2.6069150131000001
 20
2.441855681499999
 30
0.0
 11
2.5886120131000001
 21
2.441855681499999
 31
0.0
  0
LINE
  5
2AA
  8
0
  6
CONTINUOUS
 62
    40
 10
2.3249870130999999
 20
2.444225681499999
 30
0.0
 11
2.3759100130999991
 21
2.444225681499999
 31
0.0
  0
LINE
  5
2AB
  8
0
  6
CONTINUOUS
 62
    40
 10
2.4978990131000001
 20
2.444225681499999
 30
0.0
 11
2.5435410131
 21
2.444225681499999
 31
0.0
  0
LINE
  5
2AC
  8
0
  6
CONTINUOUS
 62
    40
 10
2.5818630130999991
 20
2.445985681499999
 30
0.0
 11
2.6049900131000001
 21
2.445985681499999
 31
0.0
  0
LINE
  5
2AD
  8
0
  6
CONTINUOUS
 62
    40
 10
2.3759100130999991
 20
2.4486456814999991
 30
0.0
 11
2.3249870130999999
 21
2.4486456814999991
 31
0.0
  0
LINE
  5
2AE
  8
0
  6
CONTINUOUS
 62
    40
 10
2.5435410131
 20
2.4489256815
 30
0.0
 11
2.4978990131000001
 21
2.4489256815
 31
0.0
  0
LINE
  5
2AF
  8
0
  6
CONTINUOUS
 62
    40
 10
2.2579390131000001
 20
2.4766056814999988
 30
0.0
 11
2.2534060131000002
 21
2.476905681499999
 31
0.0
  0
LINE
  5
2B0
  8
0
  6
CONTINUOUS
 62
    40
 10
2.2534060131000002
 20
2.4050356814999989
 30
0.0
 11
2.2482360131000001
 21
2.405385681499999
 31
0.0
  0
LINE
  5
2B1
  8
0
  6
CONTINUOUS
 62
    40
 10
2.2488820130999998
 20
2.4100456814999989
 30
0.0
 11
2.2534060131000002
 21
2.4097356814999991
 31
0.0
  0
LINE
  5
2B2
  8
0
  6
CONTINUOUS
 62
    40
 10
2.2534060131000002
 20
2.4816156815000001
 30
0.0
 11
2.2585180131000002
 21
2.4812656815
 31
0.0
  0
LINE
  5
2B3
  8
0
  6
CONTINUOUS
 62
    40
 10
2.2622860131000002
 20
2.4757156815000001
 30
0.0
 11
2.2579390131000001
 21
2.4766056814999988
 31
0.0
  0
LINE
  5
2B4
  8
0
  6
CONTINUOUS
 62
    40
 10
2.2445420130999998
 20
2.4109356814999989
 30
0.0
 11
2.2488820130999998
 21
2.4100456814999989
 31
0.0
  0
LINE
  5
2B5
  8
0
  6
CONTINUOUS
 62
    40
 10
2.2585180131000002
 20
2.4812656815
 30
0.0
 11
2.2634370130999999
 21
2.4802556815000001
 31
0.0
  0
LINE
  5
2B6
  8
0
  6
CONTINUOUS
 62
    40
 10
2.2482360131000001
 20
2.405385681499999
 30
0.0
 11
2.2432800131000001
 21
2.4064156814999991
 31
0.0
  0
LINE
  5
2B7
  8
0
  6
CONTINUOUS
 62
    40
 10
2.2664060131000001
 20
2.4742756814999991
 30
0.0
 11
2.2622860131000002
 21
2.4757156815000001
 31
0.0
  0
LINE
  5
2B8
  8
0
  6
CONTINUOUS
 62
    40
 10
2.2404250130999999
 20
2.412375681499999
 30
0.0
 11
2.2445420130999998
 21
2.4109356814999989
 31
0.0
  0
LINE
  5
2B9
  8
0
  6
CONTINUOUS
 62
    40
 10
2.2634370130999999
 20
2.4802556815000001
 30
0.0
 11
2.2681130130999998
 21
2.4786156815
 31
0.0
  0
LINE
  5
2BA
  8
0
  6
CONTINUOUS
 62
    40
 10
2.2432800131000001
 20
2.4064156814999991
 30
0.0
 11
2.2385820130999998
 21
2.4080756814999988
 31
0.0
  0
LINE
  5
2BB
  8
0
  6
CONTINUOUS
 62
    40
 10
2.2365730131000001
 20
2.4143156814999989
 30
0.0
 11
2.2404250130999999
 21
2.412375681499999
 31
0.0
  0
LINE
  5
2BC
  8
0
  6
CONTINUOUS
 62
    40
 10
2.2702600131000001
 20
2.4723256815000001
 30
0.0
 11
2.2664060131000001
 21
2.4742756814999991
 31
0.0
  0
LINE
  5
2BD
  8
0
  6
CONTINUOUS
 62
    40
 10
2.2681130130999998
 20
2.4786156815
 30
0.0
 11
2.2725000131000002
 21
2.4763956815000001
 31
0.0
  0
LINE
  5
2BE
  8
0
  6
CONTINUOUS
 62
    40
 10
2.2385820130999998
 20
2.4080756814999988
 30
0.0
 11
2.2341890130999991
 21
2.4103156814999989
 31
0.0
  0
LINE
  5
2BF
  8
0
  6
CONTINUOUS
 62
    40
 10
2.1423730130999989
 20
2.4391856814999988
 30
0.0
 11
2.1924030130999999
 21
2.4065056815000001
 31
0.0
  0
LINE
  5
2C0
  8
0
  6
CONTINUOUS
 62
    40
 10
2.1994330131000002
 20
2.4065056815000001
 30
0.0
 11
2.1461530131000002
 21
2.4419556815000001
 31
0.0
  0
LINE
  5
2C1
  8
0
  6
CONTINUOUS
 62
    40
 10
2.2330240131000001
 20
2.4167256815
 30
0.0
 11
2.2365730131000001
 21
2.4143156814999989
 31
0.0
  0
LINE
  5
2C2
  8
0
  6
CONTINUOUS
 62
    40
 10
2.2725000131000002
 20
2.4763956815000001
 30
0.0
 11
2.2765500131
 21
2.473645681499999
 31
0.0
  0
LINE
  5
2C3
  8
0
  6
CONTINUOUS
 62
    40
 10
2.2738080131
 20
2.469915681499999
 30
0.0
 11
2.2702600131000001
 21
2.4723256815000001
 31
0.0
  0
LINE
  5
2C4
  8
0
  6
CONTINUOUS
 62
    40
 10
2.2341890130999991
 20
2.4103156814999989
 30
0.0
 11
2.2301440130999999
 21
2.4130856814999988
 31
0.0
  0
LINE
  5
2C5
  8
0
  6
CONTINUOUS
 62
    40
 10
2.1461530131000002
 20
2.4419556815000001
 30
0.0
 11
2.1454730131000002
 21
2.4424356814999988
 31
0.0
  0
LINE
  5
2C6
  8
0
  6
CONTINUOUS
 62
    40
 10
2.2765500131
 20
2.473645681499999
 30
0.0
 11
2.2802150130999999
 21
2.4704156815
 31
0.0
  0
LINE
  5
2C7
  8
0
  6
CONTINUOUS
 62
    40
 10
2.2298190131000002
 20
2.4195656814999991
 30
0.0
 11
2.2330240131000001
 21
2.4167256815
 31
0.0
  0
LINE
  5
2C8
  8
0
  6
CONTINUOUS
 62
    40
 10
2.2770120130999998
 20
2.467075681499999
 30
0.0
 11
2.2738080131
 21
2.469915681499999
 31
0.0
  0
LINE
  5
2C9
  8
0
  6
CONTINUOUS
 62
    40
 10
2.2301440130999999
 20
2.4130856814999988
 30
0.0
 11
2.2264930130999998
 21
2.4163356815000001
 31
0.0
  0
LINE
  5
2CA
  8
0
  6
CONTINUOUS
 62
    40
 10
2.2802150130999999
 20
2.4704156815
 30
0.0
 11
2.2834480131000001
 21
2.466735681499999
 31
0.0
  0
LINE
  5
2CB
  8
0
  6
CONTINUOUS
 62
    40
 10
2.2269980130999998
 20
2.4227856814999988
 30
0.0
 11
2.2298190131000002
 21
2.4195656814999991
 31
0.0
  0
LINE
  5
2CC
  8
0
  6
CONTINUOUS
 62
    40
 10
2.2798320131000001
 20
2.4638556814999988
 30
0.0
 11
2.2770120130999998
 21
2.467075681499999
 31
0.0
  0
LINE
  5
2CD
  8
0
  6
CONTINUOUS
 62
    40
 10
2.2264930130999998
 20
2.4163356815000001
 30
0.0
 11
2.2232810130999998
 21
2.420025681499999
 31
0.0
  0
LINE
  5
2CE
  8
0
  6
CONTINUOUS
 62
    40
 10
2.2834480131000001
 20
2.466735681499999
 30
0.0
 11
2.2861990131000001
 21
2.462665681499999
 31
0.0
  0
LINE
  5
2CF
  8
0
  6
CONTINUOUS
 62
    40
 10
2.2822270130999991
 20
2.4602856814999989
 30
0.0
 11
2.2798320131000001
 21
2.4638556814999988
 31
0.0
  0
LINE
  5
2D0
  8
0
  6
CONTINUOUS
 62
    40
 10
2.2246000130999999
 20
2.4263656815000001
 30
0.0
 11
2.2269980130999998
 21
2.4227856814999988
 31
0.0
  0
LINE
  5
2D1
  8
0
  6
CONTINUOUS
 62
    40
 10
2.2232810130999998
 20
2.420025681499999
 30
0.0
 11
2.2205520130999998
 21
2.4241056814999991
 31
0.0
  0
LINE
  5
2D2
  8
0
  6
CONTINUOUS
 62
    40
 10
2.2861990131000001
 20
2.462665681499999
 30
0.0
 11
2.2884230131000001
 21
2.4582456814999989
 31
0.0
  0
LINE
  5
2D3
  8
0
  6
CONTINUOUS
 62
    40
 10
2.2226650130999999
 20
2.4302356814999988
 30
0.0
 11
2.2246000130999999
 21
2.4263656815000001
 31
0.0
  0
LINE
  5
2D4
  8
0
  6
CONTINUOUS
 62
    40
 10
2.2205520130999998
 20
2.4241056814999991
 30
0.0
 11
2.218351013099999
 21
2.4285256815
 31
0.0
  0
LINE
  5
2D5
  8
0
  6
CONTINUOUS
 62
    40
 10
2.2841590131
 20
2.4564056814999988
 30
0.0
 11
2.2822270130999991
 21
2.4602856814999989
 31
0.0
  0
LINE
  5
2D6
  8
0
  6
CONTINUOUS
 62
    40
 10
2.2884230131000001
 20
2.4582456814999989
 30
0.0
 11
2.2900700130999998
 21
2.453515681499999
 31
0.0
  0
LINE
  5
2D7
  8
0
  6
CONTINUOUS
 62
    40
 10
2.218351013099999
 20
2.4285256815
 30
0.0
 11
2.2167230131000002
 21
2.4332256814999988
 31
0.0
  0
LINE
  5
2D8
  8
0
  6
CONTINUOUS
 62
    40
 10
2.2212340131000001
 20
2.4343856814999989
 30
0.0
 11
2.2226650130999999
 21
2.4302356814999988
 31
0.0
  0
LINE
  5
2D9
  8
0
  6
CONTINUOUS
 62
    40
 10
2.285588013099999
 20
2.4522556815000001
 30
0.0
 11
2.2841590131
 21
2.4564056814999988
 31
0.0
  0
LINE
  5
2DA
  8
0
  6
CONTINUOUS
 62
    40
 10
2.2900700130999998
 20
2.453515681499999
 30
0.0
 11
2.2910930130999998
 21
2.4485256815000001
 31
0.0
  0
LINE
  5
2DB
  8
0
  6
CONTINUOUS
 62
    40
 10
2.2167230131000002
 20
2.4332256814999988
 30
0.0
 11
2.215714013099999
 21
2.4381756814999989
 31
0.0
  0
LINE
  5
2DC
  8
0
  6
CONTINUOUS
 62
    40
 10
2.220346013099999
 20
2.4387656815000001
 30
0.0
 11
2.2212340131000001
 21
2.4343856814999989
 31
0.0
  0
LINE
  5
2DD
  8
0
  6
CONTINUOUS
 62
    40
 10
2.2864740130999999
 20
2.447885681499999
 30
0.0
 11
2.285588013099999
 21
2.4522556815000001
 31
0.0
  0
LINE
  5
2DE
  8
0
  6
CONTINUOUS
 62
    40
 10
2.6259550131
 20
2.4630356815000001
 30
0.0
 11
2.6260580131000002
 21
2.4615756814999989
 31
0.0
  0
LINE
  5
2DF
  8
0
  6
CONTINUOUS
 62
    40
 10
2.6213060130999999
 20
2.4606056814999988
 30
0.0
 11
2.6211890130999991
 21
2.4630856814999991
 31
0.0
  0
LINE
  5
2E0
  8
0
  6
CONTINUOUS
 62
    40
 10
2.6260580131000002
 20
2.4615756814999989
 30
0.0
 11
2.6260800131000002
 21
2.4605556814999989
 31
0.0
  0
LINE
  5
2E1
  8
0
  6
CONTINUOUS
 62
    40
 10
2.4192120131000001
 20
2.4798556814999988
 30
0.0
 11
2.4192120131000001
 21
2.4065056815000001
 31
0.0
  0
LINE
  5
2E2
  8
0
  6
CONTINUOUS
 62
    40
 10
2.4215310131000001
 20
2.4109256814999989
 30
0.0
 11
2.4215310131000001
 21
2.4065056815000001
 31
0.0
  0
LINE
  5
2E3
  8
0
  6
CONTINUOUS
 62
    40
 10
2.4237010131000001
 20
2.4065056815000001
 30
0.0
 11
2.4237010131000001
 21
2.4798556814999988
 31
0.0
  0
LINE
  5
2E4
  8
0
  6
CONTINUOUS
 62
    40
 10
2.4683520131000001
 20
2.4065056815000001
 30
0.0
 11
2.4683520131000001
 21
2.4109256814999989
 31
0.0
  0
LINE
  5
2E5
  8
0
  6
CONTINUOUS
 62
    40
 10
2.495547013099999
 20
2.4798556814999988
 30
0.0
 11
2.495547013099999
 21
2.4065056815000001
 31
0.0
  0
LINE
  5
2E6
  8
0
  6
CONTINUOUS
 62
    40
 10
2.4978990131000001
 20
2.4798556814999988
 30
0.0
 11
2.4978990131000001
 21
2.4754356815
 31
0.0
  0
LINE
  5
2E7
  8
0
  6
CONTINUOUS
 62
    40
 10
2.4978990131000001
 20
2.4489256815
 30
0.0
 11
2.4978990131000001
 21
2.444225681499999
 31
0.0
  0
LINE
  5
2E8
  8
0
  6
CONTINUOUS
 62
    40
 10
2.4978990131000001
 20
2.4109256814999989
 30
0.0
 11
2.4978990131000001
 21
2.4065056815000001
 31
0.0
  0
LINE
  5
2E9
  8
0
  6
CONTINUOUS
 62
    40
 10
2.4999270131000002
 20
2.4065056815000001
 30
0.0
 11
2.4999270131000002
 21
2.4798556814999988
 31
0.0
  0
LINE
  5
2EA
  8
0
  6
CONTINUOUS
 62
    40
 10
2.5435410131
 20
2.4065056815000001
 30
0.0
 11
2.5435410131
 21
2.4109256814999989
 31
0.0
  0
LINE
  5
2EB
  8
0
  6
CONTINUOUS
 62
    40
 10
2.5435410131
 20
2.444225681499999
 30
0.0
 11
2.5435410131
 21
2.4489256815
 31
0.0
  0
LINE
  5
2EC
  8
0
  6
CONTINUOUS
 62
    40
 10
2.5435410131
 20
2.4754356815
 30
0.0
 11
2.5435410131
 21
2.4798556814999988
 31
0.0
  0
LINE
  5
2ED
  8
0
  6
CONTINUOUS
 62
    40
 10
2.5774760131000001
 20
2.4065056815000001
 30
0.0
 11
2.5774760131000001
 21
2.4798556814999988
 31
0.0
  0
LINE
  5
2EE
  8
0
  6
CONTINUOUS
 62
    40
 10
2.5818630130999991
 20
2.4757256814999988
 30
0.0
 11
2.5818630130999991
 21
2.445985681499999
 31
0.0
  0
LINE
  5
2EF
  8
0
  6
CONTINUOUS
 62
    40
 10
2.5818630130999991
 20
2.4409556814999989
 30
0.0
 11
2.5818630130999991
 21
2.4065056815000001
 31
0.0
  0
LINE
  5
2F0
  8
0
  6
CONTINUOUS
 62
    40
 10
2.6260800131000002
 20
2.4605556814999989
 30
0.0
 11
2.6260490130999998
 21
2.4592956814999991
 31
0.0
  0
LINE
  5
2F1
  8
0
  6
CONTINUOUS
 62
    40
 10
2.6211890130999991
 20
2.458265681499999
 30
0.0
 11
2.6213060130999999
 21
2.4606056814999988
 31
0.0
  0
LINE
  5
2F2
  8
0
  6
CONTINUOUS
 62
    40
 10
2.6260490130999998
 20
2.4592956814999991
 30
0.0
 11
2.6259210131000001
 21
2.4576956814999988
 31
0.0
  0
LINE
  5
2F3
  8
0
  6
CONTINUOUS
 62
    40
 10
2.6259210131000001
 20
2.4576956814999988
 30
0.0
 11
2.6256380131000001
 21
2.4558456815
 31
0.0
  0
LINE
  5
2F4
  8
0
  6
CONTINUOUS
 62
    40
 10
2.6208370131000001
 20
2.4561256815000001
 30
0.0
 11
2.6211890130999991
 21
2.458265681499999
 31
0.0
  0
LINE
  5
2F5
  8
0
  6
CONTINUOUS
 62
    40
 10
2.6256380131000001
 20
2.4558456815
 30
0.0
 11
2.6251440130999999
 21
2.4538156815000001
 31
0.0
  0
LINE
  5
2F6
  8
0
  6
CONTINUOUS
 62
    40
 10
2.6202540130999998
 20
2.454195681499999
 30
0.0
 11
2.6208370131000001
 21
2.4561256815000001
 31
0.0
  0
LINE
  5
2F7
  8
0
  6
CONTINUOUS
 62
    40
 10
2.6251440130999999
 20
2.4538156815000001
 30
0.0
 11
2.6243850130999991
 21
2.4517156815000001
 31
0.0
  0
LINE
  5
2F8
  8
0
  6
CONTINUOUS
 62
    40
 10
2.6194420131
 20
2.4524656815000001
 30
0.0
 11
2.6202540130999998
 21
2.454195681499999
 31
0.0
  0
LINE
  5
2F9
  8
0
  6
CONTINUOUS
 62
    40
 10
2.6243850130999991
 20
2.4517156815000001
 30
0.0
 11
2.6233030131000001
 21
2.4496156815000001
 31
0.0
  0
LINE
  5
2FA
  8
0
  6
CONTINUOUS
 62
    40
 10
2.6184040131000001
 20
2.450945681499999
 30
0.0
 11
2.6194420131
 21
2.4524656815000001
 31
0.0
  0
LINE
  5
2FB
  8
0
  6
CONTINUOUS
 62
    40
 10
2.6233030131000001
 20
2.4496156815000001
 30
0.0
 11
2.621843013099999
 21
2.4475956814999988
 31
0.0
  0
LINE
  5
2FC
  8
0
  6
CONTINUOUS
 62
    40
 10
2.617141013099999
 20
2.4496256814999988
 30
0.0
 11
2.6184040131000001
 21
2.450945681499999
 31
0.0
  0
LINE
  5
2FD
  8
0
  6
CONTINUOUS
 62
    40
 10
2.621843013099999
 20
2.4475956814999988
 30
0.0
 11
2.6199490130999998
 21
2.4457556815000001
 31
0.0
  0
LINE
  5
2FE
  8
0
  6
CONTINUOUS
 62
    40
 10
2.6156560131000002
 20
2.448505681499999
 30
0.0
 11
2.617141013099999
 21
2.4496256814999988
 31
0.0
  0
LINE
  5
2FF
  8
0
  6
CONTINUOUS
 62
    40
 10
2.6199490130999998
 20
2.4457556815000001
 30
0.0
 11
2.6175660130999998
 21
2.4441756814999991
 31
0.0
  0
LINE
  5
300
  8
0
  6
CONTINUOUS
 62
    40
 10
2.6139520131
 20
2.4475956814999988
 30
0.0
 11
2.6156560131000002
 21
2.448505681499999
 31
0.0
  0
LINE
  5
301
  8
0
  6
CONTINUOUS
 62
    40
 10
2.6175660130999998
 20
2.4441756814999991
 30
0.0
 11
2.6146360131000002
 21
2.442945681499999
 31
0.0
  0
LINE
  5
302
  8
0
  6
CONTINUOUS
 62
    40
 10
2.6120310131000002
 20
2.4468856814999991
 30
0.0
 11
2.6139520131
 21
2.4475956814999988
 31
0.0
  0
LINE
  5
303
  8
0
  6
CONTINUOUS
 62
    40
 10
2.2488820130999998
 20
2.4766056814999988
 30
0.0
 11
2.2445420130999998
 21
2.4757156815000001
 31
0.0
  0
LINE
  5
304
  8
0
  6
CONTINUOUS
 62
    40
 10
2.2432800131000001
 20
2.4802556815000001
 30
0.0
 11
2.2482360131000001
 21
2.4812656815
 31
0.0
  0
LINE
  5
305
  8
0
  6
CONTINUOUS
 62
    40
 10
2.2482360131000001
 20
2.4812656815
 30
0.0
 11
2.2534060131000002
 21
2.4816156815000001
 31
0.0
  0
LINE
  5
306
  8
0
  6
CONTINUOUS
 62
    40
 10
2.2534060131000002
 20
2.476905681499999
 30
0.0
 11
2.2488820130999998
 21
2.4766056814999988
 31
0.0
  0
LINE
  5
307
  8
0
  6
CONTINUOUS
 62
    40
 10
2.4978990131000001
 20
2.4754356815
 30
0.0
 11
2.5435410131
 21
2.4754356815
 31
0.0
  0
LINE
  5
308
  8
0
  6
CONTINUOUS
 62
    40
 10
2.6049900131000001
 20
2.4757256814999988
 30
0.0
 11
2.5818630130999991
 21
2.4757256814999988
 31
0.0
  0
LINE
  5
309
  8
0
  6
CONTINUOUS
 62
    40
 10
2.5435410131
 20
2.4798556814999988
 30
0.0
 11
2.495547013099999
 21
2.4798556814999988
 31
0.0
  0
LINE
  5
30A
  8
0
  6
CONTINUOUS
 62
    40
 10
2.4237010131000001
 20
2.4798556814999988
 30
0.0
 11
2.4192120131000001
 21
2.4798556814999988
 31
0.0
  0
LINE
  5
30B
  8
0
  6
CONTINUOUS
 62
    40
 10
2.3775590130999991
 20
2.4798556814999988
 30
0.0
 11
2.3731720131
 21
2.4798556814999988
 31
0.0
  0
LINE
  5
30C
  8
0
  6
CONTINUOUS
 62
    40
 10
2.3282020130999999
 20
2.4798556814999988
 30
0.0
 11
2.3238080130999998
 21
2.4798556814999988
 31
0.0
  0
LINE
  5
30D
  8
0
  6
CONTINUOUS
 62
    40
 10
2.1973930131000001
 20
2.4798556814999988
 30
0.0
 11
2.190653013099999
 21
2.4798556814999988
 31
0.0
  0
LINE
  5
30E
  8
0
  6
CONTINUOUS
 62
    40
 10
2.1423730130999989
 20
2.4798556814999988
 30
0.0
 11
2.1379830130999991
 21
2.4798556814999988
 31
0.0
  0
LINE
  5
30F
  8
0
  6
CONTINUOUS
 62
    40
 10
2.5774760131000001
 20
2.4798556814999988
 30
0.0
 11
2.6076340131000002
 21
2.4798556814999988
 31
0.0
  0
LINE
  5
310
  8
0
  6
CONTINUOUS
 62
    40
 10
2.6075470131
 20
2.4756256814999991
 30
0.0
 11
2.6049900131000001
 21
2.4757256814999988
 31
0.0
  0
LINE
  5
311
  8
0
  6
CONTINUOUS
 62
    40
 10
2.6076340131000002
 20
2.4798556814999988
 30
0.0
 11
2.6117520130999998
 21
2.4795356814999989
 31
0.0
  0
LINE
  5
312
  8
0
  6
CONTINUOUS
 62
    40
 10
2.6098950131
 20
2.4753256814999989
 30
0.0
 11
2.6075470131
 21
2.4756256814999991
 31
0.0
  0
LINE
  5
313
  8
0
  6
CONTINUOUS
 62
    40
 10
2.6120310131000002
 20
2.4748256815
 30
0.0
 11
2.6098950131
 21
2.4753256814999989
 31
0.0
  0
LINE
  5
314
  8
0
  6
CONTINUOUS
 62
    40
 10
2.6117520130999998
 20
2.4795356814999989
 30
0.0
 11
2.6152080131000002
 21
2.4786356814999988
 31
0.0
  0
LINE
  5
315
  8
0
  6
CONTINUOUS
 62
    40
 10
2.6139520131
 20
2.4741156814999989
 30
0.0
 11
2.6120310131000002
 21
2.4748256815
 31
0.0
  0
LINE
  5
316
  8
0
  6
CONTINUOUS
 62
    40
 10
2.6152080131000002
 20
2.4786356814999988
 30
0.0
 11
2.6180580131000002
 21
2.4772656815
 31
0.0
  0
LINE
  5
317
  8
0
  6
CONTINUOUS
 62
    40
 10
2.6156560131000002
 20
2.4731956815
 30
0.0
 11
2.6139520131
 21
2.4741156814999989
 31
0.0
  0
LINE
  5
318
  8
0
  6
CONTINUOUS
 62
    40
 10
2.6283990131000001
 20
2.4065056815000001
 30
0.0
 11
2.5818630130999991
 21
2.4409556814999989
 31
0.0
  0
LINE
  5
319
  8
0
  6
CONTINUOUS
 62
    40
 10
2.6180580131000002
 20
2.4772656815
 30
0.0
 11
2.6203610131000001
 21
2.4755256814999989
 31
0.0
  0
LINE
  5
31A
  8
0
  6
CONTINUOUS
 62
    40
 10
2.5886120131000001
 20
2.441855681499999
 30
0.0
 11
2.6353720131
 21
2.4065056815000001
 31
0.0
  0
LINE
  5
31B
  8
0
  6
CONTINUOUS
 62
    40
 10
2.617141013099999
 20
2.4720656814999988
 30
0.0
 11
2.6156560131000002
 21
2.4731956815
 31
0.0
  0
LINE
  5
31C
  8
0
  6
CONTINUOUS
 62
    40
 10
2.6184040131000001
 20
2.4707156814999989
 30
0.0
 11
2.617141013099999
 21
2.4720656814999988
 31
0.0
  0
LINE
  5
31D
  8
0
  6
CONTINUOUS
 62
    40
 10
2.6203610131000001
 20
2.4755256814999989
 30
0.0
 11
2.6221760130999998
 21
2.473515681499999
 31
0.0
  0
LINE
  5
31E
  8
0
  6
CONTINUOUS
 62
    40
 10
2.6194420131
 20
2.4691456814999988
 30
0.0
 11
2.6184040131000001
 21
2.4707156814999989
 31
0.0
  0
LINE
  5
31F
  8
0
  6
CONTINUOUS
 62
    40
 10
2.6221760130999998
 20
2.473515681499999
 30
0.0
 11
2.6235610130999998
 21
2.471345681499999
 31
0.0
  0
LINE
  5
321
  8
0
  6
CONTINUOUS
 62
    40
 10
2.6202540130999998
 20
2.4673556814999991
 30
0.0
 11
2.6194420131
 21
2.4691456814999988
 31
0.0
  0
LINE
  5
322
  8
0
  6
CONTINUOUS
 62
    40
 10
2.6235610130999998
 20
2.471345681499999
 30
0.0
 11
2.6245730131
 21
2.469105681499999
 31
0.0
  0
LINE
  5
323
  8
0
  6
CONTINUOUS
 62
    40
 10
2.6245730131
 20
2.469105681499999
 30
0.0
 11
2.6252700131000002
 21
2.4669056815000001
 31
0.0
  0
LINE
  5
324
  8
0
  6
CONTINUOUS
 62
    40
 10
2.6208370131000001
 20
2.4653356815
 30
0.0
 11
2.6202540130999998
 21
2.4673556814999991
 31
0.0
  0
LINE
  5
325
  8
0
  6
CONTINUOUS
 62
    40
 10
2.6252700131000002
 20
2.4669056815000001
 30
0.0
 11
2.6257120130999998
 21
2.4648556815
 31
0.0
  0
LINE
  5
326
  8
0
  6
CONTINUOUS
 62
    40
 10
2.6211890130999991
 20
2.4630856814999991
 30
0.0
 11
2.6208370131000001
 21
2.4653356815
 31
0.0
  0
LINE
  5
327
  8
0
  6
CONTINUOUS
 62
    40
 10
2.6257120130999998
 20
2.4648556815
 30
0.0
 11
2.6259550131
 21
2.4630356815000001
 31
0.0
  0
POLYLINE
  5
328
  8
0
  6
CONTINUOUS
 62
     7
 66
     1
 10
0.0
 20
0.0
 30
0.0
  0
VERTEX
  5
6DC
  8
0
  6
CONTINUOUS
 62
     7
 10
2.8197450663999999
 20
2.897746186
 30
0.0
  0
VERTEX
  5
6DD
  8
0
  6
CONTINUOUS
 62
     7
 10
2.8201573052
 20
2.9016975217000001
 30
0.0
  0
VERTEX
  5
6DE
  8
0
  6
CONTINUOUS
 62
     7
 10
2.8211319206000001
 20
2.9053162637999992
 30
0.0
  0
VERTEX
  5
6DF
  8
0
  6
CONTINUOUS
 62
     7
 10
2.8226689125000002
 20
2.9086024123000001
 30
0.0
  0
VERTEX
  5
6E0
  8
0
  6
CONTINUOUS
 62
     7
 10
2.824861625
 20
2.9116341211000001
 30
0.0
  0
VERTEX
  5
6E1
  8
0
  6
CONTINUOUS
 62
     7
 10
2.827616713999999
 20
2.9143332363000001
 30
0.0
  0
VERTEX
  5
6E2
  8
0
  6
CONTINUOUS
 62
     7
 10
2.8306541476999998
 20
2.9164652960999988
 30
0.0
  0
VERTEX
  5
6E3
  8
0
  6
CONTINUOUS
 62
     7
 10
2.8339742874999998
 20
2.9179675267
 30
0.0
  0
VERTEX
  5
6E4
  8
0
  6
CONTINUOUS
 62
     7
 10
2.8375767718999998
 20
2.9189027018
 30
0.0
  0
VERTEX
  5
6E5
  8
0
  6
CONTINUOUS
 62
     7
 10
2.8411804849000002
 20
2.9192246803999988
 30
0.0
  0
VERTEX
  5
6E6
  8
0
  6
CONTINUOUS
 62
     7
 10
2.8447854879999999
 20
2.9189027018
 30
0.0
  0
VERTEX
  5
6E7
  8
0
  6
CONTINUOUS
 62
     7
 10
2.8483917196999999
 20
2.9179675267
 30
0.0
  0
VERTEX
  5
6E8
  8
0
  6
CONTINUOUS
 62
     7
 10
2.8517178790000002
 20
2.9164652960999988
 30
0.0
  0
VERTEX
  5
6E9
  8
0
  6
CONTINUOUS
 62
     7
 10
2.854763855999999
 20
2.9143332363000001
 30
0.0
  0
VERTEX
  5
6EA
  8
0
  6
CONTINUOUS
 62
     7
 10
2.8575297605999999
 20
2.9116341211000001
 30
0.0
  0
VERTEX
  5
6EB
  8
0
  6
CONTINUOUS
 62
     7
 10
2.8597346212999999
 20
2.9086024123000001
 30
0.0
  0
VERTEX
  5
6EC
  8
0
  6
CONTINUOUS
 62
     7
 10
2.8612847810000002
 20
2.9053162637999992
 30
0.0
  0
VERTEX
  5
6ED
  8
0
  6
CONTINUOUS
 62
     7
 10
2.8622738969000001
 20
2.9016975217000001
 30
0.0
  0
VERTEX
  5
6EE
  8
0
  6
CONTINUOUS
 62
     7
 10
2.8627019689000002
 20
2.897746186
 30
0.0
  0
SEQEND
  5
6EF
  8
0
  6
CONTINUOUS
 62
     7
  0
POLYLINE
  5
329
  8
0
  6
CONTINUOUS
 62
     7
 66
     1
 10
0.0
 20
0.0
 30
0.0
  0
VERTEX
  5
6F0
  8
0
  6
CONTINUOUS
 62
     7
 10
2.8627019689000002
 20
2.897746186
 30
0.0
  0
VERTEX
  5
6F1
  8
0
  6
CONTINUOUS
 62
     7
 10
2.8622897301000001
 20
2.8937948502999991
 30
0.0
  0
VERTEX
  5
6F2
  8
0
  6
CONTINUOUS
 62
     7
 10
2.8613151148
 20
2.8901761081999999
 30
0.0
  0
VERTEX
  5
6F3
  8
0
  6
CONTINUOUS
 62
     7
 10
2.8597781227999999
 20
2.8868899596999991
 30
0.0
  0
VERTEX
  5
6F4
  8
0
  6
CONTINUOUS
 62
     7
 10
2.8575854103
 20
2.883858250799999
 30
0.0
  0
VERTEX
  5
6F5
  8
0
  6
CONTINUOUS
 62
     7
 10
2.8548303213000001
 20
2.881159135599999
 30
0.0
  0
VERTEX
  5
6F6
  8
0
  6
CONTINUOUS
 62
     7
 10
2.8517928875999998
 20
2.879027075899999
 30
0.0
  0
VERTEX
  5
6F7
  8
0
  6
CONTINUOUS
 62
     7
 10
2.8484727477999998
 20
2.8775248452999991
 30
0.0
  0
VERTEX
  5
6F8
  8
0
  6
CONTINUOUS
 62
     7
 10
2.8448702633999998
 20
2.8765896701999991
 30
0.0
  0
VERTEX
  5
6F9
  8
0
  6
CONTINUOUS
 62
     7
 10
2.8412665503999999
 20
2.876267691599999
 30
0.0
  0
VERTEX
  5
6FA
  8
0
  6
CONTINUOUS
 62
     7
 10
2.8376615473000002
 20
2.8765896701999991
 30
0.0
  0
VERTEX
  5
6FB
  8
0
  6
CONTINUOUS
 62
     7
 10
2.8340553156000001
 20
2.8775248452999991
 30
0.0
  0
VERTEX
  5
6FC
  8
0
  6
CONTINUOUS
 62
     7
 10
2.8307291562999999
 20
2.879027075899999
 30
0.0
  0
VERTEX
  5
6FD
  8
0
  6
CONTINUOUS
 62
     7
 10
2.8276831793000001
 20
2.881159135599999
 30
0.0
  0
VERTEX
  5
6FE
  8
0
  6
CONTINUOUS
 62
     7
 10
2.8249172747000002
 20
2.883858250799999
 30
0.0
  0
VERTEX
  5
6FF
  8
0
  6
CONTINUOUS
 62
     7
 10
2.8227124140000002
 20
2.8868899596999991
 30
0.0
  0
VERTEX
  5
700
  8
0
  6
CONTINUOUS
 62
     7
 10
2.8211622542999999
 20
2.8901761081999999
 30
0.0
  0
VERTEX
  5
701
  8
0
  6
CONTINUOUS
 62
     7
 10
2.8201731383999991
 20
2.8937948502999991
 30
0.0
  0
VERTEX
  5
702
  8
0
  6
CONTINUOUS
 62
     7
 10
2.8197450663999999
 20
2.897746186
 30
0.0
  0
SEQEND
  5
703
  8
0
  6
CONTINUOUS
 62
     7
  0
POLYLINE
  5
32A
  8
0
  6
CONTINUOUS
 62
     7
 66
     1
 10
0.0
 20
0.0
 30
0.0
  0
VERTEX
  5
704
  8
0
  6
CONTINUOUS
 62
     7
 10
2.8197450663999999
 20
1.9892651769
 30
0.0
  0
VERTEX
  5
705
  8
0
  6
CONTINUOUS
 62
     7
 10
2.8201731383999991
 20
1.9932165126000001
 30
0.0
  0
VERTEX
  5
706
  8
0
  6
CONTINUOUS
 62
     7
 10
2.8211622542999999
 20
1.9968352547999999
 30
0.0
  0
VERTEX
  5
707
  8
0
  6
CONTINUOUS
 62
     7
 10
2.8227124140000002
 20
2.0001214032000001
 30
0.0
  0
VERTEX
  5
708
  8
0
  6
CONTINUOUS
 62
     7
 10
2.8249172747000002
 20
2.0031531121000001
 30
0.0
  0
VERTEX
  5
709
  8
0
  6
CONTINUOUS
 62
     7
 10
2.8276831793000001
 20
2.0058522273000001
 30
0.0
  0
VERTEX
  5
70A
  8
0
  6
CONTINUOUS
 62
     7
 10
2.8307291562999999
 20
2.0079842870000002
 30
0.0
  0
VERTEX
  5
70B
  8
0
  6
CONTINUOUS
 62
     7
 10
2.8340553156000001
 20
2.0094865176000001
 30
0.0
  0
VERTEX
  5
70C
  8
0
  6
CONTINUOUS
 62
     7
 10
2.8376615473000002
 20
2.0104216927
 30
0.0
  0
VERTEX
  5
70D
  8
0
  6
CONTINUOUS
 62
     7
 10
2.8412665503999999
 20
2.0107436713000002
 30
0.0
  0
VERTEX
  5
70E
  8
0
  6
CONTINUOUS
 62
     7
 10
2.8448702633999998
 20
2.0104216927
 30
0.0
  0
VERTEX
  5
70F
  8
0
  6
CONTINUOUS
 62
     7
 10
2.8484727477999998
 20
2.0094865176000001
 30
0.0
  0
VERTEX
  5
710
  8
0
  6
CONTINUOUS
 62
     7
 10
2.8517928875999998
 20
2.0079842870000002
 30
0.0
  0
VERTEX
  5
711
  8
0
  6
CONTINUOUS
 62
     7
 10
2.8548303213000001
 20
2.0058522273000001
 30
0.0
  0
VERTEX
  5
712
  8
0
  6
CONTINUOUS
 62
     7
 10
2.8575854103
 20
2.0031531121000001
 30
0.0
  0
VERTEX
  5
713
  8
0
  6
CONTINUOUS
 62
     7
 10
2.8597781227999999
 20
2.0001214032000001
 30
0.0
  0
VERTEX
  5
714
  8
0
  6
CONTINUOUS
 62
     7
 10
2.8613151148
 20
1.9968352547999999
 30
0.0
  0
VERTEX
  5
715
  8
0
  6
CONTINUOUS
 62
     7
 10
2.8622897301000001
 20
1.9932165126000001
 30
0.0
  0
VERTEX
  5
716
  8
0
  6
CONTINUOUS
 62
     7
 10
2.8627019689000002
 20
1.9892651769
 30
0.0
  0
SEQEND
  5
717
  8
0
  6
CONTINUOUS
 62
     7
  0
POLYLINE
  5
32B
  8
0
  6
CONTINUOUS
 62
     7
 66
     1
 10
0.0
 20
0.0
 30
0.0
  0
VERTEX
  5
718
  8
0
  6
CONTINUOUS
 62
     7
 10
2.3869830131000001
 20
2.876611218199999
 30
0.0
  0
VERTEX
  5
719
  8
0
  6
CONTINUOUS
 62
     7
 10
2.3830277210999991
 20
2.8770312407
 30
0.0
  0
VERTEX
  5
71A
  8
0
  6
CONTINUOUS
 62
     7
 10
2.3794053556999999
 20
2.8780127957999988
 30
0.0
  0
VERTEX
  5
71B
  8
0
  6
CONTINUOUS
 62
     7
 10
2.376115916899999
 20
2.8795558833999988
 30
0.0
  0
VERTEX
  5
71C
  8
0
  6
CONTINUOUS
 62
     7
 10
2.3730811725000001
 20
2.8817539746
 30
0.0
  0
VERTEX
  5
71D
  8
0
  6
CONTINUOUS
 62
     7
 10
2.3703793547999998
 20
2.884513598399999
 30
0.0
  0
VERTEX
  5
71E
  8
0
  6
CONTINUOUS
 62
     7
 10
2.3682451602999999
 20
2.8875543416999991
 30
0.0
  0
VERTEX
  5
71F
  8
0
  6
CONTINUOUS
 62
     7
 10
2.3667414255999999
 20
2.8908764401999991
 30
0.0
  0
VERTEX
  5
720
  8
0
  6
CONTINUOUS
 62
     7
 10
2.3658053141000002
 20
2.894479658299999
 30
0.0
  0
VERTEX
  5
721
  8
0
  6
CONTINUOUS
 62
     7
 10
2.3654830130999991
 20
2.8980828763999988
 30
0.0
  0
VERTEX
  5
722
  8
0
  6
CONTINUOUS
 62
     7
 10
2.3658053141000002
 20
2.9016860945
 30
0.0
  0
VERTEX
  5
723
  8
0
  6
CONTINUOUS
 62
     7
 10
2.3667414255999999
 20
2.905289312599999
 30
0.0
  0
VERTEX
  5
724
  8
0
  6
CONTINUOUS
 62
     7
 10
2.3682451602999999
 20
2.908611411099999
 30
0.0
  0
VERTEX
  5
725
  8
0
  6
CONTINUOUS
 62
     7
 10
2.3703793547999998
 20
2.9116521545
 30
0.0
  0
VERTEX
  5
726
  8
0
  6
CONTINUOUS
 62
     7
 10
2.3730811725000001
 20
2.914411778199999
 30
0.0
  0
VERTEX
  5
727
  8
0
  6
CONTINUOUS
 62
     7
 10
2.376115916899999
 20
2.9166098693999989
 30
0.0
  0
VERTEX
  5
728
  8
0
  6
CONTINUOUS
 62
     7
 10
2.3794053556999999
 20
2.9181529570999989
 30
0.0
  0
VERTEX
  5
729
  8
0
  6
CONTINUOUS
 62
     7
 10
2.3830277210999991
 20
2.919134512099999
 30
0.0
  0
VERTEX
  5
72A
  8
0
  6
CONTINUOUS
 62
     7
 10
2.3869830131000001
 20
2.9195545346999991
 30
0.0
  0
SEQEND
  5
72B
  8
0
  6
CONTINUOUS
 62
     7
  0
POLYLINE
  5
32C
  8
0
  6
CONTINUOUS
 62
     7
 66
     1
 10
0.0
 20
0.0
 30
0.0
  0
VERTEX
  5
72C
  8
0
  6
CONTINUOUS
 62
     7
 10
2.3869830131000001
 20
2.9195545346999991
 30
0.0
  0
VERTEX
  5
72D
  8
0
  6
CONTINUOUS
 62
     7
 10
2.3909383052000002
 20
2.919134512099999
 30
0.0
  0
VERTEX
  5
72E
  8
0
  6
CONTINUOUS
 62
     7
 10
2.3945606706000002
 20
2.9181529570999989
 30
0.0
  0
VERTEX
  5
72F
  8
0
  6
CONTINUOUS
 62
     7
 10
2.3978501094000002
 20
2.9166098693999989
 30
0.0
  0
VERTEX
  5
730
  8
0
  6
CONTINUOUS
 62
     7
 10
2.4008848537
 20
2.914411778199999
 30
0.0
  0
VERTEX
  5
731
  8
0
  6
CONTINUOUS
 62
     7
 10
2.4035866714999998
 20
2.9116521545
 30
0.0
  0
VERTEX
  5
732
  8
0
  6
CONTINUOUS
 62
     7
 10
2.4057208658999998
 20
2.908611411099999
 30
0.0
  0
VERTEX
  5
733
  8
0
  6
CONTINUOUS
 62
     7
 10
2.4072246007000002
 20
2.905289312599999
 30
0.0
  0
VERTEX
  5
734
  8
0
  6
CONTINUOUS
 62
     7
 10
2.408160712099999
 20
2.9016860945
 30
0.0
  0
VERTEX
  5
735
  8
0
  6
CONTINUOUS
 62
     7
 10
2.4084830131000001
 20
2.8980828763999988
 30
0.0
  0
VERTEX
  5
736
  8
0
  6
CONTINUOUS
 62
     7
 10
2.408160712099999
 20
2.894479658299999
 30
0.0
  0
VERTEX
  5
737
  8
0
  6
CONTINUOUS
 62
     7
 10
2.4072246007000002
 20
2.8908764401999991
 30
0.0
  0
VERTEX
  5
738
  8
0
  6
CONTINUOUS
 62
     7
 10
2.4057208658999998
 20
2.8875543416999991
 30
0.0
  0
VERTEX
  5
739
  8
0
  6
CONTINUOUS
 62
     7
 10
2.4035866714999998
 20
2.884513598399999
 30
0.0
  0
VERTEX
  5
73A
  8
0
  6
CONTINUOUS
 62
     7
 10
2.4008848537
 20
2.8817539746
 30
0.0
  0
VERTEX
  5
73B
  8
0
  6
CONTINUOUS
 62
     7
 10
2.3978501094000002
 20
2.8795558833999988
 30
0.0
  0
VERTEX
  5
73C
  8
0
  6
CONTINUOUS
 62
     7
 10
2.3945606706000002
 20
2.8780127957999988
 30
0.0
  0
VERTEX
  5
73D
  8
0
  6
CONTINUOUS
 62
     7
 10
2.3909383052000002
 20
2.8770312407
 30
0.0
  0
VERTEX
  5
73E
  8
0
  6
CONTINUOUS
 62
     7
 10
2.3869830131000001
 20
2.876611218199999
 30
0.0
  0
SEQEND
  5
73F
  8
0
  6
CONTINUOUS
 62
     7
  0
POLYLINE
  5
32D
  8
0
  6
CONTINUOUS
 62
     7
 66
     1
 10
0.0
 20
0.0
 30
0.0
  0
VERTEX
  5
740
  8
0
  6
CONTINUOUS
 62
     7
 10
2.8627019689000002
 20
1.9892651769
 30
0.0
  0
VERTEX
  5
741
  8
0
  6
CONTINUOUS
 62
     7
 10
2.8622738969000001
 20
1.9853138411999991
 30
0.0
  0
VERTEX
  5
742
  8
0
  6
CONTINUOUS
 62
     7
 10
2.8612847810000002
 20
1.9816950990999991
 30
0.0
  0
VERTEX
  5
743
  8
0
  6
CONTINUOUS
 62
     7
 10
2.8597346212999999
 20
1.9784089506
 30
0.0
  0
VERTEX
  5
744
  8
0
  6
CONTINUOUS
 62
     7
 10
2.8575297605999999
 20
1.9753772418
 30
0.0
  0
VERTEX
  5
745
  8
0
  6
CONTINUOUS
 62
     7
 10
2.854763855999999
 20
1.9726781265999991
 30
0.0
  0
VERTEX
  5
746
  8
0
  6
CONTINUOUS
 62
     7
 10
2.8517178790000002
 20
1.970546066899999
 30
0.0
  0
VERTEX
  5
747
  8
0
  6
CONTINUOUS
 62
     7
 10
2.8483917196999999
 20
1.9690438363
 30
0.0
  0
VERTEX
  5
748
  8
0
  6
CONTINUOUS
 62
     7
 10
2.8447854879999999
 20
1.9681086611
 30
0.0
  0
VERTEX
  5
749
  8
0
  6
CONTINUOUS
 62
     7
 10
2.8411804849000002
 20
1.967786682599999
 30
0.0
  0
VERTEX
  5
74A
  8
0
  6
CONTINUOUS
 62
     7
 10
2.8375767718999998
 20
1.9681086611
 30
0.0
  0
VERTEX
  5
74B
  8
0
  6
CONTINUOUS
 62
     7
 10
2.8339742874999998
 20
1.9690438363
 30
0.0
  0
VERTEX
  5
74C
  8
0
  6
CONTINUOUS
 62
     7
 10
2.8306541476999998
 20
1.970546066899999
 30
0.0
  0
VERTEX
  5
74D
  8
0
  6
CONTINUOUS
 62
     7
 10
2.827616713999999
 20
1.9726781265999991
 30
0.0
  0
VERTEX
  5
74E
  8
0
  6
CONTINUOUS
 62
     7
 10
2.824861625
 20
1.9753772418
 30
0.0
  0
VERTEX
  5
74F
  8
0
  6
CONTINUOUS
 62
     7
 10
2.8226689125000002
 20
1.9784089506
 30
0.0
  0
VERTEX
  5
750
  8
0
  6
CONTINUOUS
 62
     7
 10
2.8211319206000001
 20
1.9816950990999991
 30
0.0
  0
VERTEX
  5
751
  8
0
  6
CONTINUOUS
 62
     7
 10
2.8201573052
 20
1.9853138411999991
 30
0.0
  0
VERTEX
  5
752
  8
0
  6
CONTINUOUS
 62
     7
 10
2.8197450663999999
 20
1.9892651769
 30
0.0
  0
SEQEND
  5
753
  8
0
  6
CONTINUOUS
 62
     7
  0
POLYLINE
  5
32F
  8
0
  6
CONTINUOUS
 62
     7
 66
     1
 10
0.0
 20
0.0
 30
0.0
  0
VERTEX
  5
754
  8
0
  6
CONTINUOUS
 62
     7
 10
3.2823514733999999
 20
3.3602631395999989
 30
0.0
  0
VERTEX
  5
755
  8
0
  6
CONTINUOUS
 62
     7
 10
3.2827293510999991
 20
3.3641982195999991
 30
0.0
  0
VERTEX
  5
756
  8
0
  6
CONTINUOUS
 62
     7
 10
3.2836700108999999
 20
3.3678020743000001
 30
0.0
  0
VERTEX
  5
757
  8
0
  6
CONTINUOUS
 62
     7
 10
3.2851734528000001
 20
3.3710747035999988
 30
0.0
  0
VERTEX
  5
758
  8
0
  6
CONTINUOUS
 62
     7
 10
3.287331986399999
 20
3.374093939999999
 30
0.0
  0
VERTEX
  5
759
  8
0
  6
CONTINUOUS
 62
     7
 10
3.2900533021
 20
3.376781951099999
 30
0.0
  0
VERTEX
  5
75A
  8
0
  6
CONTINUOUS
 62
     7
 10
3.2930604713
 20
3.378905239599999
 30
0.0
  0
VERTEX
  5
75B
  8
0
  6
CONTINUOUS
 62
     7
 10
3.2963543726000002
 20
3.3804012901
 30
0.0
  0
VERTEX
  5
75C
  8
0
  6
CONTINUOUS
 62
     7
 10
3.2999341272999998
 20
3.3813326179000001
 30
0.0
  0
VERTEX
  5
75D
  8
0
  6
CONTINUOUS
 62
     7
 10
3.3035201715000002
 20
3.381653271899999
 30
0.0
  0
VERTEX
  5
75E
  8
0
  6
CONTINUOUS
 62
     7
 10
3.3071128206
 20
3.3813326179000001
 30
0.0
  0
VERTEX
  5
75F
  8
0
  6
CONTINUOUS
 62
     7
 10
3.3107117591000002
 20
3.3804012901
 30
0.0
  0
VERTEX
  5
760
  8
0
  6
CONTINUOUS
 62
     7
 10
3.3140364764000001
 20
3.378905239599999
 30
0.0
  0
VERTEX
  5
761
  8
0
  6
CONTINUOUS
 62
     7
 10
3.3170873816999991
 20
3.376781951099999
 30
0.0
  0
VERTEX
  5
762
  8
0
  6
CONTINUOUS
 62
     7
 10
3.3198640657
 20
3.374093939999999
 30
0.0
  0
VERTEX
  5
763
  8
0
  6
CONTINUOUS
 62
     7
 10
3.322084790299999
 20
3.3710747035999988
 30
0.0
  0
VERTEX
  5
764
  8
0
  6
CONTINUOUS
 62
     7
 10
3.323655642699999
 20
3.3678020743000001
 30
0.0
  0
VERTEX
  5
765
  8
0
  6
CONTINUOUS
 62
     7
 10
3.3246705356000001
 20
3.3641982195999991
 30
0.0
  0
VERTEX
  5
766
  8
0
  6
CONTINUOUS
 62
     7
 10
3.3251294691000002
 20
3.3602631395999989
 30
0.0
  0
SEQEND
  5
767
  8
0
  6
CONTINUOUS
 62
     7
  0
POLYLINE
  5
330
  8
0
  6
CONTINUOUS
 62
     7
 66
     1
 10
0.0
 20
0.0
 30
0.0
  0
VERTEX
  5
768
  8
0
  6
CONTINUOUS
 62
     7
 10
3.3251294691000002
 20
3.3602631395999989
 30
0.0
  0
VERTEX
  5
769
  8
0
  6
CONTINUOUS
 62
     7
 10
3.3247515914000001
 20
3.3563280596
 30
0.0
  0
VERTEX
  5
76A
  8
0
  6
CONTINUOUS
 62
     7
 10
3.3238109316000002
 20
3.352724204899999
 30
0.0
  0
VERTEX
  5
76B
  8
0
  6
CONTINUOUS
 62
     7
 10
3.3223074897
 20
3.3494515754999989
 30
0.0
  0
VERTEX
  5
76C
  8
0
  6
CONTINUOUS
 62
     7
 10
3.3201489561000002
 20
3.3464323390999988
 30
0.0
  0
VERTEX
  5
76D
  8
0
  6
CONTINUOUS
 62
     7
 10
3.3174276404
 20
3.3437443280000001
 30
0.0
  0
VERTEX
  5
76E
  8
0
  6
CONTINUOUS
 62
     7
 10
3.3144204712000001
 20
3.3416210395000001
 30
0.0
  0
VERTEX
  5
76F
  8
0
  6
CONTINUOUS
 62
     7
 10
3.3111265698999999
 20
3.3401249890999991
 30
0.0
  0
VERTEX
  5
770
  8
0
  6
CONTINUOUS
 62
     7
 10
3.3075468151999998
 20
3.3391936612999991
 30
0.0
  0
VERTEX
  5
771
  8
0
  6
CONTINUOUS
 62
     7
 10
3.3039607709999999
 20
3.3388730072999988
 30
0.0
  0
VERTEX
  5
772
  8
0
  6
CONTINUOUS
 62
     7
 10
3.3003681219000001
 20
3.3391936612999991
 30
0.0
  0
VERTEX
  5
773
  8
0
  6
CONTINUOUS
 62
     7
 10
3.296769183399999
 20
3.3401249890999991
 30
0.0
  0
VERTEX
  5
774
  8
0
  6
CONTINUOUS
 62
     7
 10
3.2934444660999991
 20
3.3416210395000001
 30
0.0
  0
VERTEX
  5
775
  8
0
  6
CONTINUOUS
 62
     7
 10
3.2903935608000001
 20
3.3437443280000001
 30
0.0
  0
VERTEX
  5
776
  8
0
  6
CONTINUOUS
 62
     7
 10
3.2876168768
 20
3.3464323390999988
 30
0.0
  0
VERTEX
  5
777
  8
0
  6
CONTINUOUS
 62
     7
 10
3.2853961522000001
 20
3.3494515754999989
 30
0.0
  0
VERTEX
  5
778
  8
0
  6
CONTINUOUS
 62
     7
 10
3.2838252998000002
 20
3.352724204899999
 30
0.0
  0
VERTEX
  5
779
  8
0
  6
CONTINUOUS
 62
     7
 10
3.282810406899999
 20
3.3563280596
 30
0.0
  0
VERTEX
  5
77A
  8
0
  6
CONTINUOUS
 62
     7
 10
3.2823514733999999
 20
3.3602631395999989
 30
0.0
  0
SEQEND
  5
77B
  8
0
  6
CONTINUOUS
 62
     7
  0
POLYLINE
  5
331
  8
0
  6
CONTINUOUS
 62
     7
 66
     1
 10
0.0
 20
0.0
 30
0.0
  0
VERTEX
  5
77C
  8
0
  6
CONTINUOUS
 62
     7
 10
3.2796205455999998
 20
2.8982461683
 30
0.0
  0
VERTEX
  5
77D
  8
0
  6
CONTINUOUS
 62
     7
 10
3.2800235803999991
 20
2.9021988987
 30
0.0
  0
VERTEX
  5
77E
  8
0
  6
CONTINUOUS
 62
     7
 10
3.2809869691000002
 20
2.9058189180999991
 30
0.0
  0
VERTEX
  5
77F
  8
0
  6
CONTINUOUS
 62
     7
 10
3.2825107116000001
 20
2.9091062265000001
 30
0.0
  0
VERTEX
  5
780
  8
0
  6
CONTINUOUS
 62
     7
 10
3.2846875708000001
 20
2.9121390053999989
 30
0.0
  0
VERTEX
  5
781
  8
0
  6
CONTINUOUS
 62
     7
 10
3.2874247838000001
 20
2.9148390731999991
 30
0.0
  0
VERTEX
  5
782
  8
0
  6
CONTINUOUS
 62
     7
 10
3.2904440623000002
 20
2.9169718854999989
 30
0.0
  0
VERTEX
  5
783
  8
0
  6
CONTINUOUS
 62
     7
 10
3.2937458816
 20
2.9184746462999991
 30
0.0
  0
VERTEX
  5
784
  8
0
  6
CONTINUOUS
 62
     7
 10
3.2973297662999999
 20
2.9194101514999988
 30
0.0
  0
VERTEX
  5
785
  8
0
  6
CONTINUOUS
 62
     7
 10
3.3009160025000002
 20
2.9197322438
 30
0.0
  0
VERTEX
  5
786
  8
0
  6
CONTINUOUS
 62
     7
 10
3.3045047080000001
 20
2.9194101514999988
 30
0.0
  0
VERTEX
  5
787
  8
0
  6
CONTINUOUS
 62
     7
 10
3.3080957649
 20
2.9184746462999991
 30
0.0
  0
VERTEX
  5
788
  8
0
  6
CONTINUOUS
 62
     7
 10
3.3114091053000001
 20
2.9169718854999989
 30
0.0
  0
VERTEX
  5
789
  8
0
  6
CONTINUOUS
 62
     7
 10
3.3144447352999991
 20
2.9148390731999991
 30
0.0
  0
VERTEX
  5
78A
  8
0
  6
CONTINUOUS
 62
     7
 10
3.317202648799999
 20
2.9121390053999989
 30
0.0
  0
VERTEX
  5
78B
  8
0
  6
CONTINUOUS
 62
     7
 10
3.3194027591999991
 20
2.9091062265000001
 30
0.0
  0
VERTEX
  5
78C
  8
0
  6
CONTINUOUS
 62
     7
 10
3.3209517044000001
 20
2.9058189180999991
 30
0.0
  0
VERTEX
  5
78D
  8
0
  6
CONTINUOUS
 62
     7
 10
3.3219428463999998
 20
2.9021988987
 30
0.0
  0
VERTEX
  5
78E
  8
0
  6
CONTINUOUS
 62
     7
 10
3.3223761854
 20
2.8982461683
 30
0.0
  0
SEQEND
  5
78F
  8
0
  6
CONTINUOUS
 62
     7
  0
POLYLINE
  5
332
  8
0
  6
CONTINUOUS
 62
     7
 66
     1
 10
0.0
 20
0.0
 30
0.0
  0
VERTEX
  5
790
  8
0
  6
CONTINUOUS
 62
     7
 10
3.3223761854
 20
2.8982461683
 30
0.0
  0
VERTEX
  5
791
  8
0
  6
CONTINUOUS
 62
     7
 10
3.3219731505999999
 20
2.8942934379
 30
0.0
  0
VERTEX
  5
792
  8
0
  6
CONTINUOUS
 62
     7
 10
3.3210097619000001
 20
2.8906734185
 30
0.0
  0
VERTEX
  5
793
  8
0
  6
CONTINUOUS
 62
     7
 10
3.3194860194000002
 20
2.8873861100999991
 30
0.0
  0
VERTEX
  5
794
  8
0
  6
CONTINUOUS
 62
     7
 10
3.3173091602000002
 20
2.8843533311999989
 30
0.0
  0
VERTEX
  5
795
  8
0
  6
CONTINUOUS
 62
     7
 10
3.3145719472000001
 20
2.8816532633
 30
0.0
  0
VERTEX
  5
796
  8
0
  6
CONTINUOUS
 62
     7
 10
3.3115526687000001
 20
2.879520451099999
 30
0.0
  0
VERTEX
  5
797
  8
0
  6
CONTINUOUS
 62
     7
 10
3.3082508493999998
 20
2.8780176903000001
 30
0.0
  0
VERTEX
  5
798
  8
0
  6
CONTINUOUS
 62
     7
 10
3.3046669646999991
 20
2.877082185099999
 30
0.0
  0
VERTEX
  5
799
  8
0
  6
CONTINUOUS
 62
     7
 10
3.3010807285000001
 20
2.8767600928000001
 30
0.0
  0
VERTEX
  5
79A
  8
0
  6
CONTINUOUS
 62
     7
 10
3.2974920230000002
 20
2.877082185099999
 30
0.0
  0
VERTEX
  5
79B
  8
0
  6
CONTINUOUS
 62
     7
 10
3.2939009660999998
 20
2.8780176903000001
 30
0.0
  0
VERTEX
  5
79C
  8
0
  6
CONTINUOUS
 62
     7
 10
3.2905876257000002
 20
2.879520451099999
 30
0.0
  0
VERTEX
  5
79D
  8
0
  6
CONTINUOUS
 62
     7
 10
3.2875519956999999
 20
2.8816532633
 30
0.0
  0
VERTEX
  5
79E
  8
0
  6
CONTINUOUS
 62
     7
 10
3.284794082199999
 20
2.8843533311999989
 30
0.0
  0
VERTEX
  5
79F
  8
0
  6
CONTINUOUS
 62
     7
 10
3.282593971799999
 20
2.8873861100999991
 30
0.0
  0
VERTEX
  5
7A0
  8
0
  6
CONTINUOUS
 62
     7
 10
3.2810450267000002
 20
2.8906734185
 30
0.0
  0
VERTEX
  5
7A1
  8
0
  6
CONTINUOUS
 62
     7
 10
3.2800538846
 20
2.8942934379
 30
0.0
  0
VERTEX
  5
7A2
  8
0
  6
CONTINUOUS
 62
     7
 10
3.2796205455999998
 20
2.8982461683
 30
0.0
  0
SEQEND
  5
7A3
  8
0
  6
CONTINUOUS
 62
     7
  0
POLYLINE
  5
333
  8
0
  6
CONTINUOUS
 62
     7
 66
     1
 10
0.0
 20
0.0
 30
0.0
  0
VERTEX
  5
7A4
  8
0
  6
CONTINUOUS
 62
     7
 10
3.2792932113000002
 20
2.4435056815
 30
0.0
  0
VERTEX
  5
7A5
  8
0
  6
CONTINUOUS
 62
     7
 10
3.2797113474000001
 20
2.4474609734999988
 30
0.0
  0
VERTEX
  5
7A6
  8
0
  6
CONTINUOUS
 62
     7
 10
3.2806884941000001
 20
2.4510833388999989
 30
0.0
  0
VERTEX
  5
7A7
  8
0
  6
CONTINUOUS
 62
     7
 10
3.2822246514999991
 20
2.4543727776999988
 30
0.0
  0
VERTEX
  5
7A8
  8
0
  6
CONTINUOUS
 62
     7
 10
3.2844128706000002
 20
2.4574075221
 30
0.0
  0
VERTEX
  5
7A9
  8
0
  6
CONTINUOUS
 62
     7
 10
3.2871601002999991
 20
2.4601093397999989
 30
0.0
  0
VERTEX
  5
7AA
  8
0
  6
CONTINUOUS
 62
     7
 10
3.290187187099999
 20
2.4622435342999989
 30
0.0
  0
VERTEX
  5
7AB
  8
0
  6
CONTINUOUS
 62
     7
 10
3.2934943653999991
 20
2.4637472689999989
 30
0.0
  0
VERTEX
  5
7AC
  8
0
  6
CONTINUOUS
 62
     7
 10
3.2970814007000002
 20
2.464683380499999
 30
0.0
  0
VERTEX
  5
7AD
  8
0
  6
CONTINUOUS
 62
     7
 10
3.300668436
 20
2.4650056815000001
 30
0.0
  0
VERTEX
  5
7AE
  8
0
  6
CONTINUOUS
 62
     7
 10
3.3042554713999999
 20
2.464683380499999
 30
0.0
  0
VERTEX
  5
7AF
  8
0
  6
CONTINUOUS
 62
     7
 10
3.3078425067000001
 20
2.4637472689999989
 30
0.0
  0
VERTEX
  5
7B0
  8
0
  6
CONTINUOUS
 62
     7
 10
3.3111496850000002
 20
2.4622435342999989
 30
0.0
  0
VERTEX
  5
7B1
  8
0
  6
CONTINUOUS
 62
     7
 10
3.3141767717000001
 20
2.4601093397999989
 30
0.0
  0
VERTEX
  5
7B2
  8
0
  6
CONTINUOUS
 62
     7
 10
3.3169240014999999
 20
2.4574075221
 30
0.0
  0
VERTEX
  5
7B3
  8
0
  6
CONTINUOUS
 62
     7
 10
3.3191122206000001
 20
2.4543727776999988
 30
0.0
  0
VERTEX
  5
7B4
  8
0
  6
CONTINUOUS
 62
     7
 10
3.3206483779
 20
2.4510833388999989
 30
0.0
  0
VERTEX
  5
7B5
  8
0
  6
CONTINUOUS
 62
     7
 10
3.321625524599999
 20
2.4474609734999988
 30
0.0
  0
VERTEX
  5
7B6
  8
0
  6
CONTINUOUS
 62
     7
 10
3.322043660799999
 20
2.4435056815
 30
0.0
  0
SEQEND
  5
7B7
  8
0
  6
CONTINUOUS
 62
     7
  0
POLYLINE
  5
334
  8
0
  6
CONTINUOUS
 62
     7
 66
     1
 10
0.0
 20
0.0
 30
0.0
  0
VERTEX
  5
7B8
  8
0
  6
CONTINUOUS
 62
     7
 10
3.322043660799999
 20
2.4435056815
 30
0.0
  0
VERTEX
  5
7B9
  8
0
  6
CONTINUOUS
 62
     7
 10
3.321625524599999
 20
2.439550389399999
 30
0.0
  0
VERTEX
  5
7BA
  8
0
  6
CONTINUOUS
 62
     7
 10
3.3206483779
 20
2.435928023999999
 30
0.0
  0
VERTEX
  5
7BB
  8
0
  6
CONTINUOUS
 62
     7
 10
3.3191122206000001
 20
2.432638585199999
 30
0.0
  0
VERTEX
  5
7BC
  8
0
  6
CONTINUOUS
 62
     7
 10
3.3169240014999999
 20
2.4296038408
 30
0.0
  0
VERTEX
  5
7BD
  8
0
  6
CONTINUOUS
 62
     7
 10
3.3141767717000001
 20
2.4269020230999989
 30
0.0
  0
VERTEX
  5
7BE
  8
0
  6
CONTINUOUS
 62
     7
 10
3.3111496850000002
 20
2.424767828599999
 30
0.0
  0
VERTEX
  5
7BF
  8
0
  6
CONTINUOUS
 62
     7
 10
3.3078425067000001
 20
2.423264093899999
 30
0.0
  0
VERTEX
  5
7C0
  8
0
  6
CONTINUOUS
 62
     7
 10
3.3042554713999999
 20
2.4223279823999988
 30
0.0
  0
VERTEX
  5
7C1
  8
0
  6
CONTINUOUS
 62
     7
 10
3.300668436
 20
2.4220056814999991
 30
0.0
  0
VERTEX
  5
7C2
  8
0
  6
CONTINUOUS
 62
     7
 10
3.2970814007000002
 20
2.4223279823999988
 30
0.0
  0
VERTEX
  5
7C3
  8
0
  6
CONTINUOUS
 62
     7
 10
3.2934943653999991
 20
2.423264093899999
 30
0.0
  0
VERTEX
  5
7C4
  8
0
  6
CONTINUOUS
 62
     7
 10
3.290187187099999
 20
2.424767828599999
 30
0.0
  0
VERTEX
  5
7C5
  8
0
  6
CONTINUOUS
 62
     7
 10
3.2871601002999991
 20
2.4269020230999989
 30
0.0
  0
VERTEX
  5
7C6
  8
0
  6
CONTINUOUS
 62
     7
 10
3.2844128706000002
 20
2.4296038408
 30
0.0
  0
VERTEX
  5
7C7
  8
0
  6
CONTINUOUS
 62
     7
 10
3.2822246514999991
 20
2.432638585199999
 30
0.0
  0
VERTEX
  5
7C8
  8
0
  6
CONTINUOUS
 62
     7
 10
3.2806884941000001
 20
2.435928023999999
 30
0.0
  0
VERTEX
  5
7C9
  8
0
  6
CONTINUOUS
 62
     7
 10
3.2797113474000001
 20
2.439550389399999
 30
0.0
  0
VERTEX
  5
7CA
  8
0
  6
CONTINUOUS
 62
     7
 10
3.2792932113000002
 20
2.4435056815
 30
0.0
  0
SEQEND
  5
7CB
  8
0
  6
CONTINUOUS
 62
     7
  0
POLYLINE
  5
335
  8
0
  6
CONTINUOUS
 62
     7
 66
     1
 10
0.0
 20
0.0
 30
0.0
  0
VERTEX
  5
7CC
  8
0
  6
CONTINUOUS
 62
     7
 10
3.2796205455999998
 20
1.9887651946
 30
0.0
  0
VERTEX
  5
7CD
  8
0
  6
CONTINUOUS
 62
     7
 10
3.2800538846
 20
1.992717925
 30
0.0
  0
VERTEX
  5
7CE
  8
0
  6
CONTINUOUS
 62
     7
 10
3.2810450267000002
 20
1.9963379444
 30
0.0
  0
VERTEX
  5
7CF
  8
0
  6
CONTINUOUS
 62
     7
 10
3.282593971799999
 20
1.9996252527999989
 30
0.0
  0
VERTEX
  5
7D0
  8
0
  6
CONTINUOUS
 62
     7
 10
3.284794082199999
 20
2.0026580316999989
 30
0.0
  0
VERTEX
  5
7D1
  8
0
  6
CONTINUOUS
 62
     7
 10
3.2875519956999999
 20
2.0053580995999991
 30
0.0
  0
VERTEX
  5
7D2
  8
0
  6
CONTINUOUS
 62
     7
 10
3.2905876257000002
 20
2.0074909118000002
 30
0.0
  0
VERTEX
  5
7D3
  8
0
  6
CONTINUOUS
 62
     7
 10
3.2939009660999998
 20
2.0089936726999991
 30
0.0
  0
VERTEX
  5
7D4
  8
0
  6
CONTINUOUS
 62
     7
 10
3.2974920230000002
 20
2.0099291778000001
 30
0.0
  0
VERTEX
  5
7D5
  8
0
  6
CONTINUOUS
 62
     7
 10
3.3010807285000001
 20
2.010251270099999
 30
0.0
  0
VERTEX
  5
7D6
  8
0
  6
CONTINUOUS
 62
     7
 10
3.3046669646999991
 20
2.0099291778000001
 30
0.0
  0
VERTEX
  5
7D7
  8
0
  6
CONTINUOUS
 62
     7
 10
3.3082508493999998
 20
2.0089936726999991
 30
0.0
  0
VERTEX
  5
7D8
  8
0
  6
CONTINUOUS
 62
     7
 10
3.3115526687000001
 20
2.0074909118000002
 30
0.0
  0
VERTEX
  5
7D9
  8
0
  6
CONTINUOUS
 62
     7
 10
3.3145719472000001
 20
2.0053580995999991
 30
0.0
  0
VERTEX
  5
7DA
  8
0
  6
CONTINUOUS
 62
     7
 10
3.3173091602000002
 20
2.0026580316999989
 30
0.0
  0
VERTEX
  5
7DB
  8
0
  6
CONTINUOUS
 62
     7
 10
3.3194860194000002
 20
1.9996252527999989
 30
0.0
  0
VERTEX
  5
7DC
  8
0
  6
CONTINUOUS
 62
     7
 10
3.3210097619000001
 20
1.9963379444
 30
0.0
  0
VERTEX
  5
7DD
  8
0
  6
CONTINUOUS
 62
     7
 10
3.3219731505999999
 20
1.992717925
 30
0.0
  0
VERTEX
  5
7DE
  8
0
  6
CONTINUOUS
 62
     7
 10
3.3223761854
 20
1.9887651946
 30
0.0
  0
SEQEND
  5
7DF
  8
0
  6
CONTINUOUS
 62
     7
  0
POLYLINE
  5
337
  8
0
  6
CONTINUOUS
 62
     7
 66
     1
 10
0.0
 20
0.0
 30
0.0
  0
VERTEX
  5
7E0
  8
0
  6
CONTINUOUS
 62
     7
 10
1.9322425262999989
 20
3.3361432138999989
 30
0.0
  0
VERTEX
  5
7E1
  8
0
  6
CONTINUOUS
 62
     7
 10
1.9282897958999989
 20
3.3365462487999991
 30
0.0
  0
VERTEX
  5
7E2
  8
0
  6
CONTINUOUS
 62
     7
 10
1.9246697765
 20
3.3375096373999988
 30
0.0
  0
VERTEX
  5
7E3
  8
0
  6
CONTINUOUS
 62
     7
 10
1.9213824681
 20
3.3390333799
 30
0.0
  0
VERTEX
  5
7E4
  8
0
  6
CONTINUOUS
 62
     7
 10
1.9183496891999989
 20
3.3412102391
 30
0.0
  0
VERTEX
  5
7E5
  8
0
  6
CONTINUOUS
 62
     7
 10
1.9156496213
 20
3.3439474522000001
 30
0.0
  0
VERTEX
  5
7E6
  8
0
  6
CONTINUOUS
 62
     7
 10
1.913516809099999
 20
3.3469667306999988
 30
0.0
  0
VERTEX
  5
7E7
  8
0
  6
CONTINUOUS
 62
     7
 10
1.9120140483000001
 20
3.3502685499
 30
0.0
  0
VERTEX
  5
7E8
  8
0
  6
CONTINUOUS
 62
     7
 10
1.9110785430999999
 20
3.3538524346999989
 30
0.0
  0
VERTEX
  5
7E9
  8
0
  6
CONTINUOUS
 62
     7
 10
1.9107564507999999
 20
3.3574386707999988
 30
0.0
  0
VERTEX
  5
7EA
  8
0
  6
CONTINUOUS
 62
     7
 10
1.9110785430999999
 20
3.3610273763
 30
0.0
  0
VERTEX
  5
7EB
  8
0
  6
CONTINUOUS
 62
     7
 10
1.9120140483000001
 20
3.3646184332999991
 30
0.0
  0
VERTEX
  5
7EC
  8
0
  6
CONTINUOUS
 62
     7
 10
1.913516809099999
 20
3.3679317736000001
 30
0.0
  0
VERTEX
  5
7ED
  8
0
  6
CONTINUOUS
 62
     7
 10
1.9156496213
 20
3.370967403699999
 30
0.0
  0
VERTEX
  5
7EE
  8
0
  6
CONTINUOUS
 62
     7
 10
1.9183496891999989
 20
3.373725317199999
 30
0.0
  0
VERTEX
  5
7EF
  8
0
  6
CONTINUOUS
 62
     7
 10
1.9213824681
 20
3.375925427599999
 30
0.0
  0
VERTEX
  5
7F0
  8
0
  6
CONTINUOUS
 62
     7
 10
1.9246697765
 20
3.3774743727000001
 30
0.0
  0
VERTEX
  5
7F1
  8
0
  6
CONTINUOUS
 62
     7
 10
1.9282897958999989
 20
3.3784655147999989
 30
0.0
  0
VERTEX
  5
7F2
  8
0
  6
CONTINUOUS
 62
     7
 10
1.9322425262999989
 20
3.3788988536999991
 30
0.0
  0
SEQEND
  5
7F3
  8
0
  6
CONTINUOUS
 62
     7
  0
POLYLINE
  5
338
  8
0
  6
CONTINUOUS
 62
     7
 66
     1
 10
0.0
 20
0.0
 30
0.0
  0
VERTEX
  5
7F4
  8
0
  6
CONTINUOUS
 62
     7
 10
1.9322425262999989
 20
3.3788988536999991
 30
0.0
  0
VERTEX
  5
7F5
  8
0
  6
CONTINUOUS
 62
     7
 10
1.9361952566999989
 20
3.3784958188999989
 30
0.0
  0
VERTEX
  5
7F6
  8
0
  6
CONTINUOUS
 62
     7
 10
1.9398152761
 20
3.3775324303000001
 30
0.0
  0
VERTEX
  5
7F7
  8
0
  6
CONTINUOUS
 62
     7
 10
1.9431025844000001
 20
3.3760086876999988
 30
0.0
  0
VERTEX
  5
7F8
  8
0
  6
CONTINUOUS
 62
     7
 10
1.9461353633999989
 20
3.3738318285999989
 30
0.0
  0
VERTEX
  5
7F9
  8
0
  6
CONTINUOUS
 62
     7
 10
1.9488354312
 20
3.3710946155000001
 30
0.0
  0
VERTEX
  5
7FA
  8
0
  6
CONTINUOUS
 62
     7
 10
1.9509682435
 20
3.3680753370000001
 30
0.0
  0
VERTEX
  5
7FB
  8
0
  6
CONTINUOUS
 62
     7
 10
1.9524710042999991
 20
3.3647735177999989
 30
0.0
  0
VERTEX
  5
7FC
  8
0
  6
CONTINUOUS
 62
     7
 10
1.9534065094999999
 20
3.3611896329999991
 30
0.0
  0
VERTEX
  5
7FD
  8
0
  6
CONTINUOUS
 62
     7
 10
1.9537286017999991
 20
3.3576033969000001
 30
0.0
  0
VERTEX
  5
7FE
  8
0
  6
CONTINUOUS
 62
     7
 10
1.9534065094999999
 20
3.3540146913999989
 30
0.0
  0
VERTEX
  5
7FF
  8
0
  6
CONTINUOUS
 62
     7
 10
1.9524710042999991
 20
3.3504236343999989
 30
0.0
  0
VERTEX
  5
800
  8
0
  6
CONTINUOUS
 62
     7
 10
1.9509682435
 20
3.3471102939999988
 30
0.0
  0
VERTEX
  5
801
  8
0
  6
CONTINUOUS
 62
     7
 10
1.9488354312
 20
3.344074663999999
 30
0.0
  0
VERTEX
  5
802
  8
0
  6
CONTINUOUS
 62
     7
 10
1.9461353633999989
 20
3.341316750499999
 30
0.0
  0
VERTEX
  5
803
  8
0
  6
CONTINUOUS
 62
     7
 10
1.9431025844000001
 20
3.339116640099999
 30
0.0
  0
VERTEX
  5
804
  8
0
  6
CONTINUOUS
 62
     7
 10
1.9398152761
 20
3.3375676949999988
 30
0.0
  0
VERTEX
  5
805
  8
0
  6
CONTINUOUS
 62
     7
 10
1.9361952566999989
 20
3.3365765528999991
 30
0.0
  0
VERTEX
  5
806
  8
0
  6
CONTINUOUS
 62
     7
 10
1.9322425262999989
 20
3.3361432138999989
 30
0.0
  0
SEQEND
  5
807
  8
0
  6
CONTINUOUS
 62
     7
  0
POLYLINE
  5
339
  8
0
  6
CONTINUOUS
 62
     7
 66
     1
 10
0.0
 20
0.0
 30
0.0
  0
VERTEX
  5
808
  8
0
  6
CONTINUOUS
 62
     7
 10
2.3869830131000001
 20
3.3358158795999988
 30
0.0
  0
VERTEX
  5
809
  8
0
  6
CONTINUOUS
 62
     7
 10
2.3830277210999991
 20
3.3362340157000001
 30
0.0
  0
VERTEX
  5
80A
  8
0
  6
CONTINUOUS
 62
     7
 10
2.3794053556999999
 20
3.3372111625000001
 30
0.0
  0
VERTEX
  5
80B
  8
0
  6
CONTINUOUS
 62
     7
 10
2.376115916899999
 20
3.3387473197999991
 30
0.0
  0
VERTEX
  5
80C
  8
0
  6
CONTINUOUS
 62
     7
 10
2.3730811725000001
 20
3.3409355388999988
 30
0.0
  0
VERTEX
  5
80D
  8
0
  6
CONTINUOUS
 62
     7
 10
2.3703793547999998
 20
3.343682768599999
 30
0.0
  0
VERTEX
  5
80E
  8
0
  6
CONTINUOUS
 62
     7
 10
2.3682451602999999
 20
3.346709855399999
 30
0.0
  0
VERTEX
  5
80F
  8
0
  6
CONTINUOUS
 62
     7
 10
2.3667414255999999
 20
3.350017033699999
 30
0.0
  0
VERTEX
  5
810
  8
0
  6
CONTINUOUS
 62
     7
 10
2.3658053141000002
 20
3.3536040689999989
 30
0.0
  0
VERTEX
  5
811
  8
0
  6
CONTINUOUS
 62
     7
 10
2.3654830130999991
 20
3.3571911044
 30
0.0
  0
VERTEX
  5
812
  8
0
  6
CONTINUOUS
 62
     7
 10
2.3658053141000002
 20
3.3607781396999989
 30
0.0
  0
VERTEX
  5
813
  8
0
  6
CONTINUOUS
 62
     7
 10
2.3667414255999999
 20
3.3643651750000001
 30
0.0
  0
VERTEX
  5
814
  8
0
  6
CONTINUOUS
 62
     7
 10
2.3682451602999999
 20
3.3676723532999988
 30
0.0
  0
VERTEX
  5
815
  8
0
  6
CONTINUOUS
 62
     7
 10
2.3703793547999998
 20
3.3706994401000001
 30
0.0
  0
VERTEX
  5
816
  8
0
  6
CONTINUOUS
 62
     7
 10
2.3730811725000001
 20
3.373446669799999
 30
0.0
  0
VERTEX
  5
817
  8
0
  6
CONTINUOUS
 62
     7
 10
2.376115916899999
 20
3.3756348889000001
 30
0.0
  0
VERTEX
  5
818
  8
0
  6
CONTINUOUS
 62
     7
 10
2.3794053556999999
 20
3.3771710461999991
 30
0.0
  0
VERTEX
  5
819
  8
0
  6
CONTINUOUS
 62
     7
 10
2.3830277210999991
 20
3.378148192999999
 30
0.0
  0
VERTEX
  5
81A
  8
0
  6
CONTINUOUS
 62
     7
 10
2.3869830131000001
 20
3.378566329099999
 30
0.0
  0
SEQEND
  5
81B
  8
0
  6
CONTINUOUS
 62
     7
  0
POLYLINE
  5
33A
  8
0
  6
CONTINUOUS
 62
     7
 66
     1
 10
0.0
 20
0.0
 30
0.0
  0
VERTEX
  5
81C
  8
0
  6
CONTINUOUS
 62
     7
 10
2.3869830131000001
 20
3.378566329099999
 30
0.0
  0
VERTEX
  5
81D
  8
0
  6
CONTINUOUS
 62
     7
 10
2.3909383052000002
 20
3.378148192999999
 30
0.0
  0
VERTEX
  5
81E
  8
0
  6
CONTINUOUS
 62
     7
 10
2.3945606706000002
 20
3.3771710461999991
 30
0.0
  0
VERTEX
  5
81F
  8
0
  6
CONTINUOUS
 62
     7
 10
2.3978501094000002
 20
3.3756348889000001
 30
0.0
  0
VERTEX
  5
820
  8
0
  6
CONTINUOUS
 62
     7
 10
2.4008848537
 20
3.373446669799999
 30
0.0
  0
VERTEX
  5
821
  8
0
  6
CONTINUOUS
 62
     7
 10
2.4035866714999998
 20
3.3706994401000001
 30
0.0
  0
VERTEX
  5
822
  8
0
  6
CONTINUOUS
 62
     7
 10
2.4057208658999998
 20
3.3676723532999988
 30
0.0
  0
VERTEX
  5
823
  8
0
  6
CONTINUOUS
 62
     7
 10
2.4072246007000002
 20
3.3643651750000001
 30
0.0
  0
VERTEX
  5
824
  8
0
  6
CONTINUOUS
 62
     7
 10
2.408160712099999
 20
3.3607781396999989
 30
0.0
  0
VERTEX
  5
825
  8
0
  6
CONTINUOUS
 62
     7
 10
2.4084830131000001
 20
3.3571911044
 30
0.0
  0
VERTEX
  5
826
  8
0
  6
CONTINUOUS
 62
     7
 10
2.408160712099999
 20
3.3536040689999989
 30
0.0
  0
VERTEX
  5
827
  8
0
  6
CONTINUOUS
 62
     7
 10
2.4072246007000002
 20
3.350017033699999
 30
0.0
  0
VERTEX
  5
828
  8
0
  6
CONTINUOUS
 62
     7
 10
2.4057208658999998
 20
3.346709855399999
 30
0.0
  0
VERTEX
  5
829
  8
0
  6
CONTINUOUS
 62
     7
 10
2.4035866714999998
 20
3.343682768599999
 30
0.0
  0
VERTEX
  5
82A
  8
0
  6
CONTINUOUS
 62
     7
 10
2.4008848537
 20
3.3409355388999988
 30
0.0
  0
VERTEX
  5
82B
  8
0
  6
CONTINUOUS
 62
     7
 10
2.3978501094000002
 20
3.3387473197999991
 30
0.0
  0
VERTEX
  5
82C
  8
0
  6
CONTINUOUS
 62
     7
 10
2.3945606706000002
 20
3.3372111625000001
 30
0.0
  0
VERTEX
  5
82D
  8
0
  6
CONTINUOUS
 62
     7
 10
2.3909383052000002
 20
3.3362340157000001
 30
0.0
  0
VERTEX
  5
82E
  8
0
  6
CONTINUOUS
 62
     7
 10
2.3869830131000001
 20
3.3358158795999988
 30
0.0
  0
SEQEND
  5
82F
  8
0
  6
CONTINUOUS
 62
     7
  0
POLYLINE
  5
33B
  8
0
  6
CONTINUOUS
 62
     7
 66
     1
 10
0.0
 20
0.0
 30
0.0
  0
VERTEX
  5
830
  8
0
  6
CONTINUOUS
 62
     7
 10
2.8417235000000001
 20
3.3361432138999989
 30
0.0
  0
VERTEX
  5
831
  8
0
  6
CONTINUOUS
 62
     7
 10
2.8377707696000001
 20
3.3365765528999991
 30
0.0
  0
VERTEX
  5
832
  8
0
  6
CONTINUOUS
 62
     7
 10
2.8341507502000001
 20
3.3375676949999988
 30
0.0
  0
VERTEX
  5
833
  8
0
  6
CONTINUOUS
 62
     7
 10
2.8308634418
 20
3.339116640099999
 30
0.0
  0
VERTEX
  5
834
  8
0
  6
CONTINUOUS
 62
     7
 10
2.8278306628999998
 20
3.341316750499999
 30
0.0
  0
VERTEX
  5
835
  8
0
  6
CONTINUOUS
 62
     7
 10
2.8251305950000001
 20
3.344074663999999
 30
0.0
  0
VERTEX
  5
836
  8
0
  6
CONTINUOUS
 62
     7
 10
2.822997782799999
 20
3.3471102939999988
 30
0.0
  0
VERTEX
  5
837
  8
0
  6
CONTINUOUS
 62
     7
 10
2.8214950219000001
 20
3.3504236343999989
 30
0.0
  0
VERTEX
  5
838
  8
0
  6
CONTINUOUS
 62
     7
 10
2.820559516699999
 20
3.3540146912999989
 30
0.0
  0
VERTEX
  5
839
  8
0
  6
CONTINUOUS
 62
     7
 10
2.8202374245000001
 20
3.3576033969000001
 30
0.0
  0
VERTEX
  5
83A
  8
0
  6
CONTINUOUS
 62
     7
 10
2.820559516699999
 20
3.3611896329999991
 30
0.0
  0
VERTEX
  5
83B
  8
0
  6
CONTINUOUS
 62
     7
 10
2.8214950219000001
 20
3.3647735176999989
 30
0.0
  0
VERTEX
  5
83C
  8
0
  6
CONTINUOUS
 62
     7
 10
2.822997782799999
 20
3.3680753370000001
 30
0.0
  0
VERTEX
  5
83D
  8
0
  6
CONTINUOUS
 62
     7
 10
2.8251305950000001
 20
3.3710946155000001
 30
0.0
  0
VERTEX
  5
83E
  8
0
  6
CONTINUOUS
 62
     7
 10
2.8278306628999998
 20
3.3738318285999989
 30
0.0
  0
VERTEX
  5
83F
  8
0
  6
CONTINUOUS
 62
     7
 10
2.8308634418
 20
3.3760086876999988
 30
0.0
  0
VERTEX
  5
840
  8
0
  6
CONTINUOUS
 62
     7
 10
2.8341507502000001
 20
3.3775324303000001
 30
0.0
  0
VERTEX
  5
841
  8
0
  6
CONTINUOUS
 62
     7
 10
2.8377707696000001
 20
3.3784958188999989
 30
0.0
  0
VERTEX
  5
842
  8
0
  6
CONTINUOUS
 62
     7
 10
2.8417235000000001
 20
3.3788988536999991
 30
0.0
  0
SEQEND
  5
843
  8
0
  6
CONTINUOUS
 62
     7
  0
POLYLINE
  5
33E
  8
0
  6
CONTINUOUS
 62
     7
 66
     1
 10
0.0
 20
0.0
 30
0.0
  0
VERTEX
  5
844
  8
0
  6
CONTINUOUS
 62
     7
 10
3.3223761854
 20
1.9887651946
 30
0.0
  0
VERTEX
  5
845
  8
0
  6
CONTINUOUS
 62
     7
 10
3.3219428463999998
 20
1.9848124642
 30
0.0
  0
VERTEX
  5
846
  8
0
  6
CONTINUOUS
 62
     7
 10
3.3209517044000001
 20
1.9811924447999989
 30
0.0
  0
VERTEX
  5
847
  8
0
  6
CONTINUOUS
 62
     7
 10
3.3194027591999991
 20
1.9779051365
 30
0.0
  0
VERTEX
  5
848
  8
0
  6
CONTINUOUS
 62
     7
 10
3.317202648799999
 20
1.9748723575999989
 30
0.0
  0
VERTEX
  5
849
  8
0
  6
CONTINUOUS
 62
     7
 10
3.3144447352999991
 20
1.9721722896999989
 30
0.0
  0
VERTEX
  5
84A
  8
0
  6
CONTINUOUS
 62
     7
 10
3.3114091053000001
 20
1.970039477399999
 30
0.0
  0
VERTEX
  5
84B
  8
0
  6
CONTINUOUS
 62
     7
 10
3.3080957649
 20
1.9685367166000001
 30
0.0
  0
VERTEX
  5
84C
  8
0
  6
CONTINUOUS
 62
     7
 10
3.3045047080000001
 20
1.967601211399999
 30
0.0
  0
VERTEX
  5
84D
  8
0
  6
CONTINUOUS
 62
     7
 10
3.3009160025000002
 20
1.9672791191000001
 30
0.0
  0
VERTEX
  5
84E
  8
0
  6
CONTINUOUS
 62
     7
 10
3.2973297662999999
 20
1.967601211399999
 30
0.0
  0
VERTEX
  5
84F
  8
0
  6
CONTINUOUS
 62
     7
 10
3.2937458816
 20
1.9685367166000001
 30
0.0
  0
VERTEX
  5
850
  8
0
  6
CONTINUOUS
 62
     7
 10
3.2904440623000002
 20
1.970039477399999
 30
0.0
  0
VERTEX
  5
851
  8
0
  6
CONTINUOUS
 62
     7
 10
3.2874247838000001
 20
1.9721722896999989
 30
0.0
  0
VERTEX
  5
852
  8
0
  6
CONTINUOUS
 62
     7
 10
3.2846875708000001
 20
1.9748723575999989
 30
0.0
  0
VERTEX
  5
853
  8
0
  6
CONTINUOUS
 62
     7
 10
3.2825107116000001
 20
1.9779051365
 30
0.0
  0
VERTEX
  5
854
  8
0
  6
CONTINUOUS
 62
     7
 10
3.2809869691000002
 20
1.9811924447999989
 30
0.0
  0
VERTEX
  5
855
  8
0
  6
CONTINUOUS
 62
     7
 10
3.2800235803999991
 20
1.9848124642
 30
0.0
  0
VERTEX
  5
856
  8
0
  6
CONTINUOUS
 62
     7
 10
3.2796205455999998
 20
1.9887651946
 30
0.0
  0
SEQEND
  5
857
  8
0
  6
CONTINUOUS
 62
     7
  0
POLYLINE
  5
33F
  8
0
  6
CONTINUOUS
 62
     7
 66
     1
 10
0.0
 20
0.0
 30
0.0
  0
VERTEX
  5
858
  8
0
  6
CONTINUOUS
 62
     7
 10
3.2823514733999999
 20
1.5267482232999989
 30
0.0
  0
VERTEX
  5
859
  8
0
  6
CONTINUOUS
 62
     7
 10
3.282810406899999
 20
1.5306833034
 30
0.0
  0
VERTEX
  5
85A
  8
0
  6
CONTINUOUS
 62
     7
 10
3.2838252998000002
 20
1.5342871579999999
 30
0.0
  0
VERTEX
  5
85B
  8
0
  6
CONTINUOUS
 62
     7
 10
3.2853961522000001
 20
1.5375597874
 30
0.0
  0
VERTEX
  5
85C
  8
0
  6
CONTINUOUS
 62
     7
 10
3.2876168768
 20
1.540579023799999
 30
0.0
  0
VERTEX
  5
85D
  8
0
  6
CONTINUOUS
 62
     7
 10
3.2903935608000001
 20
1.5432670348999991
 30
0.0
  0
VERTEX
  5
85E
  8
0
  6
CONTINUOUS
 62
     7
 10
3.2934444660999991
 20
1.545390323399999
 30
0.0
  0
VERTEX
  5
85F
  8
0
  6
CONTINUOUS
 62
     7
 10
3.296769183399999
 20
1.5468863738
 30
0.0
  0
VERTEX
  5
860
  8
0
  6
CONTINUOUS
 62
     7
 10
3.3003681219000001
 20
1.5478177016000001
 30
0.0
  0
VERTEX
  5
861
  8
0
  6
CONTINUOUS
 62
     7
 10
3.3039607709999999
 20
1.548138355599999
 30
0.0
  0
VERTEX
  5
862
  8
0
  6
CONTINUOUS
 62
     7
 10
3.3075468151999998
 20
1.5478177016000001
 30
0.0
  0
VERTEX
  5
863
  8
0
  6
CONTINUOUS
 62
     7
 10
3.3111265698999999
 20
1.5468863738
 30
0.0
  0
VERTEX
  5
864
  8
0
  6
CONTINUOUS
 62
     7
 10
3.3144204712000001
 20
1.545390323399999
 30
0.0
  0
VERTEX
  5
865
  8
0
  6
CONTINUOUS
 62
     7
 10
3.3174276404
 20
1.5432670348999991
 30
0.0
  0
VERTEX
  5
866
  8
0
  6
CONTINUOUS
 62
     7
 10
3.3201489561000002
 20
1.540579023799999
 30
0.0
  0
VERTEX
  5
867
  8
0
  6
CONTINUOUS
 62
     7
 10
3.3223074897
 20
1.5375597874
 30
0.0
  0
VERTEX
  5
868
  8
0
  6
CONTINUOUS
 62
     7
 10
3.3238109316000002
 20
1.5342871579999999
 30
0.0
  0
VERTEX
  5
869
  8
0
  6
CONTINUOUS
 62
     7
 10
3.3247515914000001
 20
1.5306833034
 30
0.0
  0
VERTEX
  5
86A
  8
0
  6
CONTINUOUS
 62
     7
 10
3.3251294691000002
 20
1.5267482232999989
 30
0.0
  0
SEQEND
  5
86B
  8
0
  6
CONTINUOUS
 62
     7
  0
POLYLINE
  5
340
  8
0
  6
CONTINUOUS
 62
     7
 66
     1
 10
0.0
 20
0.0
 30
0.0
  0
VERTEX
  5
86C
  8
0
  6
CONTINUOUS
 62
     7
 10
3.3251294691000002
 20
1.5267482232999989
 30
0.0
  0
VERTEX
  5
86D
  8
0
  6
CONTINUOUS
 62
     7
 10
3.3246705356000001
 20
1.5228131433000001
 30
0.0
  0
VERTEX
  5
86E
  8
0
  6
CONTINUOUS
 62
     7
 10
3.323655642699999
 20
1.519209288699999
 30
0.0
  0
VERTEX
  5
86F
  8
0
  6
CONTINUOUS
 62
     7
 10
3.322084790299999
 20
1.515936659299999
 30
0.0
  0
VERTEX
  5
870
  8
0
  6
CONTINUOUS
 62
     7
 10
3.3198640657
 20
1.5129174229
 30
0.0
  0
VERTEX
  5
871
  8
0
  6
CONTINUOUS
 62
     7
 10
3.3170873816999991
 20
1.5102294117999999
 30
0.0
  0
VERTEX
  5
872
  8
0
  6
CONTINUOUS
 62
     7
 10
3.3140364764000001
 20
1.5081061232999999
 30
0.0
  0
VERTEX
  5
873
  8
0
  6
CONTINUOUS
 62
     7
 10
3.3107117591000002
 20
1.5066100729
 30
0.0
  0
VERTEX
  5
874
  8
0
  6
CONTINUOUS
 62
     7
 10
3.3071128206
 20
1.5056787449999991
 30
0.0
  0
VERTEX
  5
875
  8
0
  6
CONTINUOUS
 62
     7
 10
3.3035201715000002
 20
1.505358091
 30
0.0
  0
VERTEX
  5
876
  8
0
  6
CONTINUOUS
 62
     7
 10
3.2999341272999998
 20
1.5056787449999991
 30
0.0
  0
VERTEX
  5
877
  8
0
  6
CONTINUOUS
 62
     7
 10
3.2963543726000002
 20
1.5066100729
 30
0.0
  0
VERTEX
  5
878
  8
0
  6
CONTINUOUS
 62
     7
 10
3.2930604713
 20
1.5081061232999999
 30
0.0
  0
VERTEX
  5
879
  8
0
  6
CONTINUOUS
 62
     7
 10
3.2900533021
 20
1.5102294117999999
 30
0.0
  0
VERTEX
  5
87A
  8
0
  6
CONTINUOUS
 62
     7
 10
3.287331986399999
 20
1.5129174229
 30
0.0
  0
VERTEX
  5
87B
  8
0
  6
CONTINUOUS
 62
     7
 10
3.2851734528000001
 20
1.515936659299999
 30
0.0
  0
VERTEX
  5
87C
  8
0
  6
CONTINUOUS
 62
     7
 10
3.2836700108999999
 20
1.519209288699999
 30
0.0
  0
VERTEX
  5
87D
  8
0
  6
CONTINUOUS
 62
     7
 10
3.2827293510999991
 20
1.5228131433000001
 30
0.0
  0
VERTEX
  5
87E
  8
0
  6
CONTINUOUS
 62
     7
 10
3.2823514733999999
 20
1.5267482232999989
 30
0.0
  0
SEQEND
  5
87F
  8
0
  6
CONTINUOUS
 62
     7
  0
POLYLINE
  5
341
  8
0
  6
CONTINUOUS
 62
     7
 66
     1
 10
0.0
 20
0.0
 30
0.0
  0
VERTEX
  5
880
  8
0
  6
CONTINUOUS
 62
     7
 10
2.8417235000000001
 20
3.3788988536999991
 30
0.0
  0
VERTEX
  5
881
  8
0
  6
CONTINUOUS
 62
     7
 10
2.8456762304000001
 20
3.3784655147999989
 30
0.0
  0
VERTEX
  5
882
  8
0
  6
CONTINUOUS
 62
     7
 10
2.8492962497000001
 20
3.3774743727000001
 30
0.0
  0
VERTEX
  5
883
  8
0
  6
CONTINUOUS
 62
     7
 10
2.8525835581000001
 20
3.375925427599999
 30
0.0
  0
VERTEX
  5
884
  8
0
  6
CONTINUOUS
 62
     7
 10
2.8556163369999998
 20
3.373725317099999
 30
0.0
  0
VERTEX
  5
885
  8
0
  6
CONTINUOUS
 62
     7
 10
2.8583164049000001
 20
3.370967403699999
 30
0.0
  0
VERTEX
  5
886
  8
0
  6
CONTINUOUS
 62
     7
 10
2.8604492171999998
 20
3.3679317736000001
 30
0.0
  0
VERTEX
  5
887
  8
0
  6
CONTINUOUS
 62
     7
 10
2.861951978
 20
3.3646184331999991
 30
0.0
  0
VERTEX
  5
888
  8
0
  6
CONTINUOUS
 62
     7
 10
2.8628874832000002
 20
3.3610273763
 30
0.0
  0
VERTEX
  5
889
  8
0
  6
CONTINUOUS
 62
     7
 10
2.8632095753999991
 20
3.3574386707999988
 30
0.0
  0
VERTEX
  5
88A
  8
0
  6
CONTINUOUS
 62
     7
 10
2.8628874832000002
 20
3.3538524346999989
 30
0.0
  0
VERTEX
  5
88B
  8
0
  6
CONTINUOUS
 62
     7
 10
2.861951978
 20
3.3502685499
 30
0.0
  0
VERTEX
  5
88C
  8
0
  6
CONTINUOUS
 62
     7
 10
2.8604492171999998
 20
3.3469667306999988
 30
0.0
  0
VERTEX
  5
88D
  8
0
  6
CONTINUOUS
 62
     7
 10
2.8583164049000001
 20
3.3439474521000001
 30
0.0
  0
VERTEX
  5
88E
  8
0
  6
CONTINUOUS
 62
     7
 10
2.8556163369999998
 20
3.3412102391
 30
0.0
  0
VERTEX
  5
88F
  8
0
  6
CONTINUOUS
 62
     7
 10
2.8525835581000001
 20
3.3390333799
 30
0.0
  0
VERTEX
  5
890
  8
0
  6
CONTINUOUS
 62
     7
 10
2.8492962497000001
 20
3.3375096373999988
 30
0.0
  0
VERTEX
  5
891
  8
0
  6
CONTINUOUS
 62
     7
 10
2.8456762304000001
 20
3.3365462486999991
 30
0.0
  0
VERTEX
  5
892
  8
0
  6
CONTINUOUS
 62
     7
 10
2.8417235000000001
 20
3.3361432138999989
 30
0.0
  0
SEQEND
  5
893
  8
0
  6
CONTINUOUS
 62
     7
  0
LINE
  5
345
  8
0
  6
CONTINUOUS
 62
     7
 10
4.833213205499999
 20
4.8097846077000002
 30
0.0
 11
4.833213205499999
 21
0.0772267552
 31
0.0
  0
LINE
  5
346
  8
0
  6
CONTINUOUS
 62
     7
 10
4.7532619392999989
 20
4.8897358738000003
 30
0.0
 11
0.0207040869
 21
4.8897358738000003
 31
0.0
  0
POLYLINE
  5
347
  8
0
  6
CONTINUOUS
 62
     7
 66
     1
 10
0.0
 20
0.0
 30
0.0
  0
VERTEX
  5
894
  8
0
  6
CONTINUOUS
 62
     7
 10
0.0207040869
 20
4.8897358738000003
 30
0.0
  0
VERTEX
  5
895
  8
0
  6
CONTINUOUS
 62
     7
 10
0.0102612125
 20
4.8890519235000003
 30
0.0
  0
VERTEX
  5
896
  8
0
  6
CONTINUOUS
 62
     7
 10
0.0
 20
4.8870113630000001
 30
0.0
  0
VERTEX
  5
897
  8
0
  6
CONTINUOUS
 62
     7
 10
-0.0099044528
 20
4.8836497129999987
 30
0.0
  0
VERTEX
  5
898
  8
0
  6
CONTINUOUS
 62
     7
 10
-0.0192829051
 20
4.879025273399999
 30
0.0
  0
VERTEX
  5
899
  8
0
  6
CONTINUOUS
 62
     7
 10
-0.0279758297
 20
4.8732173976999986
 30
0.0
  0
VERTEX
  5
89A
  8
0
  6
CONTINUOUS
 62
     7
 10
-0.0358358316
 20
4.8663246616000002
 30
0.0
  0
VERTEX
  5
89B
  8
0
  6
CONTINUOUS
 62
     7
 10
-0.0427285963
 20
4.8584646634999986
 30
0.0
  0
VERTEX
  5
89C
  8
0
  6
CONTINUOUS
 62
     7
 10
-0.0485365089
 20
4.8497717207999989
 30
0.0
  0
VERTEX
  5
89D
  8
0
  6
CONTINUOUS
 62
     7
 10
-0.0531609792
 20
4.8403932423000002
 30
0.0
  0
VERTEX
  5
89E
  8
0
  6
CONTINUOUS
 62
     7
 10
-0.0565226503
 20
4.830488762199999
 30
0.0
  0
VERTEX
  5
89F
  8
0
  6
CONTINUOUS
 62
     7
 10
-0.0585632243
 20
4.8202275176000002
 30
0.0
  0
VERTEX
  5
8A0
  8
0
  6
CONTINUOUS
 62
     7
 10
-0.0592471792
 20
4.8097846077000002
 30
0.0
  0
SEQEND
  5
8A1
  8
0
  6
CONTINUOUS
 62
     7
  0
POLYLINE
  5
348
  8
0
  6
CONTINUOUS
 62
     7
 66
     1
 10
0.0
 20
0.0
 30
0.0
  0
VERTEX
  5
8A2
  8
0
  6
CONTINUOUS
 62
     7
 10
4.7532619392999989
 20
4.8897358738000003
 30
0.0
  0
VERTEX
  5
8A3
  8
0
  6
CONTINUOUS
 62
     7
 10
4.7637048137999987
 20
4.8890519235000003
 30
0.0
  0
VERTEX
  5
8A4
  8
0
  6
CONTINUOUS
 62
     7
 10
4.7739660263000001
 20
4.8870113630000001
 30
0.0
  0
VERTEX
  5
8A5
  8
0
  6
CONTINUOUS
 62
     7
 10
4.7838704790999991
 20
4.8836497129999987
 30
0.0
  0
VERTEX
  5
8A6
  8
0
  6
CONTINUOUS
 62
     7
 10
4.7932489312999991
 20
4.879025273399999
 30
0.0
  0
VERTEX
  5
8A7
  8
0
  6
CONTINUOUS
 62
     7
 10
4.8019418559
 20
4.8732173976999986
 30
0.0
  0
VERTEX
  5
8A8
  8
0
  6
CONTINUOUS
 62
     7
 10
4.8098018577999992
 20
4.8663246616000002
 30
0.0
  0
VERTEX
  5
8A9
  8
0
  6
CONTINUOUS
 62
     7
 10
4.8166946225
 20
4.8584646634999986
 30
0.0
  0
VERTEX
  5
8AA
  8
0
  6
CONTINUOUS
 62
     7
 10
4.822502535099999
 20
4.8497717207999989
 30
0.0
  0
VERTEX
  5
8AB
  8
0
  6
CONTINUOUS
 62
     7
 10
4.8271270053999986
 20
4.8403932423000002
 30
0.0
  0
VERTEX
  5
8AC
  8
0
  6
CONTINUOUS
 62
     7
 10
4.830488676499999
 20
4.830488762199999
 30
0.0
  0
VERTEX
  5
8AD
  8
0
  6
CONTINUOUS
 62
     7
 10
4.8325292504999986
 20
4.8202275176000002
 30
0.0
  0
VERTEX
  5
8AE
  8
0
  6
CONTINUOUS
 62
     7
 10
4.833213205499999
 20
4.8097846077000002
 30
0.0
  0
SEQEND
  5
8AF
  8
0
  6
CONTINUOUS
 62
     7
  0
ARC
  5
349
  8
0
  6
CONTINUOUS
 62
     7
 10
0.8229830130999999
 20
4.0075056814999996
 30
0.0
 40
0.0619514435
 50
90.0
 51
180.0
  0
ARC
  5
34A
  8
0
  6
CONTINUOUS
 62
     7
 10
3.9509830131000001
 20
4.0075056814999996
 30
0.0
 40
0.0619514435
 50
0.0
 51
90.0
  0
ARC
  5
34B
  8
0
  6
CONTINUOUS
 62
     7
 10
3.9509830131000001
 20
0.8795056814999998
 30
0.0
 40
0.0619514435
 50
270.0
 51
0.0
  0
ARC
  5
34C
  8
0
  6
CONTINUOUS
 62
     7
 10
0.8229830130999999
 20
0.8795056814999998
 30
0.0
 40
0.0619514435
 50
180.0
 51
270.0
  0
CIRCLE
  5
363
  8
0
  6
CONTINUOUS
 62
     7
 10
3.2869830130999991
 20
1.993505681499999
 30
0.0
 40
0.0968305727
  0
CIRCLE
  5
364
  8
0
  6
CONTINUOUS
 62
     7
 10
3.2869830130999991
 20
2.4435056815
 30
0.0
 40
0.0968305727
  0
CIRCLE
  5
365
  8
0
  6
CONTINUOUS
 62
     7
 10
3.2869830130999991
 20
2.8935056814999989
 30
0.0
 40
0.0968305727
  0
CIRCLE
  5
366
  8
0
  6
CONTINUOUS
 62
     7
 10
3.2869830130999991
 20
3.343505681499999
 30
0.0
 40
0.0968305727
  0
CIRCLE
  5
367
  8
0
  6
CONTINUOUS
 62
     7
 10
1.4869830130999999
 20
1.5435056814999999
 30
0.0
 40
0.0968305727
  0
CIRCLE
  5
368
  8
0
  6
CONTINUOUS
 62
     7
 10
1.936983013099999
 20
1.5435056814999999
 30
0.0
 40
0.0968305727
  0
CIRCLE
  5
369
  8
0
  6
CONTINUOUS
 62
     7
 10
1.4869830130999999
 20
3.343505681499999
 30
0.0
 40
0.0968305727
  0
CIRCLE
  5
36A
  8
0
  6
CONTINUOUS
 62
     7
 10
2.3869830131000001
 20
1.5435056814999999
 30
0.0
 40
0.0968305727
  0
CIRCLE
  5
36B
  8
0
  6
CONTINUOUS
 62
     7
 10
2.8369830130999998
 20
1.5435056814999999
 30
0.0
 40
0.0968305727
  0
CIRCLE
  5
36C
  8
0
  6
CONTINUOUS
 62
     7
 10
1.936983013099999
 20
3.343505681499999
 30
0.0
 40
0.0968305727
  0
CIRCLE
  5
36D
  8
0
  6
CONTINUOUS
 62
     7
 10
3.2869830130999991
 20
1.5435056814999999
 30
0.0
 40
0.0968305727
  0
CIRCLE
  5
36E
  8
0
  6
CONTINUOUS
 62
     7
 10
1.4869830130999999
 20
2.8935056814999989
 30
0.0
 40
0.0968305727
  0
CIRCLE
  5
36F
  8
0
  6
CONTINUOUS
 62
     7
 10
1.936983013099999
 20
2.8935056814999989
 30
0.0
 40
0.0968305727
  0
CIRCLE
  5
370
  8
0
  6
CONTINUOUS
 62
     7
 10
2.3869830131000001
 20
2.8935056814999989
 30
0.0
 40
0.0968305727
  0
CIRCLE
  5
371
  8
0
  6
CONTINUOUS
 62
     7
 10
2.3869830131000001
 20
3.343505681499999
 30
0.0
 40
0.0968305727
  0
CIRCLE
  5
372
  8
0
  6
CONTINUOUS
 62
     7
 10
1.4869830130999999
 20
2.4435056815
 30
0.0
 40
0.0968305727
  0
CIRCLE
  5
373
  8
0
  6
CONTINUOUS
 62
     7
 10
2.8369830130999998
 20
2.8935056814999989
 30
0.0
 40
0.0968305727
  0
CIRCLE
  5
374
  8
0
  6
CONTINUOUS
 62
     7
 10
2.8369830130999998
 20
3.343505681499999
 30
0.0
 40
0.0968305727
  0
CIRCLE
  5
375
  8
0
  6
CONTINUOUS
 62
     7
 10
1.4869830130999999
 20
1.993505681499999
 30
0.0
 40
0.0968305727
  0
CIRCLE
  5
376
  8
0
  6
CONTINUOUS
 62
     7
 10
1.936983013099999
 20
1.993505681499999
 30
0.0
 40
0.0968305727
  0
CIRCLE
  5
377
  8
0
  6
CONTINUOUS
 62
     7
 10
2.3869830131000001
 20
1.993505681499999
 30
0.0
 40
0.0968305727
  0
CIRCLE
  5
378
  8
0
  6
CONTINUOUS
 62
     7
 10
2.8369830130999998
 20
1.993505681499999
 30
0.0
 40
0.0968305727
  0
ATTDEF
  5
37F
  8
0
 10
0.0
 20
0.0
 30
0.0
 40
0.001
  1
K-8003
 41
0.8
  3

  2
MODELNUMBER
 70
     8
  0
ATTDEF
  5
380
  8
0
 10
0.0
 20
-0.0016666666666667
 30
0.0
 40
0.001
  1
WATERTILE
 41
0.8
  3

  2
TRADENAME
 70
     8
  0
ATTDEF
  5
381
  8
0
 10
0.0
 20
-0.0033333333333333
 30
0.0
 40
0.001
  1
BODYSPRAY
 41
0.8
  3

  2
PRODUCT
 70
     8
  0
ATTDEF
  5
382
  8
0
 10
0.0
 20
-0.005
 30
0.0
 40
0.001
  1
BRASS
 41
0.8
  3

  2
MATERIAL
 70
     8
  0
ENDSEC
  0
EOF
