  0
SECTION
  2
HEADER
  9
$ACADVER
  1
AC1021
  9
$ACADMAINTVER
 70
    50
  9
$DWGCODEPAGE
  3
ANSI_936
  9
$LASTSAVEDBY
  1
ko69185
  9
$CUSTOMPROPERTYTAG
  1
AmdtFileType
  9
$CUSTOMPROPERTY
  1
84
  9
$INSBASE
 10
0.0
 20
0.0
 30
0.0
  9
$EXTMIN
 10
27.3602923533446
 20
16.26949460327247
 30
0.0
  9
$EXTMAX
 10
28.2917687312446
 20
21.09771901277247
 30
0.0
  9
$LIMMIN
 10
0.0
 20
0.0
  9
$LIMMAX
 10
17.0
 20
11.0
  9
$ORTHOMODE
 70
     0
  9
$REGENMODE
 70
     1
  9
$FILLMODE
 70
     1
  9
$QTEXTMODE
 70
     0
  9
$MIRRTEXT
 70
     1
  9
$LTSCALE
 40
1.0
  9
$ATTMODE
 70
     1
  9
$TEXTSIZE
 40
0.2
  9
$TRACEWID
 40
0.05
  9
$TEXTSTYLE
  7
STANDARD
  9
$CLAYER
  8
0
  9
$CELTYPE
  6
ByLayer
  9
$CECOLOR
 62
   256
  9
$CELTSCALE
 40
1.0
  9
$DISPSILH
 70
     0
  9
$DIMSCALE
 40
1.0
  9
$DIMASZ
 40
0.12
  9
$DIMEXO
 40
0.05
  9
$DIMDLI
 40
0.5
  9
$DIMRND
 40
0.0
  9
$DIMDLE
 40
0.0
  9
$DIMEXE
 40
0.1
  9
$DIMTP
 40
0.1
  9
$DIMTM
 40
0.1
  9
$DIMTXT
 40
0.12
  9
$DIMCEN
 40
0.0
  9
$DIMTSZ
 40
0.0
  9
$DIMTOL
 70
     0
  9
$DIMLIM
 70
     0
  9
$DIMTIH
 70
     1
  9
$DIMTOH
 70
     1
  9
$DIMSE1
 70
     0
  9
$DIMSE2
 70
     0
  9
$DIMTAD
 70
     0
  9
$DIMZIN
 70
     7
  9
$DIMBLK
  1

  9
$DIMASO
 70
     1
  9
$DIMSHO
 70
     1
  9
$DIMPOST
  1

  9
$DIMAPOST
  1
mm
  9
$DIMALT
 70
     0
  9
$DIMALTD
 70
     2
  9
$DIMALTF
 40
25.4
  9
$DIMLFAC
 40
1.0
  9
$DIMTOFL
 70
     0
  9
$DIMTVP
 40
0.0
  9
$DIMTIX
 70
     0
  9
$DIMSOXD
 70
     0
  9
$DIMSAH
 70
     0
  9
$DIMBLK1
  1

  9
$DIMBLK2
  1

  9
$DIMSTYLE
  2
AM_ANSI
  9
$DIMCLRD
 70
   256
  9
$DIMCLRE
 70
   256
  9
$DIMCLRT
 70
   140
  9
$DIMTFAC
 40
0.71
  9
$DIMGAP
 40
0.06
  9
$DIMJUST
 70
     0
  9
$DIMSD1
 70
     0
  9
$DIMSD2
 70
     0
  9
$DIMTOLJ
 70
     1
  9
$DIMTZIN
 70
     7
  9
$DIMALTZ
 70
     0
  9
$DIMALTTZ
 70
     0
  9
$DIMUPT
 70
     0
  9
$DIMDEC
 70
     4
  9
$DIMTDEC
 70
     4
  9
$DIMALTU
 70
     2
  9
$DIMALTTD
 70
     4
  9
$DIMTXSTY
  7
STANDARD
  9
$DIMAUNIT
 70
     0
  9
$DIMADEC
 70
     0
  9
$DIMALTRND
 40
0.0
  9
$DIMAZIN
 70
     2
  9
$DIMDSEP
 70
    46
  9
$DIMATFIT
 70
     3
  9
$DIMFRAC
 70
     0
  9
$DIMLDRBLK
  1

  9
$DIMLUNIT
 70
     2
  9
$DIMLWD
 70
    -1
  9
$DIMLWE
 70
    -1
  9
$DIMTMOVE
 70
     0
  9
$DIMFXL
 40
1.0
  9
$DIMFXLON
 70
     0
  9
$DIMJOGANG
 40
0.7853981633974483
  9
$DIMTFILL
 70
     0
  9
$DIMTFILLCLR
 70
     0
  9
$DIMARCSYM
 70
     1
  9
$DIMLTYPE
  6
ByBlock
  9
$DIMLTEX1
  6
ByBlock
  9
$DIMLTEX2
  6
ByBlock
  9
$LUNITS
 70
     2
  9
$LUPREC
 70
     4
  9
$SKETCHINC
 40
0.1
  9
$FILLETRAD
 40
0.125
  9
$AUNITS
 70
     0
  9
$AUPREC
 70
     0
  9
$MENU
  1
.
  9
$ELEVATION
 40
0.0
  9
$PELEVATION
 40
0.0
  9
$THICKNESS
 40
0.0
  9
$LIMCHECK
 70
     0
  9
$CHAMFERA
 40
0.125
  9
$CHAMFERB
 40
0.125
  9
$CHAMFERC
 40
1.0
  9
$CHAMFERD
 40
0.0
  9
$SKPOLY
 70
     0
  9
$TDCREATE
 40
2455324.660835058
  9
$TDUCREATE
 40
2455324.327501724
  9
$TDUPDATE
 40
2455324.661100497
  9
$TDUUPDATE
 40
2455324.327767165
  9
$TDINDWG
 40
0.0002659838
  9
$TDUSRTIMER
 40
0.0002657986
  9
$USRTIMER
 70
     1
  9
$ANGBASE
 50
0.0
  9
$ANGDIR
 70
     0
  9
$PDMODE
 70
     0
  9
$PDSIZE
 40
0.0
  9
$PLINEWID
 40
0.0
  9
$SPLFRAME
 70
     0
  9
$SPLINETYPE
 70
     6
  9
$SPLINESEGS
 70
     8
  9
$HANDSEED
  5
896
  9
$SURFTAB1
 70
     6
  9
$SURFTAB2
 70
     6
  9
$SURFTYPE
 70
     6
  9
$SURFU
 70
     6
  9
$SURFV
 70
     6
  9
$UCSBASE
  2

  9
$UCSNAME
  2

  9
$UCSORG
 10
0.0
 20
0.0
 30
0.0
  9
$UCSXDIR
 10
1.0
 20
0.0
 30
0.0
  9
$UCSYDIR
 10
0.0
 20
1.0
 30
0.0
  9
$UCSORTHOREF
  2

  9
$UCSORTHOVIEW
 70
     0
  9
$UCSORGTOP
 10
0.0
 20
0.0
 30
0.0
  9
$UCSORGBOTTOM
 10
0.0
 20
0.0
 30
0.0
  9
$UCSORGLEFT
 10
0.0
 20
0.0
 30
0.0
  9
$UCSORGRIGHT
 10
0.0
 20
0.0
 30
0.0
  9
$UCSORGFRONT
 10
0.0
 20
0.0
 30
0.0
  9
$UCSORGBACK
 10
0.0
 20
0.0
 30
0.0
  9
$PUCSBASE
  2

  9
$PUCSNAME
  2

  9
$PUCSORG
 10
0.0
 20
0.0
 30
0.0
  9
$PUCSXDIR
 10
1.0
 20
0.0
 30
0.0
  9
$PUCSYDIR
 10
0.0
 20
1.0
 30
0.0
  9
$PUCSORTHOREF
  2

  9
$PUCSORTHOVIEW
 70
     0
  9
$PUCSORGTOP
 10
0.0
 20
0.0
 30
0.0
  9
$PUCSORGBOTTOM
 10
0.0
 20
0.0
 30
0.0
  9
$PUCSORGLEFT
 10
0.0
 20
0.0
 30
0.0
  9
$PUCSORGRIGHT
 10
0.0
 20
0.0
 30
0.0
  9
$PUCSORGFRONT
 10
0.0
 20
0.0
 30
0.0
  9
$PUCSORGBACK
 10
0.0
 20
0.0
 30
0.0
  9
$USERI1
 70
     0
  9
$USERI2
 70
     0
  9
$USERI3
 70
     0
  9
$USERI4
 70
     0
  9
$USERI5
 70
     0
  9
$USERR1
 40
0.0
  9
$USERR2
 40
0.0
  9
$USERR3
 40
0.0
  9
$USERR4
 40
0.0
  9
$USERR5
 40
0.0
  9
$WORLDVIEW
 70
     1
  9
$SHADEDGE
 70
     3
  9
$SHADEDIF
 70
    70
  9
$TILEMODE
 70
     1
  9
$MAXACTVP
 70
    64
  9
$PINSBASE
 10
0.0
 20
0.0
 30
0.0
  9
$PLIMCHECK
 70
     0
  9
$PEXTMIN
 10
1.000000000000000E+20
 20
1.000000000000000E+20
 30
1.000000000000000E+20
  9
$PEXTMAX
 10
-1.000000000000000E+20
 20
-1.000000000000000E+20
 30
-1.000000000000000E+20
  9
$PLIMMIN
 10
0.0
 20
0.0
  9
$PLIMMAX
 10
12.0
 20
9.0
  9
$UNITMODE
 70
     0
  9
$VISRETAIN
 70
     1
  9
$PLINEGEN
 70
     0
  9
$PSLTSCALE
 70
     1
  9
$TREEDEPTH
 70
  3020
  9
$CMLSTYLE
  2
Standard
  9
$CMLJUST
 70
     0
  9
$CMLSCALE
 40
1.0
  9
$PROXYGRAPHICS
 70
     1
  9
$MEASUREMENT
 70
     0
  9
$CELWEIGHT
370
    -1
  9
$ENDCAPS
280
     0
  9
$JOINSTYLE
280
     0
  9
$LWDISPLAY
290
     0
  9
$INSUNITS
 70
     1
  9
$HYPERLINKBASE
  1

  9
$STYLESHEET
  1

  9
$XEDIT
290
     1
  9
$CEPSNTYPE
380
     0
  9
$PSTYLEMODE
290
     1
  9
$FINGERPRINTGUID
  2
{D89CC219-A37A-4A4E-B7C9-E5F1EA59D199}
  9
$VERSIONGUID
  2
{25B91D57-5914-43F7-BF3A-04D843A369E7}
  9
$EXTNAMES
290
     1
  9
$PSVPSCALE
 40
0.0
  9
$OLESTARTUP
290
     0
  9
$SORTENTS
280
   127
  9
$INDEXCTL
280
     0
  9
$HIDETEXT
280
     0
  9
$XCLIPFRAME
290
     0
  9
$HALOGAP
280
     0
  9
$OBSCOLOR
 70
   257
  9
$OBSLTYPE
280
     0
  9
$INTERSECTIONDISPLAY
280
     0
  9
$INTERSECTIONCOLOR
 70
   257
  9
$DIMASSOC
280
     2
  9
$PROJECTNAME
  1

  9
$CAMERADISPLAY
290
     0
  9
$LENSLENGTH
 40
50.0
  9
$CAMERAHEIGHT
 40
0.0
  9
$STEPSPERSEC
 40
2.0
  9
$STEPSIZE
 40
6.0
  9
$3DDWFPREC
 40
2.0
  9
$PSOLWIDTH
 40
0.25
  9
$PSOLHEIGHT
 40
4.0
  9
$LOFTANG1
 40
1.570796326794896
  9
$LOFTANG2
 40
1.570796326794896
  9
$LOFTMAG1
 40
0.0
  9
$LOFTMAG2
 40
0.0
  9
$LOFTPARAM
 70
     7
  9
$LOFTNORMALS
280
     1
  9
$LATITUDE
 40
37.795
  9
$LONGITUDE
 40
-122.394
  9
$NORTHDIRECTION
 40
0.0
  9
$TIMEZONE
 70
 -8000
  9
$LIGHTGLYPHDISPLAY
280
     1
  9
$TILEMODELIGHTSYNCH
280
     1
  9
$CMATERIAL
347
293
  9
$SOLIDHIST
280
     1
  9
$SHOWHIST
280
     1
  9
$DWFFRAME
280
     2
  9
$DGNFRAME
280
     0
  9
$REALWORLDSCALE
290
     1
  9
$INTERFERECOLOR
 62
     1
  9
$INTERFEREOBJVS
345
2A0
  9
$INTERFEREVPVS
346
29D
  9
$CSHADOW
280
     0
  9
$SHADOWPLANELOCATION
 40
0.0
  0
ENDSEC
  0
SECTION
  2
CLASSES
  0
CLASS
  1
ACDBDICTIONARYWDFLT
  2
AcDbDictionaryWithDefault
  3
ObjectDBX Classes
 90
        0
 91
        1
280
     0
281
     0
  0
CLASS
  1
ACME_DOCUMENT
  2
AcMeDbDoc
  3
AcMeServices
 90
     1024
 91
        2
280
     0
281
     0
  0
CLASS
  1
AMGSETTINGSOBJ
  2
AmgSettingsObj
  3
"AcadM|Product Description: AutoCAD Mechanical|Company: Autodesk, Inc."
 90
     1024
 91
        4
280
     0
281
     0
  0
CLASS
  1
ACMESCOPE
  2
AcMeScope
  3
AcMeServices
 90
     1024
 91
        1
280
     0
281
     0
  0
CLASS
  1
ACMECOMMANDHISTORY
  2
AcMeCommandHistory
  3
AcMeServices
 90
     1024
 91
        1
280
     0
281
     0
  0
CLASS
  1
ACIMSYSVARMAN
  2
AcImSysVarManager
  3
AcMeServices
 90
     1024
 91
        5
280
     0
281
     0
  0
CLASS
  1
ACIMREALSYSVAR
  2
AcImRealSysVar
  3
AcMeServices
 90
     1024
 91
        3
280
     0
281
     0
  0
CLASS
  1
ACIMINTSYSVAR
  2
AcImIntSysVar
  3
AcMeServices
 90
     1024
 91
       27
280
     0
281
     0
  0
CLASS
  1
ACMEDRAWINGMAN
  2
AcMeDrawingMan
  3
AcMeServices
 90
     1024
 91
        1
280
     0
281
     0
  0
CLASS
  1
ACMEVIEW
  2
AcMeView
  3
AcMeServices
 90
     1024
 91
        1
280
     0
281
     0
  0
CLASS
  1
ACDBENTITYCACHE
  2
AcMeEntityCache
  3
AcMeServices
 90
     1024
 91
        1
280
     0
281
     0
  0
CLASS
  1
GSMANAGER
  2
AcMeGSManager
  3
AcMeServices
 90
     1024
 91
        1
280
     0
281
     0
  0
CLASS
  1
AMDTINTERNALREACTOR
  2
AmdtInternalReactor
  3
AcMeServices
 90
     1024
 91
        2
280
     0
281
     0
  0
CLASS
  1
ACMESTATEMGR
  2
AcMeStateMgr
  3
AcMeServices
 90
     1024
 91
        1
280
     0
281
     0
  0
CLASS
  1
ACGREFMASTER
  2
AcGrefMaster
  3
AcAttribServices
 90
     1024
 91
        1
280
     0
281
     0
  0
CLASS
  1
ACME_DATABASE
  2
AcMeDbDatabase
  3
AcMeServices
 90
     1024
 91
        2
280
     0
281
     0
  0
CLASS
  1
ACRFINSADJUSTERMGR
  2
AcRfInsAdjusterMgr
  3
AcMeServices
 90
     1024
 91
        1
280
     0
281
     0
  0
CLASS
  1
ACGREFACADMASTER
  2
AcGrefacadMaster
  3
AcGrefServices
 90
     1024
 91
        1
280
     0
281
     0
  0
CLASS
  1
AMIMASTER
  2
AmiMaster
  3
AmiServices
 90
     1024
 91
        1
280
     0
281
     0
  0
CLASS
  1
ACMDATADICTIONARY
  2
AcmDataDictionary
  3
"AcmSymBB|Product Description: AutoCAD Mechanical|Company: Autodesk, Inc."
 90
     1024
 91
        1
280
     0
281
     0
  0
CLASS
  1
ACMDATAENTRYBLOCK
  2
AcmDataEntryBlock
  3
AcmSymBB|Product Description: AutoCAD Mechanical|Company: Autodesk, Inc.
 90
     1024
 91
        1
280
     0
281
     0
  0
CLASS
  1
ACIMSTRSYSVAR
  2
AcImStrSysVar
  3
AcMeServices
 90
     1024
 91
        5
280
     0
281
     0
  0
CLASS
  1
ACMSTANDARDANSI
  2
AcmStandardANSI
  3
"Amdt_StdImp|Product Description: AutoCAD Mechanical|Company: Autodesk, Inc."
 90
     1024
 91
        1
280
     0
281
     0
  0
CLASS
  1
AMGOBJPROPCFG
  2
AmgObjPropCfg
  3
"AmgLay|Product Description: AutoCAD Mechanical|Company: Autodesk, Inc."
 90
     1025
 91
        1
280
     0
281
     0
  0
CLASS
  1
ACMSURFSTANDARDANSI
  2
AcmSurfTextStdANSI
  3
"Amdt_StdImp|Product Description: AutoCAD Mechanical|Company: Autodesk, Inc."
 90
     1024
 91
        1
280
     0
281
     0
  0
CLASS
  1
ACMFCFSTANDARDANSI
  2
AcmFCFStdANSI
  3
"Amdt_StdImp|Product Description: AutoCAD Mechanical|Company: Autodesk, Inc."
 90
     1024
 91
        1
280
     0
281
     0
  0
CLASS
  1
ACMWELDSTANDARDANSI
  2
AcmWeldingStdANSI
  3
"Amdt_StdImp|Product Description: AutoCAD Mechanical|Company: Autodesk, Inc."
 90
     1024
 91
        1
280
     0
281
     0
  0
CLASS
  1
ACMIDSTANDARDANSI
  2
AcmIdStdANSI
  3
"Amdt_StdImp|Product Description: AutoCAD Mechanical|Company: Autodesk, Inc."
 90
     1024
 91
        1
280
     0
281
     0
  0
CLASS
  1
ACMDATUMSTANDARDANSI
  2
AcmDatumStdANSI
  3
"Amdt_StdImp|Product Description: AutoCAD Mechanical|Company: Autodesk, Inc."
 90
     1024
 91
        1
280
     0
281
     0
  0
CLASS
  1
ACMBOMSTANDARDANSI
  2
AcmBOMStdANSI
  3
"Amdt_StdImp|Product Description: AutoCAD Mechanical|Company: Autodesk, Inc."
 90
     1024
 91
        1
280
     0
281
     0
  0
CLASS
  1
ACMDETAILSTANDARDANSI
  2
AmdtDetailSymStdANSI
  3
"Amdt_StdImp|Product Description: AutoCAD Mechanical|Company: Autodesk, Inc."
 90
     1024
 91
        1
280
     0
281
     0
  0
CLASS
  1
ACMSECTIONSTANDARDANSI
  2
AmdtSectionSymStdANSI
  3
"Amdt_StdImp|Product Description: AutoCAD Mechanical|Company: Autodesk, Inc."
 90
     1024
 91
        1
280
     0
281
     0
  0
CLASS
  1
ACMCENTERLINESTANDARDANSI
  2
AmdtCenterLineStdANSI
  3
"Amdt_StdImp|Product Description: AutoCAD Mechanical|Company: Autodesk, Inc."
 90
     1024
 91
        1
280
     0
281
     0
  0
CLASS
  1
ACMNOTESTANDARDANSI
  2
AmdtNoteStdANSI
  3
"Amdt_StdImp|Product Description: AutoCAD Mechanical|Company: Autodesk, Inc."
 90
     1024
 91
        1
280
     0
281
     0
  0
CLASS
  1
ACAMGLAYSTD
  2
AcAmgLayStd
  3
"AmgLay|Product Description: AutoCAD Mechanical|Company: Autodesk, Inc."
 90
     1024
 91
        1
280
     0
281
     0
  0
CLASS
  1
ACAMGDIMSTD
  2
AcAmgDimStd
  3
"AmgDim|Product Description: AutoCAD Mechanical|Company: Autodesk, Inc."
 90
     1024
 91
        1
280
     0
281
     0
  0
CLASS
  1
ACAMGHOLECHARTSTDANSI
  2
AcAmgHoleChartStdANSI
  3
AmgDim|Product Description: AutoCAD Mechanical|Company: Autodesk, Inc.
 90
     1024
 91
        1
280
     0
281
     0
  0
CLASS
  1
ACAMGTITLESTD
  2
AcAmgTitleStd
  3
"AmgTitle|Product Description: AutoCAD Mechanical|Company: Autodesk, Inc."
 90
     4095
 91
        1
280
     0
281
     0
  0
CLASS
  1
LAYER_INDEX
  2
AcDbLayerIndex
  3
ObjectDBX Classes
 90
        0
 91
        0
280
     0
281
     0
  0
CLASS
  1
IDBUFFER
  2
AcDbIdBuffer
  3
ObjectDBX Classes
 90
        0
 91
        0
280
     0
281
     0
  0
CLASS
  1
DICTIONARYVAR
  2
AcDbDictionaryVar
  3
ObjectDBX Classes
 90
        0
 91
        9
280
     0
281
     0
  0
CLASS
  1
AM_DRAWING_MGR
  2
AcDmDwgMgr
  3
AcMechDwgViewMgmt
 90
     1024
 91
        1
280
     0
281
     0
  0
CLASS
  1
AM_DWG_DOCUMENT
  2
AcDmDwgDocument
  3
AcMechDwgViewMgmt
 90
     1024
 91
        1
280
     0
281
     0
  0
CLASS
  1
AM_DWG_SHEET
  2
AcDmSheet
  3
AcMechDwgViewMgmt
 90
     1024
 91
        2
280
     0
281
     0
  0
CLASS
  1
AM_VIEWDIMPARMAP
  2
AcDmViewDimParMap
  3
AcMechDwgViewMgmt
 90
     1024
 91
        2
280
     0
281
     0
  0
CLASS
  1
AM_DWGMGR_NAME
  2
AcDmDwgMgrName
  3
AcMechDwgViewMgmt
 90
     1024
 91
        1
280
     0
281
     0
  0
CLASS
  1
AMDTMENUSTATEMGR
  2
AmdtMenuStateMgr
  3
McadcomServices
 90
     1024
 91
        1
280
     0
281
     0
  0
CLASS
  1
AMDTMCOMMENUSTATE
  2
AmdtMcomMenuState
  3
McadcomServices
 90
     1024
 91
        1
280
     0
281
     0
  0
CLASS
  1
MAPIAMMOUDLE
  2
MApiAmModule
  3
MApiAmServices
 90
     1024
 91
        1
280
     0
281
     0
  0
CLASS
  1
AMDTADMENUSTATE
  2
AmdtAdMenuState
  3
DesignerServices
 90
     1024
 91
        1
280
     0
281
     0
  0
CLASS
  1
ADAPPL
  2
AcAdAppl
  3
DesignerServices
 90
     1024
 91
        1
280
     0
281
     0
  0
CLASS
  1
DEPMGR
  2
AcAdDepMgr
  3
DesignerServices
 90
     1024
 91
        1
280
     0
281
     0
  0
CLASS
  1
PARAMMGR
  2
AcAdParamMgr
  3
DesignerServices
 90
     1024
 91
        1
280
     0
281
     0
  0
CLASS
  1
PARAMSCOPE
  2
AcAdParamScope
  3
DesignerServices
 90
     1024
 91
        1
280
     0
281
     0
  0
CLASS
  1
NAMEDAPPL
  2
AcAdNamedAppl
  3
DesignerServices
 90
     1024
 91
        1
280
     0
281
     0
  0
CLASS
  1
AMDTDMMENUSTATE
  2
AmdtDmMenuState
  3
AcMechDwgViewMgmt
 90
     1024
 91
        1
280
     0
281
     0
  0
CLASS
  1
AMDTAMMENUSTATE
  2
AmdtAmMenuState
  3
DesignerAssemblies
 90
     1024
 91
        1
280
     0
281
     0
  0
CLASS
  1
ACAMPROJECT
  2
AcAmProject
  3
DesignerAssemblies
 90
     1024
 91
        1
280
     0
281
     0
  0
CLASS
  1
ACAMGRCOMPDEF
  2
AcAmGrCompDef
  3
DesignerAssemblies
 90
     1024
 91
        1
280
     0
281
     0
  0
CLASS
  1
ACCMCONTEXT
  2
AcCmContext
  3
DesignerAssemblies
 90
     1024
 91
        1
280
     0
281
     0
  0
CLASS
  1
ACAMCOMPDEF
  2
AcAmCompDef
  3
DesignerAssemblies
 90
     1024
 91
        1
280
     0
281
     0
  0
CLASS
  1
ACAMCOMPDEFMGR
  2
AcAmCompDefMgr
  3
DesignerAssemblies
 90
     1024
 91
        1
280
     0
281
     0
  0
CLASS
  1
AMCONTEXTMGR
  2
AcAmContextMgr
  3
DesignerAssemblies
 90
     1024
 91
        1
280
     0
281
     0
  0
CLASS
  1
ACAMCONTEXTMODELER
  2
AcAmContextModeler
  3
DesignerAssemblies
 90
     1024
 91
        1
280
     0
281
     0
  0
CLASS
  1
ACMTHREADLINESTANDARDANSI
  2
AmdtThreadLineStdANSI
  3
"Amdt_StdImp|Product Description: AutoCAD Mechanical|Company: Autodesk, Inc."
 90
     1024
 91
        1
280
     0
281
     0
  0
CLASS
  1
CATALOGSTATE
  2
AcAmCatalogState
  3
DesignerAssemblies
 90
     1024
 91
        1
280
     0
281
     0
  0
CLASS
  1
ACAMGRCOMPDEFSET
  2
AcAmGrCompDefSet
  3
DesignerAssemblies
 90
     1024
 91
        1
280
     0
281
     0
  0
CLASS
  1
AMDTBROWSERDBTAB
  2
AmdtBrowserDbTab
  3
McadcomServices
 90
     1024
 91
        1
280
     0
281
     0
  0
CLASS
  1
CBROWSERAPPOBJECT
  2
CBrowserAppObject
  3
McadcomServices
 90
     1024
 91
        3
280
     0
281
     0
  0
CLASS
  1
DM_PLACEHOLDER
  2
AcDmSelsetPlaceholder
  3
AcMechDwgViewMgmt
 90
     1024
 91
        1
280
     0
281
     0
  0
CLASS
  1
TABLESTYLE
  2
AcDbTableStyle
  3
ObjectDBX Classes
 90
     4095
 91
        1
280
     0
281
     0
  0
CLASS
  1
AMDTNOTETEMPLATEDB
  2
AmdtNoteTemplateDB
  3
AcmSymBB|Product Description: AutoCAD Mechanical|Company: Autodesk, Inc.
 90
     1024
 91
        6
280
     0
281
     0
  0
CLASS
  1
MATERIAL
  2
AcDbMaterial
  3
ObjectDBX Classes
 90
     1153
 91
        3
280
     0
281
     0
  0
CLASS
  1
VISUALSTYLE
  2
AcDbVisualStyle
  3
ObjectDBX Classes
 90
     4095
 91
       16
280
     0
281
     0
  0
CLASS
  1
ACRFATTGENMGR
  2
AcRfAttGeneralMgr
  3
AcAttribServices
 90
     1024
 91
        1
280
     0
281
     0
  0
CLASS
  1
ACRFOBJATTMGR
  2
AcRfObjAttGroupMgr
  3
AcAttribServices
 90
     1024
 91
        1
280
     0
281
     0
  0
CLASS
  1
ACRFMCADAPIATTHOLDER
  2
AcRfMCADAPIAttHolder
  3
AcAttribServices
 90
     1024
 91
        1
280
     0
281
     0
  0
CLASS
  1
AMDTSYSATTR
  2
AmdtSystemAttribute
  3
AcAttribServices
 90
     1024
 91
        1
280
     0
281
     0
  0
CLASS
  1
ACMTAPERSTANDARDANSI
  2
AcmTaperStdANSI
  3
"Amdt_StdImp|Product Description: AutoCAD Mechanical|Company: Autodesk, Inc."
 90
     1024
 91
        1
280
     0
281
     0
  0
CLASS
  1
CAMSSTRUCTBTNSTATE
  2
StructBtnState
  3
DesignerAssemblies
 90
     1024
 91
        1
280
     0
281
     0
  0
CLASS
  1
SCALE
  2
AcDbScale
  3
ObjectDBX Classes
 90
     1153
 91
       33
280
     0
281
     0
  0
CLASS
  1
MLEADERSTYLE
  2
AcDbMLeaderStyle
  3
ACDB_MLEADERSTYLE_CLASS
 90
     4095
 91
        1
280
     0
281
     0
  0
CLASS
  1
ACMANOOTATIONVIEWSTANDARDANSI
  2
AmdtAnViewStdANSI
  3
"Amdt_StdImp|Product Description: AutoCAD Mechanical|Company: Autodesk, Inc."
 90
     1024
 91
        1
280
     0
281
     0
  0
CLASS
  1
CELLSTYLEMAP
  2
AcDbCellStyleMap
  3
ObjectDBX Classes
 90
     1152
 91
        2
280
     0
281
     0
  0
CLASS
  1
EXACXREFPANELOBJECT
  2
ExAcXREFPanelObject
  3
EXAC_ESW
 90
     1025
 91
        1
280
     0
281
     0
  0
CLASS
  1
NPOCOLLECTION
  2
AcDbImpNonPersistentObjectsCollection
  3
ObjectDBX Classes
 90
     1153
 91
        1
280
     0
281
     0
  0
CLASS
  1
ACAMGFILTERDAT
  2
AcAmgFilterDat
  3
"AcadM|Product Description: AutoCAD Mechanical|Company: Autodesk, Inc."
 90
     1024
 91
        6
280
     0
281
     0
  0
ENDSEC
  0
SECTION
  2
TABLES
  0
TABLE
  2
VPORT
  5
8
330
0
100
AcDbSymbolTable
 70
     1
  0
VPORT
  5
291
330
8
100
AcDbSymbolTableRecord
100
AcDbViewportTableRecord
  2
*Active
 70
     0
 10
0.0
 20
0.0
 11
1.0
 21
1.0
 12
28.33572185617621
 22
18.70926267616263
 13
0.0
 23
0.0
 14
0.125
 24
0.125
 15
1.0
 25
1.0
 16
0.0
 26
0.0
 36
1.0
 17
0.0
 27
0.0
 37
0.0
 40
6.863430444179734
 41
1.439655172413793
 42
50.0
 43
0.0
 44
0.0
 50
0.0
 51
0.0
 71
     0
 72
   100
 73
     1
 74
     3
 75
     0
 76
     0
 77
     0
 78
     0
281
     0
 65
     1
110
0.0
120
0.0
130
0.0
111
1.0
121
0.0
131
0.0
112
0.0
122
1.0
132
0.0
 79
     0
146
0.0
348
29C
 60
     3
 61
     5
292
     1
282
     0
141
0.0
142
0.0
 63
   250
421
  3355443
  0
ENDTAB
  0
TABLE
  2
LTYPE
  5
5
330
0
100
AcDbSymbolTable
 70
    16
  0
LTYPE
  5
14
330
5
100
AcDbSymbolTableRecord
100
AcDbLinetypeTableRecord
  2
ByBlock
 70
     0
  3

 72
    65
 73
     0
 40
0.0
  0
LTYPE
  5
15
330
5
100
AcDbSymbolTableRecord
100
AcDbLinetypeTableRecord
  2
ByLayer
 70
     0
  3

 72
    65
 73
     0
 40
0.0
  0
LTYPE
  5
16
330
5
100
AcDbSymbolTableRecord
100
AcDbLinetypeTableRecord
  2
Continuous
 70
     0
  3
Solid line
 72
    65
 73
     0
 40
0.0
  0
LTYPE
  5
6C
330
5
100
AcDbSymbolTableRecord
100
AcDbLinetypeTableRecord
  2
AM_ISO02W050
 70
     0
  3
__ __ __ __ __ __ __ __ __ __ __ __ __ __ __
 72
    65
 73
     2
 40
7.5
 49
6.0
 74
     0
 49
-1.5
 74
     0
  0
LTYPE
  5
6D
330
5
100
AcDbSymbolTableRecord
100
AcDbLinetypeTableRecord
  2
AM_ISO08W050
 70
     0
  3
____ . ____ . ____ . ____ . ____ . ____ . ____
 72
    65
 73
     4
 40
18.0
 49
12.0
 74
     0
 49
-1.5
 74
     0
 49
3.0
 74
     0
 49
-1.5
 74
     0
  0
LTYPE
  5
6E
330
5
100
AcDbSymbolTableRecord
100
AcDbLinetypeTableRecord
  2
AM_ISO09W050
 70
     0
  3
_____ . . _____ . . _____ . . ____ .. ____
 72
    65
 73
     6
 40
22.5
 49
12.0
 74
     0
 49
-1.5
 74
     0
 49
3.0
 74
     0
 49
-1.5
 74
     0
 49
3.0
 74
     0
 49
-1.5
 74
     0
  0
LTYPE
  5
6F
330
5
100
AcDbSymbolTableRecord
100
AcDbLinetypeTableRecord
  2
Amconstr
 70
     0
  3
_______________________
 72
    65
 73
     2
 40
9999.0
 49
9999.0
 74
     0
 49
0.0
 74
     0
  0
LTYPE
  5
70
330
5
100
AcDbSymbolTableRecord
100
AcDbLinetypeTableRecord
  2
AM_ISO08W050x2
 70
     0
  3
__ . __ . __ . __ . __ . __
 72
    65
 73
     4
 40
9.0
 49
6.0
 74
     0
 49
-0.75
 74
     0
 49
1.5
 74
     0
 49
-0.75
 74
     0
  0
LTYPE
  5
71
330
5
100
AcDbSymbolTableRecord
100
AcDbLinetypeTableRecord
  2
AM_ISO02W050x2
 70
     0
  3
 _ _ _ _ _ _ _ _ _ _ _ _
 72
    65
 73
     2
 40
3.75
 49
3.0
 74
     0
 49
-0.75
 74
     0
  0
LTYPE
  5
74
330
5
100
AcDbSymbolTableRecord
100
AcDbLinetypeTableRecord
  2
Amzigzag
 70
     0
  3
/\/-/\/-/\/-/\/-/\/-/\/
 72
    65
 73
     2
 40
11.0001
 49
0.0001
 74
     4
 75
   136
340
254
 46
0.04
 50
0.0
 44
0.0
 45
0.0
 49
-11.0
 74
     0
  0
LTYPE
  5
75
330
5
100
AcDbSymbolTableRecord
100
AcDbLinetypeTableRecord
  2
HIDDEN
 70
     0
  3
Hidden __ __ __ __ __ __ __ __ __ __ __ __ __ _
 72
    65
 73
     2
 40
0.375
 49
0.25
 74
     0
 49
-0.125
 74
     0
  0
LTYPE
  5
76
330
5
100
AcDbSymbolTableRecord
100
AcDbLinetypeTableRecord
  2
CENTER
 70
     0
  3
Center ____ _ ____ _ ____ _ ____ _ ____ _ ____
 72
    65
 73
     4
 40
2.0
 49
1.25
 74
     0
 49
-0.25
 74
     0
 49
0.25
 74
     0
 49
-0.25
 74
     0
  0
LTYPE
  5
77
330
5
100
AcDbSymbolTableRecord
100
AcDbLinetypeTableRecord
  2
PHANTOM2
 70
     0
  3
Phantom (.5x) ___ _ _ ___ _ _ ___ _ _ ___ _ _
 72
    65
 73
     6
 40
1.25
 49
0.625
 74
     0
 49
-0.125
 74
     0
 49
0.125
 74
     0
 49
-0.125
 74
     0
 49
0.125
 74
     0
 49
-0.125
 74
     0
  0
LTYPE
  5
78
330
5
100
AcDbSymbolTableRecord
100
AcDbLinetypeTableRecord
  2
CENTER2
 70
     0
  3
Center (.5x) ___ _ ___ _ ___ _ ___ _ ___ _ ___
 72
    65
 73
     4
 40
1.125
 49
0.75
 74
     0
 49
-0.125
 74
     0
 49
0.125
 74
     0
 49
-0.125
 74
     0
  0
LTYPE
  5
79
330
5
100
AcDbSymbolTableRecord
100
AcDbLinetypeTableRecord
  2
HIDDEN2
 70
     0
  3
Hidden (.5x) _ _ _ _ _ _ _ _ _ _ _ _ _ _ _ _ _
 72
    65
 73
     2
 40
0.1875
 49
0.125
 74
     0
 49
-0.0625
 74
     0
  0
LTYPE
  5
7A
330
5
100
AcDbSymbolTableRecord
100
AcDbLinetypeTableRecord
  2
Amzigzag2
 70
     0
  3
/\/-/\/-/\/-/\/-/\/-/\/
 72
    65
 73
     2
 40
0.4401
 49
0.0001
 74
     4
 75
   136
340
254
 46
0.0016
 50
0.0
 44
0.0
 45
0.0
 49
-0.4400000000000001
 74
     0
  0
LTYPE
  5
87
330
5
100
AcDbSymbolTableRecord
100
AcDbLinetypeTableRecord
  2
ACANSTGB
 70
     0
  3
__ . . __ . .
 72
    65
 73
     6
 40
0.35433070866
 49
0.15748031496
 74
     0
 49
-0.03937007874
 74
     0
 49
0.03937007874
 74
     0
 49
-0.03937007874
 74
     0
 49
0.03937007874
 74
     0
 49
-0.03937007874
 74
     0
  0
LTYPE
  5
88
330
5
100
AcDbSymbolTableRecord
100
AcDbLinetypeTableRecord
  2
ACANSTGL
 70
     0
  3
_ _ _ _ _
 72
    65
 73
     2
 40
0.11811023622
 49
0.07874015748
 74
     0
 49
-0.03937007874
 74
     0
  0
ENDTAB
  0
TABLE
  2
LAYER
  5
2
330
0
100
AcDbSymbolTable
 70
     5
  0
LAYER
  5
10
102
{ACAD_XDICTIONARY
360
88B
102
}
330
2
100
AcDbSymbolTableRecord
100
AcDbLayerTableRecord
  2
0
 70
     0
 62
     7
  6
Continuous
370
    -3
390
F
347
295
  0
LAYER
  5
38C
102
{ACAD_XDICTIONARY
360
88D
102
}
330
2
100
AcDbSymbolTableRecord
100
AcDbLayerTableRecord
  2
02___PRT_ALL_AXES
 70
     0
 62
     7
  6
Continuous
370
    -3
390
F
347
295
  0
LAYER
  5
38D
102
{ACAD_XDICTIONARY
360
88F
102
}
330
2
100
AcDbSymbolTableRecord
100
AcDbLayerTableRecord
  2
06___PRT_ALL_SURFS
 70
     0
 62
     7
  6
Continuous
370
    -3
390
F
347
295
  0
LAYER
  5
38E
102
{ACAD_XDICTIONARY
360
891
102
}
330
2
100
AcDbSymbolTableRecord
100
AcDbLayerTableRecord
  2
ALL_AXES
 70
     0
 62
     7
  6
Continuous
370
    -3
390
F
347
295
  0
LAYER
  5
38F
102
{ACAD_XDICTIONARY
360
893
102
}
330
2
100
AcDbSymbolTableRecord
100
AcDbLayerTableRecord
  2
ALL_FEATURES
 70
     0
 62
     7
  6
Continuous
370
    -3
390
F
347
295
  0
ENDTAB
  0
TABLE
  2
STYLE
  5
3
330
0
100
AcDbSymbolTable
 70
     8
  0
STYLE
  5
11
330
3
100
AcDbSymbolTableRecord
100
AcDbTextStyleTableRecord
  2
STANDARD
 70
     0
 40
0.0
 41
1.0
 50
0.0
 71
     0
 42
0.2
  3
ROMANS.SHX
  4

  0
STYLE
  5
73
330
3
100
AcDbSymbolTableRecord
100
AcDbTextStyleTableRecord
  2

 70
     1
 40
0.0
 41
1.0
 50
0.0
 71
     0
 42
0.2
  3
ltypeshp.shx
  4

  0
STYLE
  5
7B
330
3
100
AcDbSymbolTableRecord
100
AcDbTextStyleTableRecord
  2
ACANSTS
 70
     0
 40
1.0
 41
1.0
 50
0.0
 71
     0
 42
0.2
  3
romans.shx
  4

  0
STYLE
  5
86
330
3
100
AcDbSymbolTableRecord
100
AcDbTextStyleTableRecord
  2
ACANSGDT
 70
     0
 40
0.0
 41
1.0
 50
0.0
 71
     0
 42
0.2
  3
amgdt.shx
  4

  0
STYLE
  5
13F
330
3
100
AcDbSymbolTableRecord
100
AcDbTextStyleTableRecord
  2
USER1
 70
     0
 40
0.0
 41
1.0
 50
0.0
 71
     0
 42
0.2
  3
TXT.SHX
  4

  0
STYLE
  5
140
330
3
100
AcDbSymbolTableRecord
100
AcDbTextStyleTableRecord
  2
USER2
 70
     0
 40
0.0
 41
1.0
 50
0.0
 71
     0
 42
0.2
  3
SIMPLEX.SHX
  4

  0
STYLE
  5
141
330
3
100
AcDbSymbolTableRecord
100
AcDbTextStyleTableRecord
  2
USER3
 70
     0
 40
0.0
 41
1.0
 50
0.0
 71
     0
 42
0.2
  3
ITALIC.SHX
  4

  0
STYLE
  5
254
330
3
100
AcDbSymbolTableRecord
100
AcDbTextStyleTableRecord
  2

 70
     1
 40
0.0
 41
1.0
 50
0.0
 71
     0
 42
0.2
  3
genltshp.shx
  4

  0
ENDTAB
  0
TABLE
  2
VIEW
  5
6
330
0
100
AcDbSymbolTable
 70
     0
  0
ENDTAB
  0
TABLE
  2
UCS
  5
7
330
0
100
AcDbSymbolTable
 70
     0
  0
ENDTAB
  0
TABLE
  2
APPID
  5
9
330
0
100
AcDbSymbolTable
 70
    11
  0
APPID
  5
12
330
9
100
AcDbSymbolTableRecord
100
AcDbRegAppTableRecord
  2
ACAD
 70
     0
  0
APPID
  5
4E
330
9
100
AcDbSymbolTableRecord
100
AcDbRegAppTableRecord
  2
MCAD_NO_VIS
 70
     0
  0
APPID
  5
4F
330
9
100
AcDbSymbolTableRecord
100
AcDbRegAppTableRecord
  2
ACAD_TEMP_GRAPHIC
 70
     0
  0
APPID
  5
60
330
9
100
AcDbSymbolTableRecord
100
AcDbRegAppTableRecord
  2
ACATTRIBSERVICES
 70
     0
  0
APPID
  5
F7
330
9
100
AcDbSymbolTableRecord
100
AcDbRegAppTableRecord
  2
AD_DRAW
 70
     0
  0
APPID
  5
115
330
9
100
AcDbSymbolTableRecord
100
AcDbRegAppTableRecord
  2
DESIGNERASSEMBLIES
 70
     0
  0
APPID
  5
11A
330
9
100
AcDbSymbolTableRecord
100
AcDbRegAppTableRecord
  2
ACADM_DIM_EDIT
 70
     0
  0
APPID
  5
11B
330
9
100
AcDbSymbolTableRecord
100
AcDbRegAppTableRecord
  2
AMDT_DM_ADJ
 70
     0
  0
APPID
  5
1D3
330
9
100
AcDbSymbolTableRecord
100
AcDbRegAppTableRecord
  2
ACAD_DSTYLE_DIMARC_LENGTH_SYMBOL
 70
     0
  0
APPID
  5
1D4
330
9
100
AcDbSymbolTableRecord
100
AcDbRegAppTableRecord
  2
ACAD_DSTYLE_DIMJOGGED_JOGANGLE_SYMBOL
 70
     0
  0
APPID
  5
2EE
330
9
100
AcDbSymbolTableRecord
100
AcDbRegAppTableRecord
  2
ACAD_MLEADERVER
 70
     0
  0
ENDTAB
  0
TABLE
  2
DIMSTYLE
  5
A
330
0
100
AcDbSymbolTable
 70
     7
100
AcDbDimStyleTable
 71
     1
340
8C
  0
DIMSTYLE
105
27
330
A
100
AcDbSymbolTableRecord
100
AcDbDimStyleTableRecord
  2
Standard
 70
     0
340
11
  0
DIMSTYLE
105
8C
102
{ACAD_REACTORS
330
6A
102
}
330
A
100
AcDbSymbolTableRecord
100
AcDbDimStyleTableRecord
  2
AM_ANSI
 70
     0
  4
mm
 41
0.12
 42
0.05
 43
0.5
 44
0.1
 47
0.1
 48
0.1
 78
     7
 79
     2
 90
     1
140
0.12
141
0.0
146
0.71
147
0.06
176
   256
177
   256
178
   140
274
     4
284
     7
340
11
345
14
346
14
347
14
371
    -1
372
    -1
1001
ACAD_DSTYLE_DIMJOGGED_JOGANGLE_SYMBOL
1070
   384
1040
0.7853981633974483
  0
DIMSTYLE
105
8D
330
A
100
AcDbSymbolTableRecord
100
AcDbDimStyleTableRecord
  2
AM_ANSI$3
 70
     0
  4
mm
 41
0.12
 42
0.05
 43
0.5
 44
0.1
 47
0.1
 48
0.1
 78
     7
 79
     2
 90
     1
140
0.12
141
0.0
146
0.71
147
0.06
176
   256
177
   256
178
   140
274
     4
284
     7
288
     1
289
     0
340
11
345
14
346
14
347
14
371
    -1
372
    -1
1001
ACAD_DSTYLE_DIMJOGGED_JOGANGLE_SYMBOL
1070
   384
1040
0.7853981633974483
  0
DIMSTYLE
105
8E
330
A
100
AcDbSymbolTableRecord
100
AcDbDimStyleTableRecord
  2
AM_ANSI$4
 70
     0
  4
mm
 41
0.12
 42
0.05
 43
0.5
 44
0.1
 47
0.1
 48
0.1
 78
     7
 79
     2
 90
     1
140
0.12
141
0.0
146
0.71
147
0.06
176
   256
177
   256
178
   140
274
     4
284
     7
340
11
345
14
346
14
347
14
371
    -1
372
    -1
1001
ACAD_DSTYLE_DIMJOGGED_JOGANGLE_SYMBOL
1070
   384
1040
0.7853981633974483
  0
DIMSTYLE
105
8F
330
A
100
AcDbSymbolTableRecord
100
AcDbDimStyleTableRecord
  2
AM_ANSI$7
 70
     0
  4
mm
 41
0.12
 42
0.05
 43
0.5
 44
0.1
 47
0.1
 48
0.1
 78
     7
 79
     2
 90
     1
140
0.12
141
0.0
146
0.71
147
0.06
176
   256
177
   256
178
   140
274
     4
284
     7
340
11
345
14
346
14
347
14
371
    -1
372
    -1
1001
ACAD_DSTYLE_DIMJOGGED_JOGANGLE_SYMBOL
1070
   384
1040
0.7853981633974483
  0
DIMSTYLE
105
90
330
A
100
AcDbSymbolTableRecord
100
AcDbDimStyleTableRecord
  2
AM_ANSI$SF
 70
     0
  4
mm
 41
0.12
 42
0.05
 43
0.5
 44
0.1
 47
0.1
 48
0.1
 75
     1
 76
     1
 78
     7
 79
     2
 90
     1
140
0.12
141
0.0
146
0.71
147
0.06
176
   256
177
   256
178
   140
274
     4
284
     7
340
11
345
14
346
14
347
14
371
    -1
372
    -1
1001
ACAD_DSTYLE_DIMJOGGED_JOGANGLE_SYMBOL
1070
   384
1040
0.7853981633974483
  0
DIMSTYLE
105
95
330
A
100
AcDbSymbolTableRecord
100
AcDbDimStyleTableRecord
  2
AM_ANSI$SH
 70
     0
  4
mm
 41
0.12
 42
0.05
 43
0.5
 44
0.1
 47
0.1
 48
0.1
 75
     1
 76
     1
 78
     7
 79
     2
 90
     1
140
0.12
141
0.0
146
0.71
147
0.06
173
     1
176
   256
177
   256
178
   140
274
     4
284
     7
340
11
343
91
345
14
346
14
347
14
371
    -1
372
    -1
1001
ACAD_DSTYLE_DIMJOGGED_JOGANGLE_SYMBOL
1070
   384
1040
0.7853981633974483
  0
ENDTAB
  0
TABLE
  2
BLOCK_RECORD
  5
1
330
0
100
AcDbSymbolTable
 70
     4
  0
BLOCK_RECORD
  5
1F
102
{ACAD_XDICTIONARY
360
99
102
}
330
1
100
AcDbSymbolTableRecord
100
AcDbBlockTableRecord
  2
*Model_Space
340
22
 70
     0
280
     1
281
     0
  0
BLOCK_RECORD
  5
1B
330
1
100
AcDbSymbolTableRecord
100
AcDbBlockTableRecord
  2
*Paper_Space
340
1E
 70
     0
280
     1
281
     0
  0
BLOCK_RECORD
  5
23
330
1
100
AcDbSymbolTableRecord
100
AcDbBlockTableRecord
  2
*Paper_Space0
340
26
 70
     0
280
     1
281
     0
  0
BLOCK_RECORD
  5
91
330
1
100
AcDbSymbolTableRecord
100
AcDbBlockTableRecord
  2
GENAXEH
340
0
 70
     0
280
     1
281
     0
  0
ENDTAB
  0
ENDSEC
  0
SECTION
  2
BLOCKS
  0
BLOCK
  5
20
330
1F
100
AcDbEntity
  8
0
100
AcDbBlockBegin
  2
*Model_Space
 70
     0
 10
0.0
 20
0.0
 30
0.0
  3
*Model_Space
  1

  0
ENDBLK
  5
21
330
1F
100
AcDbEntity
  8
0
100
AcDbBlockEnd
  0
BLOCK
  5
1C
330
1B
100
AcDbEntity
 67
     1
  8
0
100
AcDbBlockBegin
  2
*Paper_Space
 70
     0
 10
0.0
 20
0.0
 30
0.0
  3
*Paper_Space
  1

  0
ENDBLK
  5
1D
330
1B
100
AcDbEntity
 67
     1
  8
0
100
AcDbBlockEnd
  0
BLOCK
  5
24
330
23
100
AcDbEntity
 67
     1
  8
0
100
AcDbBlockBegin
  2
*Paper_Space0
 70
     0
 10
0.0
 20
0.0
 30
0.0
  3
*Paper_Space0
  1

  0
ENDBLK
  5
25
330
23
100
AcDbEntity
 67
     1
  8
0
100
AcDbBlockEnd
  0
BLOCK
  5
93
330
91
100
AcDbEntity
  8
0
100
AcDbBlockBegin
  2
GENAXEH
 70
     0
 10
0.0
 20
0.0
 30
0.0
  3
GENAXEH
  1

  0
LINE
  5
92
330
91
100
AcDbEntity
  8
0
100
AcDbLine
 10
-1.0
 20
0.0
 30
0.0
 11
1.0
 21
0.0
 31
0.0
  0
ENDBLK
  5
94
330
91
100
AcDbEntity
  8
0
100
AcDbBlockEnd
  0
ENDSEC
  0
SECTION
  2
ENTITIES
  0
LINE
  5
613
330
1F
100
AcDbEntity
  8
0
  6
Continuous
 62
     7
100
AcDbLine
 10
28.2090915659446
 20
16.26949460327247
 30
0.0
 11
28.0516112509446
 21
16.26949460327247
 31
0.0
  0
LINE
  5
614
330
1F
100
AcDbEntity
  8
0
  6
Continuous
 62
     7
100
AcDbLine
 10
28.2090915659446
 20
16.30886468207247
 30
0.0
 11
28.0516112509446
 21
16.30886468207247
 31
0.0
  0
LINE
  5
615
330
1F
100
AcDbEntity
  8
02___PRT_ALL_AXES
  6
Continuous
 62
     7
100
AcDbLine
 10
27.8327332982446
 20
16.60460877647247
 30
0.0
 11
27.3996624320446
 21
16.60460877647247
 31
0.0
  0
LINE
  5
616
330
1F
100
AcDbEntity
  8
0
  6
Continuous
 62
     7
100
AcDbLine
 10
27.8721033769446
 20
16.62823082377247
 30
0.0
 11
27.3602923533446
 21
16.62823082377247
 31
0.0
  0
LINE
  5
617
330
1F
100
AcDbEntity
  8
0
  6
Continuous
 62
     7
100
AcDbLine
 10
27.8721033769446
 20
16.64004184737247
 30
0.0
 11
27.3602923533446
 21
16.64004184737247
 31
0.0
  0
LINE
  5
618
330
1F
100
AcDbEntity
  8
0
  6
Continuous
 62
     7
100
AcDbLine
 10
27.8721033769446
 20
16.67941192617247
 30
0.0
 11
27.3602923533446
 21
16.67941192617247
 31
0.0
  0
LINE
  5
619
330
1F
100
AcDbEntity
  8
0
  6
Continuous
 62
     7
100
AcDbLine
 10
27.8721033769446
 20
16.69122294977247
 30
0.0
 11
27.3602923533446
 21
16.69122294977247
 31
0.0
  0
LINE
  5
61A
330
1F
100
AcDbEntity
  8
0
  6
Continuous
 62
     7
100
AcDbLine
 10
27.8721033769446
 20
16.73059302847247
 30
0.0
 11
27.3602923533446
 21
16.73059302847247
 31
0.0
  0
LINE
  5
61B
330
1F
100
AcDbEntity
  8
0
  6
Continuous
 62
     7
100
AcDbLine
 10
27.8721033769446
 20
16.74240405207247
 30
0.0
 11
27.3602923533446
 21
16.74240405207247
 31
0.0
  0
LINE
  5
61C
330
1F
100
AcDbEntity
  8
0
  6
Continuous
 62
     7
100
AcDbLine
 10
27.8340481111446
 20
20.87508255157247
 30
0.0
 11
27.8785511761446
 21
20.90077640817248
 31
0.0
  0
LINE
  5
61D
330
1F
100
AcDbEntity
  8
02___PRT_ALL_AXES
  6
Continuous
 62
     7
100
AcDbLine
 10
27.8327332982446
 20
16.76208909147247
 30
0.0
 11
27.3996624320446
 21
16.76208909147247
 31
0.0
  0
LINE
  5
61E
330
1F
100
AcDbEntity
  8
0
  6
Continuous
 62
     7
100
AcDbLine
 10
28.0555482588446
 20
16.84181350097247
 30
0.0
 11
28.2130285738446
 21
16.84181350097247
 31
0.0
  0
LINE
  5
61F
330
1F
100
AcDbEntity
  8
0
  6
Continuous
 62
     7
100
AcDbLine
 10
27.9356526663446
 20
20.81642113427248
 30
0.0
 11
27.8911496013446
 21
20.79072727767247
 31
0.0
  0
LINE
  5
620
330
1F
100
AcDbEntity
  8
0
  6
Continuous
 62
     7
100
AcDbLine
 10
27.7010600171446
 20
20.36285518757248
 30
0.0
 11
27.6817597158446
 21
20.35195586577247
 31
0.0
  0
LINE
  5
621
330
1F
100
AcDbEntity
  8
0
  6
Continuous
 62
     7
100
AcDbLine
 10
28.2130285738446
 20
17.31327019387247
 30
0.0
 11
28.2760206997446
 21
17.31327019387247
 31
0.0
  0
LINE
  5
622
330
1F
100
AcDbEntity
  8
0
  6
Continuous
 62
     7
100
AcDbLine
 10
28.0358632194446
 20
17.34673476077247
 30
0.0
 11
28.0437372352446
 21
17.34673476077247
 31
0.0
  0
LINE
  5
623
330
1F
100
AcDbEntity
  8
02___PRT_ALL_AXES
  6
Continuous
 62
     7
100
AcDbLine
 10
27.8746891491446
 20
17.35264027257247
 30
0.0
 11
28.0358632194446
 21
17.35264027257247
 31
0.0
  0
LINE
  5
624
330
1F
100
AcDbEntity
  8
02___PRT_ALL_AXES
  6
Continuous
 62
     7
100
AcDbLine
 10
28.0437372352446
 20
17.35264027257247
 30
0.0
 11
28.0555482588446
 21
17.35264027257247
 31
0.0
  0
LWPOLYLINE
  5
625
330
1F
100
AcDbEntity
  8
0
  6
Continuous
 62
     7
100
AcDbPolyline
 90
        4
 70
     0
 43
0.0
 10
28.2761473402446
 20
20.46437162957248
 10
28.2762112091446
 20
20.46441130357248
 10
28.2766230702446
 20
20.46475312787248
 10
28.2769601059446
 20
20.46511166627247
  0
LINE
  5
626
330
1F
100
AcDbEntity
  8
0
  6
Continuous
 62
     7
100
AcDbLine
 10
28.2587341627446
 20
20.91665603677248
 30
0.0
 11
28.2588122169446
 21
20.91675941767247
 31
0.0
  0
LWPOLYLINE
  5
627
330
1F
100
AcDbEntity
  8
0
  6
Continuous
 62
     7
100
AcDbPolyline
 90
        3
 70
     0
 43
0.0
 10
28.2585348553446
 20
20.91642266497247
 10
28.2586535661446
 20
20.91655624157247
 10
28.2587341627446
 20
20.91665603677248
  0
LINE
  5
628
330
1F
100
AcDbEntity
  8
0
  6
Continuous
 62
     7
100
AcDbLine
 10
28.0555482588446
 20
17.66858515447247
 30
0.0
 11
28.0476742431446
 21
17.66858515447247
 31
0.0
  0
LINE
  5
629
330
1F
100
AcDbEntity
  8
0
  6
Continuous
 62
     7
100
AcDbLine
 10
28.0476742431446
 20
17.74732531197247
 30
0.0
 11
28.0555482588446
 21
17.74732531197247
 31
0.0
  0
LINE
  5
62A
330
1F
100
AcDbEntity
  8
0
  6
Continuous
 62
     7
100
AcDbLine
 10
27.8139048644446
 20
17.40690184017247
 30
0.0
 11
27.8635537811446
 21
17.35725294057247
 31
0.0
  0
LINE
  5
62B
330
1F
100
AcDbEntity
  8
02___PRT_ALL_AXES
  6
Continuous
 62
     7
100
AcDbLine
 10
27.8746894973446
 20
17.82508121747247
 30
0.0
 11
28.0358632194446
 21
17.82508121747247
 31
0.0
  0
LINE
  5
62C
330
1F
100
AcDbEntity
  8
02___PRT_ALL_AXES
  6
Continuous
 62
     7
100
AcDbLine
 10
28.0437372352446
 20
17.82508121747247
 30
0.0
 11
28.0555482588446
 21
17.82508121747247
 31
0.0
  0
LINE
  5
62D
330
1F
100
AcDbEntity
  8
0
  6
Continuous
 62
     7
100
AcDbLine
 10
28.0358632194446
 20
17.83098672927247
 30
0.0
 11
28.0437372352446
 21
17.83098672927247
 31
0.0
  0
LINE
  5
62E
330
1F
100
AcDbEntity
  8
0
  6
Continuous
 62
     7
100
AcDbLine
 10
28.2130285738446
 20
17.86445129617247
 30
0.0
 11
28.2760206997446
 21
17.86445129617247
 31
0.0
  0
LINE
  5
62F
330
1F
100
AcDbEntity
  8
0
  6
Continuous
 62
     7
100
AcDbLine
 10
28.0555482588446
 20
17.92153791037247
 30
0.0
 11
28.0161781801446
 21
17.92153791037247
 31
0.0
  0
LWPOLYLINE
  5
630
330
1F
100
AcDbEntity
  8
06___PRT_ALL_SURFS
  6
Continuous
 62
     7
100
AcDbPolyline
 90
       19
 70
     0
 43
0.0
 10
28.2769591735446
 20
20.46511072577247
 10
28.2776072275446
 20
20.46590645917248
 10
28.2786570659446
 20
20.46729147977248
 10
28.2796205157446
 20
20.46868917757247
 10
28.2805040260446
 20
20.47010594297248
 10
28.2812996382446
 20
20.47152403267248
 10
28.2819912761446
 20
20.47290021277247
 10
28.2825848249446
 20
20.47422313697248
 10
28.2830899862446
 20
20.47548951107247
 10
28.2835063090446
 20
20.47666764167248
 10
28.2838414111446
 20
20.47773990747248
 10
28.2841106772446
 20
20.47871506147247
 10
28.2843269755446
 20
20.47960287327247
 10
28.2844972905446
 20
20.48039559237247
 10
28.2846305832446
 20
20.48109811547248
 10
28.2847382997446
 20
20.48174071397248
 10
28.2848245977446
 20
20.48232390667248
 10
28.2848929412446
 20
20.48284662457247
 10
28.2849306620446
 20
20.48316630867248
  0
LINE
  5
631
330
1F
100
AcDbEntity
  8
ALL_AXES
  6
Continuous
 62
     7
100
AcDbLine
 10
28.2272454696446
 20
18.01898296687247
 30
0.0
 11
28.2363804970446
 21
18.01898296687247
 31
0.0
  0
LINE
  5
632
330
1F
100
AcDbEntity
  8
0
  6
Continuous
 62
     7
100
AcDbLine
 10
28.0476742431446
 20
18.02586861907247
 30
0.0
 11
28.0161781801446
 21
18.02586861907247
 31
0.0
  0
LINE
  5
633
330
1F
100
AcDbEntity
  8
0
  6
Continuous
 62
     7
100
AcDbLine
 10
27.3602923533446
 20
16.74240405207247
 30
0.0
 11
27.3602923533446
 21
16.73059302847247
 31
0.0
  0
LINE
  5
634
330
1F
100
AcDbEntity
  8
0
  6
Continuous
 62
     7
100
AcDbLine
 10
27.3602923533446
 20
16.69122294977247
 30
0.0
 11
27.3602923533446
 21
16.67941192617247
 31
0.0
  0
LINE
  5
635
330
1F
100
AcDbEntity
  8
0
  6
Continuous
 62
     7
100
AcDbLine
 10
27.3602923533446
 20
16.64004184737247
 30
0.0
 11
27.3602923533446
 21
16.62823082377247
 31
0.0
  0
LINE
  5
636
330
1F
100
AcDbEntity
  8
02___PRT_ALL_AXES
  6
Continuous
 62
     7
100
AcDbLine
 10
27.3996624320446
 20
16.76208909147247
 30
0.0
 11
27.3996624320446
 21
16.74240405207247
 31
0.0
  0
LINE
  5
637
330
1F
100
AcDbEntity
  8
02___PRT_ALL_AXES
  6
Continuous
 62
     7
100
AcDbLine
 10
27.3996624320446
 20
16.73059302847247
 30
0.0
 11
27.3996624320446
 21
16.69122294977247
 31
0.0
  0
LINE
  5
638
330
1F
100
AcDbEntity
  8
02___PRT_ALL_AXES
  6
Continuous
 62
     7
100
AcDbLine
 10
27.3996624320446
 20
16.67941192617247
 30
0.0
 11
27.3996624320446
 21
16.64004184737247
 31
0.0
  0
LINE
  5
639
330
1F
100
AcDbEntity
  8
02___PRT_ALL_AXES
  6
Continuous
 62
     7
100
AcDbLine
 10
27.3996624320446
 20
16.62823082377247
 30
0.0
 11
27.3996624320446
 21
16.60460877647247
 31
0.0
  0
LINE
  5
63A
330
1F
100
AcDbEntity
  8
0
  6
Continuous
 62
     7
100
AcDbLine
 10
27.6929321488446
 20
20.87516129177247
 30
0.0
 11
27.6902371703446
 21
20.85562269787248
 31
0.0
  0
LINE
  5
63B
330
1F
100
AcDbEntity
  8
0
  6
Continuous
 62
     7
100
AcDbLine
 10
27.6896941348446
 20
20.85168569007247
 30
0.0
 11
27.6888578600446
 21
20.84562269787248
 31
0.0
  0
LINE
  5
63C
330
1F
100
AcDbEntity
  8
0
  6
Continuous
 62
     7
100
AcDbLine
 10
27.6883148244446
 20
20.84168569007248
 30
0.0
 11
27.6874785496446
 21
20.83562269787247
 31
0.0
  0
LINE
  5
63D
330
1F
100
AcDbEntity
  8
0
  6
Continuous
 62
     7
100
AcDbLine
 10
27.6774719261446
 20
20.76307467757247
 30
0.0
 11
27.6869355141446
 21
20.83168569007248
 31
0.0
  0
LINE
  5
63E
330
1F
100
AcDbEntity
  8
0
  6
Continuous
 62
     7
100
AcDbLine
 10
28.0161781801446
 20
18.13807334347247
 30
0.0
 11
28.0555482588446
 21
18.13807334347247
 31
0.0
  0
LINE
  5
63F
330
1F
100
AcDbEntity
  8
ALL_AXES
  6
Continuous
 62
     7
100
AcDbLine
 10
28.2272454696446
 20
18.22370737637247
 30
0.0
 11
28.2363804970446
 21
18.22370737637247
 31
0.0
  0
LINE
  5
640
330
1F
100
AcDbEntity
  8
0
  6
Continuous
 62
     7
100
AcDbLine
 10
27.4390325108446
 20
17.37232531197247
 30
0.0
 11
27.4390325108446
 21
16.76208909147247
 31
0.0
  0
LINE
  5
641
330
1F
100
AcDbEntity
  8
0
  6
Continuous
 62
     7
100
AcDbLine
 10
27.5433182820446
 20
20.83168753067248
 30
0.0
 11
27.5433182820446
 21
20.83562085727248
 31
0.0
  0
LINE
  5
642
330
1F
100
AcDbEntity
  8
0
  6
Continuous
 62
     7
100
AcDbLine
 10
27.5433182820446
 20
20.84168753067247
 30
0.0
 11
27.5433182820446
 21
20.84562085727247
 31
0.0
  0
LINE
  5
643
330
1F
100
AcDbEntity
  8
0
  6
Continuous
 62
     7
100
AcDbLine
 10
27.5433182820446
 20
20.85168569007247
 30
0.0
 11
27.5433182820446
 21
20.85562269787248
 31
0.0
  0
LINE
  5
644
330
1F
100
AcDbEntity
  8
0
  6
Continuous
 62
     7
100
AcDbLine
 10
27.8260206997446
 20
18.45256564407247
 30
0.0
 11
28.0542980649446
 21
18.45256564407247
 31
0.0
  0
LINE
  5
645
330
1F
100
AcDbEntity
  8
0
  6
Continuous
 62
     7
100
AcDbLine
 10
27.7125782267446
 20
20.34434089877247
 30
0.0
 11
27.7126469396446
 21
20.33646715777248
 31
0.0
  0
LINE
  5
646
330
1F
100
AcDbEntity
  8
0
  6
Continuous
 62
     7
100
AcDbLine
 10
27.7125095139446
 20
20.35221461467248
 30
0.0
 11
27.7124408010446
 21
20.36008830557248
 31
0.0
  0
LINE
  5
647
330
1F
100
AcDbEntity
  8
0
  6
Continuous
 62
     7
100
AcDbLine
 10
27.7414189925446
 20
20.26284354027247
 30
0.0
 11
27.7417556984446
 21
20.22426086317247
 31
0.0
  0
LINE
  5
648
330
1F
100
AcDbEntity
  8
0
  6
Continuous
 62
     7
100
AcDbLine
 10
27.6302278316446
 20
20.75705105547247
 30
0.0
 11
27.6302278316446
 21
21.06622428387247
 31
0.0
  0
LINE
  5
649
330
1F
100
AcDbEntity
  8
0
  6
Continuous
 62
     7
100
AcDbLine
 10
27.6381018474446
 20
20.75705105547247
 30
0.0
 11
27.6381018474446
 21
20.87516129177247
 31
0.0
  0
LINE
  5
64A
330
1F
100
AcDbEntity
  8
0
  6
Continuous
 62
     7
100
AcDbLine
 10
27.6691345344446
 20
21.08197231537248
 30
0.0
 11
27.6691345344446
 21
21.07409829957248
 31
0.0
  0
LINE
  5
64B
330
1F
100
AcDbEntity
  8
0
  6
Continuous
 62
     7
100
AcDbLine
 10
27.6775669242446
 20
19.20256546947247
 30
0.0
 11
27.6775669242446
 21
20.22426086317247
 31
0.0
  0
LINE
  5
64C
330
1F
100
AcDbEntity
  8
0
  6
Continuous
 62
     7
100
AcDbLine
 10
27.7116507824446
 20
20.42838866197248
 30
0.0
 11
27.7116507824446
 21
20.46974418827247
 31
0.0
  0
LINE
  5
64D
330
1F
100
AcDbEntity
  8
02___PRT_ALL_AXES
  6
Continuous
 62
     7
100
AcDbLine
 10
27.7179212549446
 20
20.56097084437248
 30
0.0
 11
27.7179212549446
 21
20.51372674987248
 31
0.0
  0
LINE
  5
64E
330
1F
100
AcDbEntity
  8
02___PRT_ALL_AXES
  6
Continuous
 62
     7
100
AcDbLine
 10
27.7179212549446
 20
20.36865804977248
 30
0.0
 11
27.7179212549446
 21
20.36013613277248
 31
0.0
  0
LINE
  5
64F
330
1F
100
AcDbEntity
  8
02___PRT_ALL_AXES
  6
Continuous
 62
     7
100
AcDbLine
 10
27.7179212549446
 20
20.35226184217247
 30
0.0
 11
27.7179212549446
 21
20.34438752667248
 31
0.0
  0
LINE
  5
650
330
1F
100
AcDbEntity
  8
02___PRT_ALL_AXES
  6
Continuous
 62
     7
100
AcDbLine
 10
27.7179212549446
 20
20.33651318607248
 30
0.0
 11
27.7179212549446
 21
20.32141395527248
 31
0.0
  0
LINE
  5
651
330
1F
100
AcDbEntity
  8
0
  6
Continuous
 62
     7
100
AcDbLine
 10
27.7194960580446
 20
20.26284354027247
 30
0.0
 11
27.7194960580446
 21
20.87516129177247
 31
0.0
  0
LINE
  5
652
330
1F
100
AcDbEntity
  8
0
  6
Continuous
 62
     7
100
AcDbLine
 10
27.7444010600446
 20
21.02291719727248
 30
0.0
 11
27.7444010600446
 21
21.04260223667248
 31
0.0
  0
LINE
  5
653
330
1F
100
AcDbEntity
  8
0
  6
Continuous
 62
     7
100
AcDbLine
 10
27.7562120836446
 20
21.04260223667248
 30
0.0
 11
27.7562120836446
 21
21.02291719727248
 31
0.0
  0
LINE
  5
654
330
1F
100
AcDbEntity
  8
0
  6
Continuous
 62
     7
100
AcDbLine
 10
27.8339338790446
 20
19.17962469917247
 30
0.0
 11
27.8372456874446
 21
19.18536091967247
 31
0.0
  0
LINE
  5
655
330
1F
100
AcDbEntity
  8
0
  6
Continuous
 62
     7
100
AcDbLine
 10
27.8260206997446
 20
18.50768375427247
 30
0.0
 11
27.8300267992446
 21
18.50768375427247
 31
0.0
  0
LINE
  5
656
330
1F
100
AcDbEntity
  8
0
  6
Continuous
 62
     7
100
AcDbLine
 10
27.7575043296446
 20
20.22426086317247
 30
0.0
 11
27.7571676237446
 21
20.26284354027247
 31
0.0
  0
LINE
  5
657
330
1F
100
AcDbEntity
  8
0
  6
Continuous
 62
     7
100
AcDbLine
 10
27.8207650208446
 20
19.23775074247247
 30
0.0
 11
27.8207687986446
 21
19.23721131337248
 31
0.0
  0
LINE
  5
658
330
1F
100
AcDbEntity
  8
0
  6
Continuous
 62
     7
100
AcDbLine
 10
27.7758971230446
 20
21.02291719727248
 30
0.0
 11
27.7758971230446
 21
21.04260223667248
 31
0.0
  0
LINE
  5
659
330
1F
100
AcDbEntity
  8
0
  6
Continuous
 62
     7
100
AcDbLine
 10
27.7807451092446
 20
19.14351035127247
 30
0.0
 11
27.7807451092446
 21
19.29311665057247
 31
0.0
  0
LINE
  5
65A
330
1F
100
AcDbEntity
  8
0
  6
Continuous
 62
     7
100
AcDbLine
 10
27.7877081466446
 20
21.04260223667248
 30
0.0
 11
27.7877081466446
 21
21.02291719727248
 31
0.0
  0
LINE
  5
65B
330
1F
100
AcDbEntity
  8
0
  6
Continuous
 62
     7
100
AcDbLine
 10
27.7933632194446
 20
17.37232531197247
 30
0.0
 11
27.7933632194446
 21
16.76208909147247
 31
0.0
  0
LINE
  5
65C
330
1F
100
AcDbEntity
  8
0
  6
Continuous
 62
     7
100
AcDbLine
 10
27.7947947608446
 20
19.31712235967247
 30
0.0
 11
27.7947947608446
 21
19.30020343937247
 31
0.0
  0
LINE
  5
65D
330
1F
100
AcDbEntity
  8
0
  6
Continuous
 62
     7
100
AcDbLine
 10
27.8058183858446
 20
19.26083336057248
 30
0.0
 11
27.8058183858446
 21
19.29823493537248
 31
0.0
  0
LINE
  5
65E
330
1F
100
AcDbEntity
  8
0
  6
Continuous
 62
     7
100
AcDbLine
 10
27.8130482588446
 20
17.41691708317247
 30
0.0
 11
27.8130482588446
 21
17.76996283147247
 31
0.0
  0
LINE
  5
65F
330
1F
100
AcDbEntity
  8
02___PRT_ALL_AXES
  6
Continuous
 62
     7
100
AcDbLine
 10
27.8173592824446
 20
18.95812527267247
 30
0.0
 11
27.8173592824446
 21
19.00177816247247
 31
0.0
  0
LINE
  5
660
330
1F
100
AcDbEntity
  8
0
  6
Continuous
 62
     7
100
AcDbLine
 10
27.8181466840446
 20
18.46043965977247
 30
0.0
 11
27.8181466840446
 21
18.49980973857247
 31
0.0
  0
LINE
  5
661
330
1F
100
AcDbEntity
  8
0
  6
Continuous
 62
     7
100
AcDbLine
 10
27.8192042096446
 20
20.88303530747248
 30
0.0
 11
27.8192042096446
 21
21.07409829957248
 31
0.0
  0
LINE
  5
662
330
1F
100
AcDbEntity
  8
0
  6
Continuous
 62
     7
100
AcDbLine
 10
27.8207688918446
 20
19.23721131337248
 30
0.0
 11
27.8207688918446
 21
19.17697509287247
 31
0.0
  0
LINE
  5
663
330
1F
100
AcDbEntity
  8
0
  6
Continuous
 62
     7
100
AcDbLine
 10
27.8299496174446
 20
19.23721131337248
 30
0.0
 11
27.8299496174446
 21
19.17697509287247
 31
0.0
  0
LINE
  5
664
330
1F
100
AcDbEntity
  8
02___PRT_ALL_AXES
  6
Continuous
 62
     7
100
AcDbLine
 10
27.8299577076446
 20
18.50768375427247
 30
0.0
 11
27.8299577076446
 21
18.94013298267247
 31
0.0
  0
LINE
  5
665
330
1F
100
AcDbEntity
  8
0
  6
Continuous
 62
     7
100
AcDbLine
 10
27.8300267992446
 20
18.45256564407247
 30
0.0
 11
27.8300267992446
 21
18.50768375427247
 31
0.0
  0
LINE
  5
666
330
1F
100
AcDbEntity
  8
02___PRT_ALL_AXES
  6
Continuous
 62
     7
100
AcDbLine
 10
27.8327332982446
 20
16.76208909147247
 30
0.0
 11
27.8327332982446
 21
16.74240405207247
 31
0.0
  0
LINE
  5
667
330
1F
100
AcDbEntity
  8
02___PRT_ALL_AXES
  6
Continuous
 62
     7
100
AcDbLine
 10
27.8327332982446
 20
16.73059302847247
 30
0.0
 11
27.8327332982446
 21
16.69122294977247
 31
0.0
  0
LINE
  5
668
330
1F
100
AcDbEntity
  8
02___PRT_ALL_AXES
  6
Continuous
 62
     7
100
AcDbLine
 10
27.8327332982446
 20
16.67941192617247
 30
0.0
 11
27.8327332982446
 21
16.64004184737247
 31
0.0
  0
LINE
  5
669
330
1F
100
AcDbEntity
  8
02___PRT_ALL_AXES
  6
Continuous
 62
     7
100
AcDbLine
 10
27.8327332982446
 20
16.62823082377247
 30
0.0
 11
27.8327332982446
 21
16.60460877647247
 31
0.0
  0
LINE
  5
66A
330
1F
100
AcDbEntity
  8
0
  6
Continuous
 62
     7
100
AcDbLine
 10
27.8339338790446
 20
19.17962469917247
 30
0.0
 11
27.8339338790446
 21
19.17697509287247
 31
0.0
  0
LINE
  5
66B
330
1F
100
AcDbEntity
  8
0
  6
Continuous
 62
     7
100
AcDbLine
 10
27.8340481111446
 20
20.81642113427248
 30
0.0
 11
27.8340481111446
 21
20.87508255157247
 31
0.0
  0
LINE
  5
66C
330
1F
100
AcDbEntity
  8
0
  6
Continuous
 62
     7
100
AcDbLine
 10
27.8341648395446
 20
19.19587273067248
 30
0.0
 11
27.8341648395446
 21
19.18603021097247
 31
0.0
  0
LINE
  5
66D
330
1F
100
AcDbEntity
  8
0
  6
Continuous
 62
     7
100
AcDbLine
 10
27.8361333435446
 20
19.20571525037247
 30
0.0
 11
27.8361333435446
 21
19.19980973857247
 31
0.0
  0
LINE
  5
66E
330
1F
100
AcDbEntity
  8
ALL_FEATURES
  6
Continuous
 62
     7
100
AcDbLine
 10
27.8398002273446
 20
18.25914044717247
 30
0.0
 11
27.8398002273446
 21
18.45256564407247
 31
0.0
  0
LINE
  5
66F
330
1F
100
AcDbEntity
  8
0
  6
Continuous
 62
     7
100
AcDbLine
 10
27.8475287865446
 20
19.23721131337248
 30
0.0
 11
27.8475287865446
 21
19.20571525037247
 31
0.0
  0
LINE
  5
670
330
1F
100
AcDbEntity
  8
0
  6
Continuous
 62
     7
100
AcDbLine
 10
27.8475287865446
 20
19.19980973857247
 30
0.0
 11
27.8475287865446
 21
19.19587273067248
 31
0.0
  0
LINE
  5
671
330
1F
100
AcDbEntity
  8
0
  6
Continuous
 62
     7
100
AcDbLine
 10
27.8617238946446
 20
19.19980973857247
 30
0.0
 11
27.8617238946446
 21
19.19587273067248
 31
0.0
  0
LINE
  5
672
330
1F
100
AcDbEntity
  8
0
  6
Continuous
 62
     7
100
AcDbLine
 10
27.8659177678446
 20
20.25438787447248
 30
0.0
 11
27.8659177678446
 21
20.22426086317247
 31
0.0
  0
LINE
  5
673
330
1F
100
AcDbEntity
  8
0
  6
Continuous
 62
     7
100
AcDbLine
 10
27.8672357071446
 20
19.20571525037247
 30
0.0
 11
27.8672357067446
 21
19.25689635267248
 31
0.0
  0
LINE
  5
674
330
1F
100
AcDbEntity
  8
0
  6
Continuous
 62
     7
100
AcDbLine
 10
27.8721033769446
 20
16.74240405207247
 30
0.0
 11
27.8721033769446
 21
16.73059302847247
 31
0.0
  0
LINE
  5
675
330
1F
100
AcDbEntity
  8
0
  6
Continuous
 62
     7
100
AcDbLine
 10
27.8721033769446
 20
16.69122294977247
 30
0.0
 11
27.8721033769446
 21
16.67941192617247
 31
0.0
  0
LINE
  5
676
330
1F
100
AcDbEntity
  8
0
  6
Continuous
 62
     7
100
AcDbLine
 10
27.8721033769446
 20
16.64004184737247
 30
0.0
 11
27.8721033769446
 21
16.62823082377247
 31
0.0
  0
LINE
  5
677
330
1F
100
AcDbEntity
  8
0
  6
Continuous
 62
     7
100
AcDbLine
 10
27.8785511761446
 20
20.91858648857247
 30
0.0
 11
27.8785511761446
 21
20.90077640817248
 31
0.0
  0
LINE
  5
678
330
1F
100
AcDbEntity
  8
0
  6
Continuous
 62
     7
100
AcDbLine
 10
27.8785511761446
 20
20.77291719727248
 30
0.0
 11
27.8785511761446
 21
20.79072727767247
 31
0.0
  0
LINE
  5
679
330
1F
100
AcDbEntity
  8
02___PRT_ALL_AXES
  6
Continuous
 62
     7
100
AcDbLine
 10
27.8789448769446
 20
20.85953137047248
 30
0.0
 11
27.8789448769446
 21
20.86740538627247
 31
0.0
  0
LINE
  5
67A
330
1F
100
AcDbEntity
  8
0
  6
Continuous
 62
     7
100
AcDbLine
 10
27.8789448769446
 20
20.84968885077247
 30
0.0
 11
27.8789448769446
 21
20.85953137047248
 31
0.0
  0
LINE
  5
67B
330
1F
100
AcDbEntity
  8
02___PRT_ALL_AXES
  6
Continuous
 62
     7
100
AcDbLine
 10
27.8907559005446
 20
20.85953137047248
 30
0.0
 11
27.8907559005446
 21
20.86740538627247
 31
0.0
  0
LINE
  5
67C
330
1F
100
AcDbEntity
  8
0
  6
Continuous
 62
     7
100
AcDbLine
 10
27.8907559005446
 20
20.84968885077247
 30
0.0
 11
27.8907559005446
 21
20.85953137047248
 31
0.0
  0
LINE
  5
67D
330
1F
100
AcDbEntity
  8
0
  6
Continuous
 62
     7
100
AcDbLine
 10
27.8911496013446
 20
20.79072727767247
 30
0.0
 11
27.8911496013446
 21
20.77291719727248
 31
0.0
  0
LINE
  5
67E
330
1F
100
AcDbEntity
  8
0
  6
Continuous
 62
     7
100
AcDbLine
 10
27.8911496013446
 20
20.90077640817248
 30
0.0
 11
27.8911496013446
 21
20.91858648857247
 31
0.0
  0
LINE
  5
67F
330
1F
100
AcDbEntity
  8
0
  6
Continuous
 62
     7
100
AcDbLine
 10
27.9059419596446
 20
20.45847098127247
 30
0.0
 11
27.9059419596446
 21
20.48209302857247
 31
0.0
  0
LINE
  5
680
330
1F
100
AcDbEntity
  8
0
  6
Continuous
 62
     7
100
AcDbLine
 10
27.9059419596446
 20
20.64744735927248
 30
0.0
 11
27.9059419596446
 21
20.67106940647247
 31
0.0
  0
LINE
  5
681
330
1F
100
AcDbEntity
  8
0
  6
Continuous
 62
     7
100
AcDbLine
 10
27.9140861004446
 20
19.25319430757247
 30
0.0
 11
27.9140861004446
 21
19.25055897047247
 31
0.0
  0
LINE
  5
682
330
1F
100
AcDbEntity
  8
0
  6
Continuous
 62
     7
100
AcDbLine
 10
27.9144101249446
 20
21.08512192167248
 30
0.0
 11
27.9144101249446
 21
21.08197231537248
 31
0.0
  0
LINE
  5
683
330
1F
100
AcDbEntity
  8
0
  6
Continuous
 62
     7
100
AcDbLine
 10
27.9170736369446
 20
20.22917715587247
 30
0.0
 11
27.9170736369446
 21
20.26185904107248
 31
0.0
  0
LINE
  5
684
330
1F
100
AcDbEntity
  8
0
  6
Continuous
 62
     7
100
AcDbLine
 10
27.9222841407446
 20
21.08590932327247
 30
0.0
 11
27.9222841407446
 21
21.09094645867247
 31
0.0
  0
LINE
  5
685
330
1F
100
AcDbEntity
  8
0
  6
Continuous
 62
     7
100
AcDbLine
 10
27.9247741887446
 20
19.23721131337248
 30
0.0
 11
27.9247741887446
 21
19.17697509287247
 31
0.0
  0
LINE
  5
686
330
1F
100
AcDbEntity
  8
0
  6
Continuous
 62
     7
100
AcDbLine
 10
27.9262211486446
 20
21.09094645867247
 30
0.0
 11
27.9262211486446
 21
21.08590932327247
 31
0.0
  0
LINE
  5
687
330
1F
100
AcDbEntity
  8
0
  6
Continuous
 62
     7
100
AcDbLine
 10
27.9340951643446
 20
21.08512192167248
 30
0.0
 11
27.9340951643446
 21
21.08197231537248
 31
0.0
  0
LINE
  5
688
330
1F
100
AcDbEntity
  8
0
  6
Continuous
 62
     7
100
AcDbLine
 10
27.9356526663446
 20
20.87508255157247
 30
0.0
 11
27.9356526663446
 21
20.81642113427248
 31
0.0
  0
LINE
  5
689
330
1F
100
AcDbEntity
  8
0
  6
Continuous
 62
     7
100
AcDbLine
 10
27.9382254242446
 20
19.14351035127247
 30
0.0
 11
27.9382254242446
 21
19.17486497097247
 31
0.0
  0
LINE
  5
68A
330
1F
100
AcDbEntity
  8
0
  6
Continuous
 62
     7
100
AcDbLine
 10
27.9382254242446
 20
19.32067570567247
 30
0.0
 11
27.9382254242446
 21
20.22426086317247
 31
0.0
  0
LINE
  5
68B
330
1F
100
AcDbEntity
  8
0
  6
Continuous
 62
     7
100
AcDbLine
 10
27.9384955511446
 20
19.16713257317247
 30
0.0
 11
27.9384955511446
 21
19.16910059047247
 31
0.0
  0
LINE
  5
68C
330
1F
100
AcDbEntity
  8
0
  6
Continuous
 62
     7
100
AcDbLine
 10
27.7936872665446
 20
19.06870720167247
 30
0.0
 11
27.7943400636446
 21
19.14351035127247
 31
0.0
  0
LWPOLYLINE
  5
68D
330
1F
100
AcDbEntity
  8
06___PRT_ALL_SURFS
  6
Continuous
 62
     7
100
AcDbPolyline
 90
        5
 70
     0
 43
0.0
 10
28.2588475841446
 20
20.34116302637247
 10
28.2613130800446
 20
20.35255058457248
 10
28.2636812769446
 20
20.36403151877248
 10
28.2659105246446
 20
20.37539814417248
 10
28.2680046394446
 20
20.38664806707247
  0
LINE
  5
68E
330
1F
100
AcDbEntity
  8
0
  6
Continuous
 62
     7
100
AcDbLine
 10
27.7551545580446
 20
19.06870720167247
 30
0.0
 11
27.7614322706446
 21
19.02699360017247
 31
0.0
  0
LINE
  5
68F
330
1F
100
AcDbEntity
  8
0
  6
Continuous
 62
     7
100
AcDbLine
 10
28.0526173714446
 20
19.32067570567247
 30
0.0
 11
28.0531816991446
 21
19.30451547537247
 31
0.0
  0
LINE
  5
690
330
1F
100
AcDbEntity
  8
02___PRT_ALL_AXES
  6
Continuous
 62
     7
100
AcDbLine
 10
27.9808952579446
 20
21.08197231537248
 30
0.0
 11
27.9808422787446
 21
21.08412255707248
 31
0.0
  0
LINE
  5
691
330
1F
100
AcDbEntity
  8
0
  6
Continuous
 62
     7
100
AcDbLine
 10
27.9451884616446
 20
20.97173331217248
 30
0.0
 11
27.9451884616446
 21
21.06622725427248
 31
0.0
  0
LINE
  5
692
330
1F
100
AcDbEntity
  8
06___PRT_ALL_SURFS
  6
Continuous
 62
     7
100
AcDbLine
 10
27.9460994399446
 20
19.14351035127247
 30
0.0
 11
27.9460994399446
 21
19.17486497097247
 31
0.0
  0
LINE
  5
693
330
1F
100
AcDbEntity
  8
06___PRT_ALL_SURFS
  6
Continuous
 62
     7
100
AcDbLine
 10
27.9460994399446
 20
19.32067570567247
 30
0.0
 11
27.9460994399446
 21
20.22426086317247
 31
0.0
  0
LINE
  5
694
330
1F
100
AcDbEntity
  8
0
  6
Continuous
 62
     7
100
AcDbLine
 10
27.9571230619446
 20
19.29311665057247
 30
0.0
 11
27.9571230619446
 21
19.28130562687247
 31
0.0
  0
LINE
  5
695
330
1F
100
AcDbEntity
  8
0
  6
Continuous
 62
     7
100
AcDbLine
 10
27.9601034080446
 20
19.23721131337248
 30
0.0
 11
27.9601034080446
 21
19.17697509287247
 31
0.0
  0
LINE
  5
696
330
1F
100
AcDbEntity
  8
0
  6
Continuous
 62
     7
100
AcDbLine
 10
27.9761287550446
 20
20.26002670877247
 30
0.0
 11
27.9761287550446
 21
20.22426086317247
 31
0.0
  0
LINE
  5
697
330
1F
100
AcDbEntity
  8
0
  6
Continuous
 62
     7
100
AcDbLine
 10
27.9766845246446
 20
21.06819266517248
 30
0.0
 11
27.9766845246446
 21
21.05398386107248
 31
0.0
  0
LINE
  5
698
330
1F
100
AcDbEntity
  8
0
  6
Continuous
 62
     7
100
AcDbLine
 10
27.9766845246446
 20
20.98397997597247
 30
0.0
 11
27.9766845246446
 21
20.96976771357248
 31
0.0
  0
LINE
  5
699
330
1F
100
AcDbEntity
  8
0
  6
Continuous
 62
     7
100
AcDbLine
 10
28.0102726682446
 20
19.29311665057247
 30
0.0
 11
28.0102726682446
 21
19.32067570567247
 31
0.0
  0
LINE
  5
69A
330
1F
100
AcDbEntity
  8
0
  6
Continuous
 62
     7
100
AcDbLine
 10
28.0128353218446
 20
21.08512192167248
 30
0.0
 11
28.0128353218446
 21
21.08197231537248
 31
0.0
  0
LINE
  5
69B
330
1F
100
AcDbEntity
  8
0
  6
Continuous
 62
     7
100
AcDbLine
 10
28.0161781801446
 20
17.92153791037247
 30
0.0
 11
28.0161781801446
 21
18.13807334347247
 31
0.0
  0
LINE
  5
69C
330
1F
100
AcDbEntity
  8
0
  6
Continuous
 62
     7
100
AcDbLine
 10
28.0176294079446
 20
19.20571525037247
 30
0.0
 11
28.0176294078446
 21
19.21254841567247
 31
0.0
  0
LINE
  5
69D
330
1F
100
AcDbEntity
  8
0
  6
Continuous
 62
     7
100
AcDbLine
 10
28.0207093375446
 20
21.08590932327247
 30
0.0
 11
28.0207093375446
 21
21.09094645867247
 31
0.0
  0
LINE
  5
69E
330
1F
100
AcDbEntity
  8
0
  6
Continuous
 62
     7
100
AcDbLine
 10
28.0220836919446
 20
19.32067570567247
 30
0.0
 11
28.0220836919446
 21
19.29311665057247
 31
0.0
  0
LINE
  5
69F
330
1F
100
AcDbEntity
  8
0
  6
Continuous
 62
     7
100
AcDbLine
 10
28.0231412175446
 20
19.19980973857247
 30
0.0
 11
28.0231412175446
 21
19.19587273067248
 31
0.0
  0
LINE
  5
6A0
330
1F
100
AcDbEntity
  8
0
  6
Continuous
 62
     7
100
AcDbLine
 10
28.0239286190446
 20
21.04653924447248
 30
0.0
 11
28.0239286190446
 21
20.99142113427248
 31
0.0
  0
LINE
  5
6A1
330
1F
100
AcDbEntity
  8
0
  6
Continuous
 62
     7
100
AcDbLine
 10
28.0240521958446
 20
20.27544196547248
 30
0.0
 11
28.0240521958446
 21
20.26284354027247
 31
0.0
  0
LINE
  5
6A2
330
1F
100
AcDbEntity
  8
0
  6
Continuous
 62
     7
100
AcDbLine
 10
28.0246463454446
 20
21.09094645867247
 30
0.0
 11
28.0246463454446
 21
21.08590932327247
 31
0.0
  0
LINE
  5
6A3
330
1F
100
AcDbEntity
  8
0
  6
Continuous
 62
     7
100
AcDbLine
 10
28.0325203612446
 20
21.08512192167248
 30
0.0
 11
28.0325203612446
 21
21.08197231537248
 31
0.0
  0
LINE
  5
6A4
330
1F
100
AcDbEntity
  8
0
  6
Continuous
 62
     7
100
AcDbLine
 10
28.0346729881446
 20
20.22831962427248
 30
0.0
 11
28.0346729881446
 21
20.22426086317247
 31
0.0
  0
LINE
  5
6A5
330
1F
100
AcDbEntity
  8
0
  6
Continuous
 62
     7
100
AcDbLine
 10
28.0358632194446
 20
17.83098672927247
 30
0.0
 11
28.0358632194446
 21
17.34673476077247
 31
0.0
  0
LINE
  5
6A6
330
1F
100
AcDbEntity
  8
0
  6
Continuous
 62
     7
100
AcDbLine
 10
28.0377908150446
 20
20.23175225287248
 30
0.0
 11
28.0377908150446
 21
20.22426086317247
 31
0.0
  0
LINE
  5
6A7
330
1F
100
AcDbEntity
  8
ALL_AXES
  6
Continuous
 62
     7
100
AcDbLine
 10
28.0378317234446
 20
19.15532137497247
 30
0.0
 11
28.0378317234446
 21
19.18959123897247
 31
0.0
  0
LINE
  5
6A8
330
1F
100
AcDbEntity
  8
ALL_AXES
  6
Continuous
 62
     7
100
AcDbLine
 10
28.0378317234446
 20
20.52540011517248
 30
0.0
 11
28.0378317234446
 21
20.60414027257247
 31
0.0
  0
LINE
  5
6A9
330
1F
100
AcDbEntity
  8
0
  6
Continuous
 62
     7
100
AcDbLine
 10
28.0396476664446
 20
20.22426086317247
 30
0.0
 11
28.0396476664446
 21
20.23175225287248
 31
0.0
  0
LINE
  5
6AA
330
1F
100
AcDbEntity
  8
0
  6
Continuous
 62
     7
100
AcDbLine
 10
28.0437372352446
 20
19.18288043007247
 30
0.0
 11
28.0437372352446
 21
19.09626625687247
 31
0.0
  0
LINE
  5
6AB
330
1F
100
AcDbEntity
  8
0
  6
Continuous
 62
     7
100
AcDbLine
 10
28.0437372352446
 20
17.83098672927247
 30
0.0
 11
28.0437372352446
 21
17.34673476077247
 31
0.0
  0
LINE
  5
6AC
330
1F
100
AcDbEntity
  8
0
  6
Continuous
 62
     7
100
AcDbLine
 10
28.0437372352446
 20
20.46634499707248
 30
0.0
 11
28.0437372352446
 21
20.66319539077247
 31
0.0
  0
LINE
  5
6AD
330
1F
100
AcDbEntity
  8
ALL_FEATURES
  6
Continuous
 62
     7
100
AcDbLine
 10
28.0445246368446
 20
18.25914044717247
 30
0.0
 11
28.0445246368446
 21
18.45256564407247
 31
0.0
  0
LINE
  5
6AE
330
1F
100
AcDbEntity
  8
0
  6
Continuous
 62
     7
100
AcDbLine
 10
28.0452641419446
 20
20.22426086317247
 30
0.0
 11
28.0452641419446
 21
20.23175225287248
 31
0.0
  0
LINE
  5
6AF
330
1F
100
AcDbEntity
  8
0
  6
Continuous
 62
     7
100
AcDbLine
 10
28.0467960094446
 20
20.23765776467248
 30
0.0
 11
28.0467960094446
 21
20.23814779427247
 31
0.0
  0
LINE
  5
6B0
330
1F
100
AcDbEntity
  8
0
  6
Continuous
 62
     7
100
AcDbLine
 10
28.0476742431446
 20
17.66858515447247
 30
0.0
 11
28.0476742431446
 21
17.74732531197247
 31
0.0
  0
LINE
  5
6B1
330
1F
100
AcDbEntity
  8
0
  6
Continuous
 62
     7
100
AcDbLine
 10
28.0507107034446
 20
20.22426086317247
 30
0.0
 11
28.0507107034446
 21
20.23175225287248
 31
0.0
  0
LINE
  5
6B2
330
1F
100
AcDbEntity
  8
0
  6
Continuous
 62
     7
100
AcDbLine
 10
28.0516112509446
 20
16.30886468207247
 30
0.0
 11
28.0516112509446
 21
16.26949460327247
 31
0.0
  0
LINE
  5
6B3
330
1F
100
AcDbEntity
  8
0
  6
Continuous
 62
     7
100
AcDbLine
 10
28.0542980649446
 20
18.45256564407247
 30
0.0
 11
28.0542980649446
 21
18.50768375427247
 31
0.0
  0
LINE
  5
6B4
330
1F
100
AcDbEntity
  8
02___PRT_ALL_AXES
  6
Continuous
 62
     7
100
AcDbLine
 10
28.0543671564446
 20
18.50768375427247
 30
0.0
 11
28.0543671564446
 21
18.94013298267247
 31
0.0
  0
LINE
  5
6B5
330
1F
100
AcDbEntity
  8
0
  6
Continuous
 62
     7
100
AcDbLine
 10
28.0555482588446
 20
21.09771901277247
 30
0.0
 11
28.0555482588446
 21
16.84181350097247
 31
0.0
  0
LINE
  5
6B6
330
1F
100
AcDbEntity
  8
0
  6
Continuous
 62
     7
100
AcDbLine
 10
28.0614537706446
 20
16.30886468207247
 30
0.0
 11
28.0614537706446
 21
16.84181350097247
 31
0.0
  0
LINE
  5
6B7
330
1F
100
AcDbEntity
  8
0
  6
Continuous
 62
     7
100
AcDbLine
 10
27.9797389887446
 20
19.32067570567247
 30
0.0
 11
27.9791746610446
 21
19.30451547537247
 31
0.0
  0
LWPOLYLINE
  5
6B8
330
1F
100
AcDbEntity
  8
0
  6
Continuous
 62
     7
100
AcDbPolyline
 90
       11
 70
     0
 43
0.0
 10
28.2865952333446
 20
20.65726479397247
 10
28.2866458000446
 20
20.65779770597247
 10
28.2866892494446
 20
20.65829754527248
 10
28.2867256855446
 20
20.65876527017247
 10
28.2867552857446
 20
20.65920289767248
 10
28.2867783189446
 20
20.65961509827248
 10
28.2867946852446
 20
20.66000175097248
 10
28.2868043907446
 20
20.66036579427247
 10
28.2868072814446
 20
20.66071648667248
 10
28.2868027389446
 20
20.66105025167248
 10
28.2868015142446
 20
20.66109451737248
  0
LINE
  5
6B9
330
1F
100
AcDbEntity
  8
0
  6
Continuous
 62
     7
100
AcDbLine
 10
28.2849441213446
 20
20.48329246357248
 30
0.0
 11
28.2849309508446
 21
20.48316421097247
 31
0.0
  0
LWPOLYLINE
  5
6BA
330
1F
100
AcDbEntity
  8
0
  6
Continuous
 62
     7
100
AcDbPolyline
 90
       11
 70
     0
 43
0.0
 10
28.2783390346446
 20
20.45478627097248
 10
28.2783482127446
 20
20.45486237577248
 10
28.2783776203446
 20
20.45512783577247
 10
28.2784049382446
 20
20.45540856447248
 10
28.2784304459446
 20
20.45570666907247
 10
28.2784541566446
 20
20.45602181407247
 10
28.2784763316446
 20
20.45635735297247
 10
28.2784970169446
 20
20.45671456667248
 10
28.2785162025446
 20
20.45709401577248
 10
28.2785339464446
 20
20.45749793887247
 10
28.2785502190446
 20
20.45792722547247
  0
LWPOLYLINE
  5
6BB
330
1F
100
AcDbEntity
  8
0
  6
Continuous
 62
     7
100
AcDbPolyline
 90
        9
 70
     0
 43
0.0
 10
28.2858993077446
 20
20.65151380687248
 10
28.2860177206446
 20
20.65240140267247
 10
28.2861264096446
 20
20.65323505567247
 10
28.2862257207446
 20
20.65401743267248
 10
28.2863161634446
 20
20.65475244067247
 10
28.2863980175446
 20
20.65544220147248
 10
28.2864715625446
 20
20.65608880617247
 10
28.2865372257446
 20
20.65669573097247
 10
28.2865952333446
 20
20.65726479397247
  0
LINE
  5
6BC
330
1F
100
AcDbEntity
  8
0
  6
Continuous
 62
     7
100
AcDbLine
 10
28.2856316848446
 20
20.64956334217248
 30
0.0
 11
28.2858993077446
 21
20.65151380687248
 31
0.0
  0
LINE
  5
6BD
330
1F
100
AcDbEntity
  8
0
  6
Continuous
 62
     7
100
AcDbLine
 10
28.2853479994446
 20
20.64755097177247
 30
0.0
 11
28.2856316848446
 21
20.64956334217248
 31
0.0
  0
LWPOLYLINE
  5
6BE
330
1F
100
AcDbEntity
  8
06___PRT_ALL_SURFS
  6
Continuous
 62
     7
100
AcDbPolyline
 90
        7
 70
     0
 43
0.0
 10
28.2699864156446
 20
20.39789300797247
 10
28.2718029906446
 20
20.40879120187248
 10
28.2735250807446
 20
20.41974843077247
 10
28.2751260064446
 20
20.43058255087247
 10
28.2765825037446
 20
20.44109091847248
 10
28.2778987783446
 20
20.45123392947248
 10
28.2783402364446
 20
20.45479618797248
  0
LINE
  5
6BF
330
1F
100
AcDbEntity
  8
06___PRT_ALL_SURFS
  6
Continuous
 62
     7
100
AcDbLine
 10
28.2699471995446
 20
20.39766439997248
 30
0.0
 11
28.2699864156446
 21
20.39789300797247
 31
0.0
  0
LINE
  5
6C0
330
1F
100
AcDbEntity
  8
06___PRT_ALL_SURFS
  6
Continuous
 62
     7
100
AcDbLine
 10
28.2680046394446
 20
20.38664806707247
 30
0.0
 11
28.2699471995446
 21
20.39766439997248
 31
0.0
  0
LINE
  5
6C1
330
1F
100
AcDbEntity
  8
02___PRT_ALL_AXES
  6
Continuous
 62
     7
100
AcDbLine
 10
27.8299577076446
 20
18.94013298267247
 30
0.0
 11
28.0543671564446
 21
18.94013298267247
 31
0.0
  0
LINE
  5
6C2
330
1F
100
AcDbEntity
  8
02___PRT_ALL_AXES
  6
Continuous
 62
     7
100
AcDbLine
 10
27.8173592824446
 20
18.95812527267247
 30
0.0
 11
28.0555482588446
 21
18.95812527267247
 31
0.0
  0
LINE
  5
6C3
330
1F
100
AcDbEntity
  8
02___PRT_ALL_AXES
  6
Continuous
 62
     7
100
AcDbLine
 10
27.8299577076446
 20
18.94013298267247
 30
0.0
 11
27.8173592824446
 21
18.95812527267247
 31
0.0
  0
LINE
  5
6C4
330
1F
100
AcDbEntity
  8
0
  6
Continuous
 62
     7
100
AcDbLine
 10
28.1992490462446
 20
16.30886468207247
 30
0.0
 11
28.1992490462446
 21
16.84181350097247
 31
0.0
  0
LINE
  5
6C5
330
1F
100
AcDbEntity
  8
0
  6
Continuous
 62
     7
100
AcDbLine
 10
28.2090915659446
 20
16.30886468207247
 30
0.0
 11
28.2090915659446
 21
16.26949460327247
 31
0.0
  0
LINE
  5
6C6
330
1F
100
AcDbEntity
  8
0
  6
Continuous
 62
     7
100
AcDbLine
 10
28.2130285738446
 20
21.09771901277247
 30
0.0
 11
28.2130285738446
 21
16.84181350097247
 31
0.0
  0
LINE
  5
6C7
330
1F
100
AcDbEntity
  8
ALL_AXES
  6
Continuous
 62
     7
100
AcDbLine
 10
28.2272454696446
 20
18.22370737637247
 30
0.0
 11
28.2272454696446
 21
18.01898296687247
 31
0.0
  0
LINE
  5
6C8
330
1F
100
AcDbEntity
  8
ALL_AXES
  6
Continuous
 62
     7
100
AcDbLine
 10
28.2363804970446
 20
18.22370737637247
 30
0.0
 11
28.2363804970446
 21
18.01898296687247
 31
0.0
  0
LINE
  5
6C9
330
1F
100
AcDbEntity
  8
0
  6
Continuous
 62
     7
100
AcDbLine
 10
28.2466935895446
 20
20.33962039067247
 30
0.0
 11
28.2466935895446
 21
20.91836054817247
 31
0.0
  0
LINE
  5
6CA
330
1F
100
AcDbEntity
  8
0
  6
Continuous
 62
     7
100
AcDbLine
 10
28.2758757083446
 20
20.55799124387247
 30
0.0
 11
28.2758772319446
 21
20.55812227517247
 31
0.0
  0
LINE
  5
6CB
330
1F
100
AcDbEntity
  8
0
  6
Continuous
 62
     7
100
AcDbLine
 10
28.2690964073446
 20
20.55815180857248
 30
0.0
 11
28.2691171569446
 21
20.55951333177247
 31
0.0
  0
LWPOLYLINE
  5
6CC
330
1F
100
AcDbEntity
  8
0
  6
Continuous
 62
     7
100
AcDbPolyline
 90
       61
 70
     0
 43
0.0
 10
28.2691171569446
 20
20.55951333177247
 10
28.2691988414446
 20
20.56326192337247
 10
28.2693162843446
 20
20.56698118907247
 10
28.2694662200446
 20
20.57063511897248
 10
28.2696469165446
 20
20.57420844727248
 10
28.2698567394446
 20
20.57769734067247
 10
28.2700921846446
 20
20.58108720807247
 10
28.2703499680446
 20
20.58437137257248
 10
28.2706287588446
 20
20.58755723067247
 10
28.2709258665446
 20
20.59064229797247
 10
28.2712386563446
 20
20.59362616497248
 10
28.2715662196446
 20
20.59652017227248
 10
28.2719065969446
 20
20.59932631677248
 10
28.2722579973446
 20
20.60204558557248
 10
28.2726197214446
 20
20.60468732337247
 10
28.2729903325446
 20
20.60725293227247
 10
28.2733685198446
 20
20.60974471127247
 10
28.2737542531446
 20
20.61217180977248
 10
28.2741463964446
 20
20.61453536667248
 10
28.2745438917446
 20
20.61683646287248
 10
28.2749468482446
 20
20.61908229237248
 10
28.2753548449446
 20
20.62127602857247
 10
28.2757663739446
 20
20.62341475087247
 10
28.2761799572446
 20
20.62549585407248
 10
28.2765958702446
 20
20.62752535027247
 10
28.2770121173446
 20
20.62949773697248
 10
28.2774241038446
 20
20.63139618607247
 10
28.2778314234446
 20
20.63322393667248
 10
28.2782334248446
 20
20.63498267327247
 10
28.2786256572446
 20
20.63665768027247
 10
28.2790076969446
 20
20.63825200587247
 10
28.2793797188446
 20
20.63977066527247
 10
28.2797387077446
 20
20.64120546297247
 10
28.2800840587446
 20
20.64255806697248
 10
28.2804167954446
 20
20.64383608277247
 10
28.2807366300446
 20
20.64504151537247
 10
28.2810436972446
 20
20.64617776177248
 10
28.2813384267446
 20
20.64724889847248
 10
28.2816210231446
 20
20.64825794197247
 10
28.2818917735446
 20
20.64920797307248
 10
28.2821509912446
 20
20.65010187947247
 10
28.2823989192446
 20
20.65094217447247
 10
28.2826357580446
 20
20.65173109617248
 10
28.2828619120446
 20
20.65247134917248
 10
28.2830778881446
 20
20.65316583397247
 10
28.2832839115446
 20
20.65381644487247
 10
28.2834802795446
 20
20.65442519157247
 10
28.2836675133446
 20
20.65499461997248
 10
28.2838458468446
 20
20.65552631157247
 10
28.2840154427446
 20
20.65602159837248
 10
28.2841765969446
 20
20.65648214637247
 10
28.2843295352446
 20
20.65690930907248
 10
28.2844742820446
 20
20.65730384487247
 10
28.2846106957446
 20
20.65766609387247
 10
28.2847391708446
 20
20.65799782617248
 10
28.2848593838446
 20
20.65829892917248
 10
28.2849699877446
 20
20.65856692707248
 10
28.2850713551446
 20
20.65880377157247
 10
28.2851630033446
 20
20.65900943797247
 10
28.2852420423446
 20
20.65917906437247
 10
28.2852820593446
 20
20.65926166867248
  0
LWPOLYLINE
  5
6CD
330
1F
100
AcDbEntity
  8
06___PRT_ALL_SURFS
  6
Continuous
 62
     7
100
AcDbPolyline
 90
       10
 70
     0
 43
0.0
 10
28.2894183718446
 20
20.55788960917248
 10
28.2896445915446
 20
20.56697233187248
 10
28.2898201950446
 20
20.57623661397248
 10
28.2899379932446
 20
20.58528535537248
 10
28.2900019129446
 20
20.59414291667247
 10
28.2900152965446
 20
20.60278435817247
 10
28.2899822809446
 20
20.61113545197247
 10
28.2899078771446
 20
20.61917136767247
 10
28.2897965915446
 20
20.62691665387248
 10
28.2897075497446
 20
20.63174554067248
  0
LWPOLYLINE
  5
6CE
330
1F
100
AcDbEntity
  8
0
  6
Continuous
 62
     7
100
AcDbPolyline
 90
       14
 70
     0
 43
0.0
 10
28.2785502190446
 20
20.45792722547247
 10
28.2785649923446
 20
20.45838293807248
 10
28.2785782658446
 20
20.45886773597247
 10
28.2785899591446
 20
20.45938304797247
 10
28.2785999769446
 20
20.45993008957248
 10
28.2786082400446
 20
20.46051158427248
 10
28.2786146359446
 20
20.46112915737248
 10
28.2786190475446
 20
20.46178438867247
 10
28.2786213568446
 20
20.46248028277247
 10
28.2786214268446
 20
20.46321878717248
 10
28.2786190976446
 20
20.46400195297247
 10
28.2786141801446
 20
20.46483339387247
 10
28.2786064773446
 20
20.46571572487247
 10
28.2785881090446
 20
20.46720050697247
  0
LWPOLYLINE
  5
6CF
330
1F
100
AcDbEntity
  8
06___PRT_ALL_SURFS
  6
Continuous
 62
     7
100
AcDbPolyline
 90
       10
 70
     0
 43
0.0
 10
28.2849441213446
 20
20.48329246357248
 10
28.2855197182446
 20
20.48973239197247
 10
28.2862401295446
 20
20.49842939857247
 10
28.2868953778446
 20
20.50712869247248
 10
28.2874854525446
 20
20.51582972737248
 10
28.2880103471446
 20
20.52453201517248
 10
28.2884700574446
 20
20.53323512667247
 10
28.2888645742446
 20
20.54193857577248
 10
28.2891938853446
 20
20.55064181907248
 10
28.2894183722446
 20
20.55788962347248
  0
LINE
  5
6D0
330
1F
100
AcDbEntity
  8
0
  6
Continuous
 62
     7
100
AcDbLine
 10
28.0555482588446
 20
19.01358918617247
 30
0.0
 11
27.7770049375446
 21
19.01358918617247
 31
0.0
  0
LINE
  5
6D1
330
1F
100
AcDbEntity
  8
0
  6
Continuous
 62
     7
100
AcDbLine
 10
27.7551578266446
 20
19.06870720167247
 30
0.0
 11
28.0555482588446
 21
19.06870720167247
 31
0.0
  0
LINE
  5
6D2
330
1F
100
AcDbEntity
  8
0
  6
Continuous
 62
     7
100
AcDbLine
 10
28.0555482588446
 20
19.09626625687247
 30
0.0
 11
28.0437372352446
 21
19.09626625687247
 31
0.0
  0
LINE
  5
6D3
330
1F
100
AcDbEntity
  8
0
  6
Continuous
 62
     7
100
AcDbLine
 10
27.8144125738446
 20
19.25647618947247
 30
0.0
 11
27.8148102090446
 21
19.25612595857247
 31
0.0
  0
LWPOLYLINE
  5
6D4
330
1F
100
AcDbEntity
  8
0
  6
Continuous
 62
     7
100
AcDbPolyline
 90
       18
 70
     0
 43
0.0
 10
27.8148102090446
 20
19.25612595857247
 10
27.8152573009446
 20
19.25566367617247
 10
27.8157448518446
 20
19.25508123967247
 10
27.8162476142446
 20
19.25439454287247
 10
27.8167549401446
 20
19.25360886887247
 10
27.8172601324446
 20
19.25272535907247
 10
27.8177505745446
 20
19.25175750407247
 10
27.8182181609446
 20
19.25071534627247
 10
27.8186579911446
 20
19.24960502247247
 10
27.8190656274446
 20
19.24843225657247
 10
27.8194359969446
 20
19.24720587587247
 10
27.8197651688446
 20
19.24593582457247
 10
27.8200513848446
 20
19.24462542477247
 10
27.8202913739446
 20
19.24328417907247
 10
27.8204833271446
 20
19.24192229497247
 10
27.8206270061446
 20
19.24054071087247
 10
27.8207210040446
 20
19.23914554997248
 10
27.8207650208446
 20
19.23775074247247
  0
LINE
  5
6D5
330
1F
100
AcDbEntity
  8
0
  6
Continuous
 62
     7
100
AcDbLine
 10
28.0437372352446
 20
19.18288043007247
 30
0.0
 11
27.9571230619446
 21
19.28130562687247
 31
0.0
  0
LINE
  5
6D6
330
1F
100
AcDbEntity
  8
06___PRT_ALL_SURFS
  6
Continuous
 62
     7
100
AcDbLine
 10
28.2826514951446
 20
20.73902757637247
 30
0.0
 11
28.2800325260446
 21
20.76910264117247
 31
0.0
  0
LWPOLYLINE
  5
6D7
330
1F
100
AcDbEntity
  8
06___PRT_ALL_SURFS
  6
Continuous
 62
     7
100
AcDbPolyline
 90
        3
 70
     0
 43
0.0
 10
28.2868016995446
 20
20.66108798767247
 10
28.2862751501446
 20
20.67667346947247
 10
28.2857950342446
 20
20.68805314797248
  0
LWPOLYLINE
  5
6D8
330
1F
100
AcDbEntity
  8
06___PRT_ALL_SURFS
  6
Continuous
 62
     7
100
AcDbPolyline
 90
        5
 70
     0
 43
0.0
 10
28.2897063248446
 20
20.63180268407247
 10
28.2897014649446
 20
20.63199932727247
 10
28.2896823544446
 20
20.63254302467248
 10
28.2896510568446
 20
20.63314766397247
 10
28.2896034109446
 20
20.63382089237248
  0
LINE
  5
6D9
330
1F
100
AcDbEntity
  8
0
  6
Continuous
 62
     7
100
AcDbLine
 10
28.2897075497446
 20
20.63174554067248
 30
0.0
 11
28.2897071453446
 21
20.63176481467248
 31
0.0
  0
LINE
  5
6DA
330
1F
100
AcDbEntity
  8
0
  6
Continuous
 62
     7
100
AcDbLine
 10
28.2917687312446
 20
17.32901822537247
 30
0.0
 11
28.2917687312446
 21
17.84870326467247
 31
0.0
  0
LINE
  5
6DB
330
1F
100
AcDbEntity
  8
0
  6
Continuous
 62
     7
100
AcDbLine
 10
27.9382254242446
 20
19.14351035127247
 30
0.0
 11
27.7366220423446
 21
19.14351035127247
 31
0.0
  0
LINE
  5
6DC
330
1F
100
AcDbEntity
  8
06___PRT_ALL_SURFS
  6
Continuous
 62
     7
100
AcDbLine
 10
27.9460994399446
 20
19.14351035127247
 30
0.0
 11
28.0437372352446
 21
19.14351035127247
 31
0.0
  0
LINE
  5
6DD
330
1F
100
AcDbEntity
  8
ALL_AXES
  6
Continuous
 62
     7
100
AcDbLine
 10
28.0437372352446
 20
19.15532137497247
 30
0.0
 11
28.0378317234446
 21
19.15532137497247
 31
0.0
  0
LINE
  5
6DE
330
1F
100
AcDbEntity
  8
0
  6
Continuous
 62
     7
100
AcDbLine
 10
27.9384955511446
 20
19.16713257317247
 30
0.0
 11
27.9460994399446
 21
19.16713257317247
 31
0.0
  0
LINE
  5
6DF
330
1F
100
AcDbEntity
  8
06___PRT_ALL_SURFS
  6
Continuous
 62
     7
100
AcDbLine
 10
27.9460994399446
 20
19.17486497097247
 30
0.0
 11
28.0378317234446
 21
19.17486497097247
 31
0.0
  0
LINE
  5
6E0
330
1F
100
AcDbEntity
  8
0
  6
Continuous
 62
     7
100
AcDbLine
 10
27.7807451092446
 20
19.17486462587247
 30
0.0
 11
27.9382254242446
 21
19.17486497097247
 31
0.0
  0
LINE
  5
6E1
330
1F
100
AcDbEntity
  8
0
  6
Continuous
 62
     7
100
AcDbLine
 10
28.0378317234446
 20
19.17697509287247
 30
0.0
 11
27.7807451092446
 21
19.17697509287247
 31
0.0
  0
LINE
  5
6E2
330
1F
100
AcDbEntity
  8
0
  6
Continuous
 62
     7
100
AcDbLine
 10
27.9247741887446
 20
19.17962469917247
 30
0.0
 11
27.8339338790446
 21
19.17962469917247
 31
0.0
  0
LINE
  5
6E3
330
1F
100
AcDbEntity
  8
0
  6
Continuous
 62
     7
100
AcDbLine
 10
27.9601034080446
 20
19.17962469917247
 30
0.0
 11
28.0378317234446
 21
19.17962469917247
 31
0.0
  0
LINE
  5
6E4
330
1F
100
AcDbEntity
  8
0
  6
Continuous
 62
     7
100
AcDbLine
 10
28.0378317234446
 20
19.18603021097247
 30
0.0
 11
27.9601034080446
 21
19.18603021097247
 31
0.0
  0
LINE
  5
6E5
330
1F
100
AcDbEntity
  8
0
  6
Continuous
 62
     7
100
AcDbLine
 10
27.8341654715446
 20
19.18603021097247
 30
0.0
 11
27.9247741887446
 21
19.18603021097247
 31
0.0
  0
LINE
  5
6E6
330
1F
100
AcDbEntity
  8
0
  6
Continuous
 62
     7
100
AcDbLine
 10
28.0323040106446
 20
19.19587273067248
 30
0.0
 11
27.9601034080446
 21
19.19587273067248
 31
0.0
  0
LINE
  5
6E7
330
1F
100
AcDbEntity
  8
0
  6
Continuous
 62
     7
100
AcDbLine
 10
27.8341654715446
 20
19.19587273067248
 30
0.0
 11
27.9247741887446
 21
19.19587273067248
 31
0.0
  0
LINE
  5
6E8
330
1F
100
AcDbEntity
  8
0
  6
Continuous
 62
     7
100
AcDbLine
 10
28.0288394437446
 20
19.19980973857247
 30
0.0
 11
27.9601034080446
 21
19.19980973857247
 31
0.0
  0
LINE
  5
6E9
330
1F
100
AcDbEntity
  8
0
  6
Continuous
 62
     7
100
AcDbLine
 10
27.9247741887446
 20
19.19980973857247
 30
0.0
 11
27.8361333435446
 21
19.19980973857247
 31
0.0
  0
LINE
  5
6EA
330
1F
100
AcDbEntity
  8
0
  6
Continuous
 62
     7
100
AcDbLine
 10
28.0236425933446
 20
19.20571525037247
 30
0.0
 11
27.9601034080446
 21
19.20571525037247
 31
0.0
  0
LINE
  5
6EB
330
1F
100
AcDbEntity
  8
0
  6
Continuous
 62
     7
100
AcDbLine
 10
27.9247741887446
 20
19.20571525037247
 30
0.0
 11
27.8361333435446
 21
19.20571525037247
 31
0.0
  0
LINE
  5
6EC
330
1F
100
AcDbEntity
  8
0
  6
Continuous
 62
     7
100
AcDbLine
 10
27.9786032232446
 20
19.25689635267248
 30
0.0
 11
27.9780755480446
 21
19.25689635267248
 31
0.0
  0
LINE
  5
6ED
330
1F
100
AcDbEntity
  8
0
  6
Continuous
 62
     7
100
AcDbLine
 10
27.9067970122446
 20
19.25689635267248
 30
0.0
 11
27.8097561349446
 21
19.25689635267248
 31
0.0
  0
LINE
  5
6EE
330
1F
100
AcDbEntity
  8
0
  6
Continuous
 62
     7
100
AcDbLine
 10
28.0555482588446
 20
19.29311665057247
 30
0.0
 11
27.9571230619446
 21
19.29311665057247
 31
0.0
  0
LINE
  5
6EF
330
1F
100
AcDbEntity
  8
0
  6
Continuous
 62
     7
100
AcDbLine
 10
27.7948011740446
 20
19.30020343937247
 30
0.0
 11
27.9781844778446
 21
19.30020343937247
 31
0.0
  0
LINE
  5
6F0
330
1F
100
AcDbEntity
  8
0
  6
Continuous
 62
     7
100
AcDbLine
 10
28.0541718823446
 20
19.30020343937247
 30
0.0
 11
28.0555482588446
 21
19.30020343937247
 31
0.0
  0
LINE
  5
6F1
330
1F
100
AcDbEntity
  8
0
  6
Continuous
 62
     7
100
AcDbLine
 10
28.0555482588446
 20
19.31004595897247
 30
0.0
 11
28.0529885704446
 21
19.31004595897247
 31
0.0
  0
LINE
  5
6F2
330
1F
100
AcDbEntity
  8
0
  6
Continuous
 62
     7
100
AcDbLine
 10
27.9793677897446
 20
19.31004595897247
 30
0.0
 11
27.7947947595446
 21
19.31004595897247
 31
0.0
  0
LINE
  5
6F3
330
1F
100
AcDbEntity
  8
0
  6
Continuous
 62
     7
100
AcDbLine
 10
27.8138715281446
 20
19.25689626197247
 30
0.0
 11
27.8138565779446
 21
19.25689635267248
 31
0.0
  0
LWPOLYLINE
  5
6F4
330
1F
100
AcDbEntity
  8
0
  6
Continuous
 62
     7
100
AcDbPolyline
 90
        4
 70
     0
 43
0.0
 10
27.8137992851446
 20
19.25687554557248
 10
27.8138444895446
 20
19.25685401557247
 10
27.8140751619446
 20
19.25672155277247
 10
27.8144125738446
 20
19.25647618947247
  0
LINE
  5
6F5
330
1F
100
AcDbEntity
  8
0
  6
Continuous
 62
     7
100
AcDbLine
 10
27.9231161986446
 20
19.24423588427247
 30
0.0
 11
27.9140861004446
 21
19.25055897047247
 31
0.0
  0
LWPOLYLINE
  5
6F6
330
1F
100
AcDbEntity
  8
06___PRT_ALL_SURFS
  6
Continuous
 62
     7
100
AcDbPolyline
 90
       14
 70
     0
 43
0.0
 10
28.2896034109446
 20
20.63382089237248
 10
28.2895323917446
 20
20.63458707207248
 10
28.2894311055446
 20
20.63544605907247
 10
28.2892915946446
 20
20.63639863337247
 10
28.2890999018446
 20
20.63747086117247
 10
28.2888424250446
 20
20.63866589537248
 10
28.2885060573446
 20
20.63997651857247
 10
28.2880718430446
 20
20.64141060107247
 10
28.2875139917446
 20
20.64298226437248
 10
28.2868196527446
 20
20.64465961297248
 10
28.2859947355446
 20
20.64637953447247
 10
28.2850375066446
 20
20.64811336937248
 10
28.2839292243446
 20
20.64986369007248
 10
28.2831727983446
 20
20.65093441647247
  0
LINE
  5
6F7
330
1F
100
AcDbEntity
  8
0
  6
Continuous
 62
     7
100
AcDbLine
 10
27.8130482588446
 20
17.76996304457247
 30
0.0
 11
27.8635539592446
 21
17.82046872757247
 31
0.0
  0
LINE
  5
6F8
330
1F
100
AcDbEntity
  8
0
  6
Continuous
 62
     7
100
AcDbLine
 10
27.9382254242446
 20
19.32067570567247
 30
0.0
 11
27.8083041643446
 21
19.32067570567247
 31
0.0
  0
LINE
  5
6F9
330
1F
100
AcDbEntity
  8
06___PRT_ALL_SURFS
  6
Continuous
 62
     7
100
AcDbLine
 10
27.9460994399446
 20
19.32067570567247
 30
0.0
 11
28.0555482588446
 21
19.32067570567247
 31
0.0
  0
LINE
  5
6FA
330
1F
100
AcDbEntity
  8
0
  6
Continuous
 62
     7
100
AcDbLine
 10
27.9460994399446
 20
19.34744753377247
 30
0.0
 11
27.9382254242446
 21
19.34744753377247
 31
0.0
  0
LINE
  5
6FB
330
1F
100
AcDbEntity
  8
0
  6
Continuous
 62
     7
100
AcDbLine
 10
27.9382254242446
 20
19.38091210077247
 30
0.0
 11
27.9460994399446
 21
19.38091210077247
 31
0.0
  0
LINE
  5
6FC
330
1F
100
AcDbEntity
  8
0
  6
Continuous
 62
     7
100
AcDbLine
 10
27.9460994399446
 20
19.41043965977247
 30
0.0
 11
27.9382254242446
 21
19.41043965977247
 31
0.0
  0
LWPOLYLINE
  5
6FD
330
1F
100
AcDbEntity
  8
0
  6
Continuous
 62
     7
100
AcDbPolyline
 90
        3
 70
     0
 43
0.0
 10
28.2772945025446
 20
20.45697100087247
 10
28.2772612711446
 20
20.45713968687247
 10
28.2772266944446
 20
20.45732005477248
  0
LINE
  5
6FE
330
1F
100
AcDbEntity
  8
0
  6
Continuous
 62
     7
100
AcDbLine
 10
28.2772266944446
 20
20.45732005477248
 30
0.0
 11
28.2771535061446
 21
20.45771667677248
 31
0.0
  0
LINE
  5
6FF
330
1F
100
AcDbEntity
  8
0
  6
Continuous
 62
     7
100
AcDbLine
 10
28.2771535061446
 20
20.45771667677248
 30
0.0
 11
28.2770751388446
 21
20.45816125357247
 31
0.0
  0
LINE
  5
700
330
1F
100
AcDbEntity
  8
0
  6
Continuous
 62
     7
100
AcDbLine
 10
28.2770751388446
 20
20.45816125357247
 30
0.0
 11
28.2769914840446
 21
20.45865561667247
 31
0.0
  0
LINE
  5
701
330
1F
100
AcDbEntity
  8
0
  6
Continuous
 62
     7
100
AcDbLine
 10
28.2769914840446
 20
20.45865561667247
 30
0.0
 11
28.2769023686446
 21
20.45920187357248
 31
0.0
  0
LINE
  5
702
330
1F
100
AcDbEntity
  8
0
  6
Continuous
 62
     7
100
AcDbLine
 10
28.2769023686446
 20
20.45920187357248
 30
0.0
 11
28.2768075547446
 21
20.45980246497248
 31
0.0
  0
LINE
  5
703
330
1F
100
AcDbEntity
  8
0
  6
Continuous
 62
     7
100
AcDbLine
 10
28.2768075547446
 20
20.45980246497248
 30
0.0
 11
28.2766538936446
 21
20.46081200557248
 31
0.0
  0
LINE
  5
704
330
1F
100
AcDbEntity
  8
0
  6
Continuous
 62
     7
100
AcDbLine
 10
28.2766538936446
 20
20.46081200557248
 30
0.0
 11
28.2764852575446
 21
20.46196266107248
 31
0.0
  0
LINE
  5
705
330
1F
100
AcDbEntity
  8
0
  6
Continuous
 62
     7
100
AcDbLine
 10
28.2764852575446
 20
20.46196266107248
 30
0.0
 11
28.2762999860446
 21
20.46326847207248
 31
0.0
  0
LINE
  5
706
330
1F
100
AcDbEntity
  8
0
  6
Continuous
 62
     7
100
AcDbLine
 10
28.2762999860446
 20
20.46326847207248
 30
0.0
 11
28.2760961109446
 21
20.46474601387247
 31
0.0
  0
LINE
  5
707
330
1F
100
AcDbEntity
  8
0
  6
Continuous
 62
     7
100
AcDbLine
 10
28.2760961109446
 20
20.46474601387247
 30
0.0
 11
28.2758713914446
 21
20.46641436857247
 31
0.0
  0
LWPOLYLINE
  5
708
330
1F
100
AcDbEntity
  8
06___PRT_ALL_SURFS
  6
Continuous
 62
     7
100
AcDbPolyline
 90
        4
 70
     0
 43
0.0
 10
28.2742278152446
 20
20.82054573617247
 10
28.2733287037446
 20
20.82738946817248
 10
28.2690403843446
 20
20.85734096397247
 10
28.2641878626446
 20
20.88720426317248
  0
LINE
  5
709
330
1F
100
AcDbEntity
  8
0
  6
Continuous
 62
     7
100
AcDbLine
 10
28.2758713914446
 20
20.46641436857247
 30
0.0
 11
28.2756232447446
 21
20.46829603767247
 31
0.0
  0
LINE
  5
70A
330
1F
100
AcDbEntity
  8
0
  6
Continuous
 62
     7
100
AcDbLine
 10
28.2756232447446
 20
20.46829603767247
 30
0.0
 11
28.2753487574446
 21
20.47041735397247
 31
0.0
  0
LINE
  5
70B
330
1F
100
AcDbEntity
  8
0
  6
Continuous
 62
     7
100
AcDbLine
 10
28.2753487574446
 20
20.47041735397247
 30
0.0
 11
28.2750447283446
 21
20.47280895457248
 31
0.0
  0
LINE
  5
70C
330
1F
100
AcDbEntity
  8
0
  6
Continuous
 62
     7
100
AcDbLine
 10
28.2750447283446
 20
20.47280895457248
 30
0.0
 11
28.2747077483446
 21
20.47550639757247
 31
0.0
  0
LINE
  5
70D
330
1F
100
AcDbEntity
  8
0
  6
Continuous
 62
     7
100
AcDbLine
 10
28.2747077483446
 20
20.47550639757247
 30
0.0
 11
28.2744630135446
 21
20.47749513737247
 31
0.0
  0
LINE
  5
70E
330
1F
100
AcDbEntity
  8
0
  6
Continuous
 62
     7
100
AcDbLine
 10
28.2744630135446
 20
20.47749513737247
 30
0.0
 11
28.2742009504446
 21
20.47965287097247
 31
0.0
  0
LINE
  5
70F
330
1F
100
AcDbEntity
  8
0
  6
Continuous
 62
     7
100
AcDbLine
 10
28.2742009504446
 20
20.47965287097247
 30
0.0
 11
28.2739205512446
 21
20.48199557367247
 31
0.0
  0
LINE
  5
710
330
1F
100
AcDbEntity
  8
0
  6
Continuous
 62
     7
100
AcDbLine
 10
28.2739205512446
 20
20.48199557367247
 30
0.0
 11
28.2736202691446
 21
20.48454674627247
 31
0.0
  0
LINE
  5
711
330
1F
100
AcDbEntity
  8
0
  6
Continuous
 62
     7
100
AcDbLine
 10
28.2736202691446
 20
20.48454674627247
 30
0.0
 11
28.2732985561446
 21
20.48733430817248
 31
0.0
  0
LWPOLYLINE
  5
712
330
1F
100
AcDbEntity
  8
0
  6
Continuous
 62
     7
100
AcDbPolyline
 90
       26
 70
     0
 43
0.0
 10
28.2732985561446
 20
20.48733430817248
 10
28.2729531744446
 20
20.49039869917248
 10
28.2727709175446
 20
20.49204991587247
 10
28.2725819663446
 20
20.49378977367247
 10
28.2723864001446
 20
20.49562367487248
 10
28.2721840170446
 20
20.49756094477247
 10
28.2719743910446
 20
20.49961494537248
 10
28.2717583326446
 20
20.50178919927247
 10
28.2715376496446
 20
20.50407853677247
 10
28.2713127408446
 20
20.50649434527247
 10
28.2710846813446
 20
20.50904401577247
 10
28.2708567143446
 20
20.51171268107248
 10
28.2706308917446
 20
20.51450007327247
 10
28.2704082468446
 20
20.51742219717247
 10
28.2701910012446
 20
20.52048555477248
 10
28.2699814708446
 20
20.52370153997248
 10
28.2697829148446
 20
20.52707461617247
 10
28.2695996077446
 20
20.53059698057248
 10
28.2694334557446
 20
20.53432058357247
 10
28.2692916929446
 20
20.53819484087247
 10
28.2691835921446
 20
20.54202700727247
 10
28.2691098379446
 20
20.54575767247248
 10
28.2690686677446
 20
20.54937316517248
 10
28.2690576686446
 20
20.55271955507247
 10
28.2690703788446
 20
20.55572439937248
 10
28.2690965803446
 20
20.55815181907247
  0
LINE
  5
713
330
1F
100
AcDbEntity
  8
0
  6
Continuous
 62
     7
100
AcDbLine
 10
27.7194960580446
 20
20.26284354027247
 30
0.0
 11
27.7096535383446
 21
20.27544196547248
 31
0.0
  0
LWPOLYLINE
  5
714
330
1F
100
AcDbEntity
  8
0
  6
Continuous
 62
     7
100
AcDbPolyline
 90
       13
 70
     0
 43
0.0
 10
28.2775383461446
 20
20.45592671877248
 10
28.2775362573446
 20
20.45593317017248
 10
28.2775284473446
 20
20.45595840597247
 10
28.2775159842446
 20
20.45600101687248
 10
28.2775003887446
 20
20.45605725607248
 10
28.2774820286446
 20
20.45612677907247
 10
28.2774608979446
 20
20.45621053377248
 10
28.2774376751446
 20
20.45630660007248
 10
28.2774125061446
 20
20.45641494227247
 10
28.2773853831446
 20
20.45653613107248
 10
28.2773566478446
 20
20.45666909487247
 10
28.2773263584446
 20
20.45681391907248
 10
28.2772945025446
 20
20.45697100087247
  0
LINE
  5
715
330
1F
100
AcDbEntity
  8
06___PRT_ALL_SURFS
  6
Continuous
 62
     7
100
AcDbLine
 10
28.2641878626446
 20
20.88720426317248
 30
0.0
 11
28.2588116724446
 21
20.91676241157248
 31
0.0
  0
LINE
  5
716
330
1F
100
AcDbEntity
  8
0
  6
Continuous
 62
     7
100
AcDbLine
 10
27.9182267598446
 20
20.22639327087247
 30
0.0
 11
27.9203591676446
 21
20.22426086317247
 31
0.0
  0
LINE
  5
717
330
1F
100
AcDbEntity
  8
0
  6
Continuous
 62
     7
100
AcDbLine
 10
27.9460994399446
 20
19.89429792747247
 30
0.0
 11
27.9382254242446
 21
19.89429792747247
 31
0.0
  0
LINE
  5
718
330
1F
100
AcDbEntity
  8
0
  6
Continuous
 62
     7
100
AcDbLine
 10
27.9382254242446
 20
19.89469162827247
 30
0.0
 11
27.9460994399446
 21
19.89469162827247
 31
0.0
  0
LINE
  5
719
330
1F
100
AcDbEntity
  8
0
  6
Continuous
 62
     7
100
AcDbLine
 10
27.9382254242446
 20
19.98130580157247
 30
0.0
 11
27.9460994399446
 21
19.98130580157247
 31
0.0
  0
LINE
  5
71A
330
1F
100
AcDbEntity
  8
0
  6
Continuous
 62
     7
100
AcDbLine
 10
27.9059869620446
 20
20.81247464547248
 30
0.0
 11
27.9080697544446
 21
20.80919551917248
 31
0.0
  0
LWPOLYLINE
  5
71B
330
1F
100
AcDbEntity
  8
0
  6
Continuous
 62
     7
100
AcDbPolyline
 90
        6
 70
     0
 43
0.0
 10
28.2588474596446
 20
20.34116079217247
 10
28.2588446223446
 20
20.34116565337248
 10
28.2588213170446
 20
20.34120405587247
 10
28.2587702366446
 20
20.34128108837248
 10
28.2586810037446
 20
20.34139744557247
 10
28.2585394730446
 20
20.34155353057248
  0
LINE
  5
71C
330
1F
100
AcDbEntity
  8
0
  6
Continuous
 62
     7
100
AcDbLine
 10
27.9460994399446
 20
20.02854989607248
 30
0.0
 11
27.9382254242446
 21
20.02854989607248
 31
0.0
  0
LINE
  5
71D
330
1F
100
AcDbEntity
  8
0
  6
Continuous
 62
     7
100
AcDbLine
 10
27.9460994399446
 20
20.04783982517247
 30
0.0
 11
27.9382254242446
 21
20.04783982517247
 31
0.0
  0
LINE
  5
71E
330
1F
100
AcDbEntity
  8
0
  6
Continuous
 62
     7
100
AcDbLine
 10
27.7013161778446
 20
20.33350207517248
 30
0.0
 11
27.6818285966446
 21
20.34406290027248
 31
0.0
  0
LINE
  5
71F
330
1F
100
AcDbEntity
  8
06___PRT_ALL_SURFS
  6
Continuous
 62
     7
100
AcDbLine
 10
28.0555482588446
 20
20.22426086317247
 30
0.0
 11
27.9460994399446
 21
20.22426086317247
 31
0.0
  0
LINE
  5
720
330
1F
100
AcDbEntity
  8
0
  6
Continuous
 62
     7
100
AcDbLine
 10
27.6775669242446
 20
20.22426086317247
 30
0.0
 11
27.9382254242446
 21
20.22426086317247
 31
0.0
  0
LINE
  5
721
330
1F
100
AcDbEntity
  8
0
  6
Continuous
 62
     7
100
AcDbLine
 10
28.0375103368446
 20
20.23175225287248
 30
0.0
 11
28.0555482588446
 21
20.23175225287248
 31
0.0
  0
LINE
  5
722
330
1F
100
AcDbEntity
  8
0
  6
Continuous
 62
     7
100
AcDbLine
 10
27.9865598950446
 20
20.23372075687248
 30
0.0
 11
27.9914263043446
 21
20.23372075687248
 31
0.0
  0
LINE
  5
723
330
1F
100
AcDbEntity
  8
0
  6
Continuous
 62
     7
100
AcDbLine
 10
28.0458231291446
 20
20.23765776467248
 30
0.0
 11
28.0555482588446
 21
20.23765776467248
 31
0.0
  0
LINE
  5
724
330
1F
100
AcDbEntity
  8
06___PRT_ALL_SURFS
  6
Continuous
 62
     7
100
AcDbLine
 10
27.9783340057446
 20
20.24236002457248
 30
0.0
 11
27.9761287550446
 21
20.24236002457248
 31
0.0
  0
LINE
  5
725
330
1F
100
AcDbEntity
  8
0
  6
Continuous
 62
     7
100
AcDbLine
 10
27.9783340057446
 20
20.24236002457248
 30
0.0
 11
27.9831900103446
 21
20.24236002457248
 31
0.0
  0
LINE
  5
726
330
1F
100
AcDbEntity
  8
0
  6
Continuous
 62
     7
100
AcDbLine
 10
28.0531864314446
 20
20.24236002457248
 30
0.0
 11
28.0555482588446
 21
20.24236002457248
 31
0.0
  0
LINE
  5
727
330
1F
100
AcDbEntity
  8
0
  6
Continuous
 62
     7
100
AcDbLine
 10
27.7194960580446
 20
20.26284354027247
 30
0.0
 11
28.0555482588446
 21
20.26284354027247
 31
0.0
  0
LINE
  5
728
330
1F
100
AcDbEntity
  8
0
  6
Continuous
 62
     7
100
AcDbLine
 10
27.7096535383446
 20
20.27544196547248
 30
0.0
 11
27.7194960580446
 21
20.27544196547248
 31
0.0
  0
LINE
  5
729
330
1F
100
AcDbEntity
  8
0
  6
Continuous
 62
     7
100
AcDbLine
 10
28.0240521958446
 20
20.27544196547248
 30
0.0
 11
28.0555482588446
 21
20.27544196547248
 31
0.0
  0
LINE
  5
72A
330
1F
100
AcDbEntity
  8
02___PRT_ALL_AXES
  6
Continuous
 62
     7
100
AcDbLine
 10
27.7179212549446
 20
20.32141395527248
 30
0.0
 11
27.7194960580446
 21
20.32141395527248
 31
0.0
  0
LWPOLYLINE
  5
72B
330
1F
100
AcDbEntity
  8
0
  6
Continuous
 62
     7
100
AcDbPolyline
 90
        4
 70
     0
 43
0.0
 10
28.2831736737446
 20
20.65093323457248
 10
28.2831223736446
 20
20.65100147717247
 10
28.2827488103446
 20
20.65142566777248
 10
28.2825857501446
 20
20.65156451757248
  0
LINE
  5
72C
330
1F
100
AcDbEntity
  8
0
  6
Continuous
 62
     7
100
AcDbLine
 10
27.7194960580446
 20
20.33652692917248
 30
0.0
 11
27.7126469396446
 21
20.33646715777248
 31
0.0
  0
LINE
  5
72D
330
1F
100
AcDbEntity
  8
0
  6
Continuous
 62
     7
100
AcDbLine
 10
27.6818116646446
 20
20.34407237797247
 30
0.0
 11
27.7194960580446
 21
20.34440126977248
 31
0.0
  0
LINE
  5
72E
330
1F
100
AcDbEntity
  8
0
  6
Continuous
 62
     7
100
AcDbLine
 10
27.7194960580446
 20
20.35227558527247
 30
0.0
 11
27.6817429517446
 21
20.35194609387247
 31
0.0
  0
LINE
  5
72F
330
1F
100
AcDbEntity
  8
0
  6
Continuous
 62
     7
100
AcDbLine
 10
27.7194960580446
 20
20.36014987587247
 30
0.0
 11
27.7124408010446
 21
20.36008830557248
 31
0.0
  0
LINE
  5
730
330
1F
100
AcDbEntity
  8
0
  6
Continuous
 62
     7
100
AcDbLine
 10
28.2569309215446
 20
20.33962039067247
 30
0.0
 11
28.2466935895446
 21
20.33962039067247
 31
0.0
  0
LINE
  5
731
330
1F
100
AcDbEntity
  8
02___PRT_ALL_AXES
  6
Continuous
 62
     7
100
AcDbLine
 10
27.7179212549446
 20
20.36865804977248
 30
0.0
 11
27.7194960580446
 21
20.36865804977248
 31
0.0
  0
LINE
  5
732
330
1F
100
AcDbEntity
  8
0
  6
Continuous
 62
     7
100
AcDbLine
 10
28.2130285738446
 20
20.41324243797248
 30
0.0
 11
28.2466935895446
 21
20.41324243797248
 31
0.0
  0
LINE
  5
733
330
1F
100
AcDbEntity
  8
0
  6
Continuous
 62
     7
100
AcDbLine
 10
27.7194960580446
 20
20.42838866197248
 30
0.0
 11
27.7116507824446
 21
20.42838866197248
 31
0.0
  0
LINE
  5
734
330
1F
100
AcDbEntity
  8
0
  6
Continuous
 62
     7
100
AcDbLine
 10
27.7194960580446
 20
20.44747310857248
 30
0.0
 11
27.7116507824446
 21
20.44747310857248
 31
0.0
  0
LINE
  5
735
330
1F
100
AcDbEntity
  8
0
  6
Continuous
 62
     7
100
AcDbLine
 10
27.9122183616446
 20
20.46634499707248
 30
0.0
 11
28.0555482588446
 21
20.46634499707248
 31
0.0
  0
LINE
  5
736
330
1F
100
AcDbEntity
  8
0
  6
Continuous
 62
     7
100
AcDbLine
 10
27.7194960580446
 20
20.46974418827247
 30
0.0
 11
27.7116507824446
 21
20.46974418827247
 31
0.0
  0
LINE
  5
737
330
1F
100
AcDbEntity
  8
0
  6
Continuous
 62
     7
100
AcDbLine
 10
27.9122183616446
 20
20.47421901277247
 30
0.0
 11
28.0358632194446
 21
20.47421901277247
 31
0.0
  0
LINE
  5
738
330
1F
100
AcDbEntity
  8
0
  6
Continuous
 62
     7
100
AcDbLine
 10
28.2704506471446
 20
20.40014864907247
 30
0.0
 11
28.2704436576446
 21
20.40014865637247
 31
0.0
  0
LINE
  5
739
330
1F
100
AcDbEntity
  8
0
  6
Continuous
 62
     7
100
AcDbLine
 10
28.2706336483446
 20
20.40128290167247
 30
0.0
 11
28.2706417863446
 21
20.40128289327247
 31
0.0
  0
LINE
  5
73A
330
1F
100
AcDbEntity
  8
0
  6
Continuous
 62
     7
100
AcDbLine
 10
27.8785511761446
 20
20.79072727767247
 30
0.0
 11
27.8340481111446
 21
20.81642113427248
 31
0.0
  0
LINE
  5
73B
330
1F
100
AcDbEntity
  8
02___PRT_ALL_AXES
  6
Continuous
 62
     7
100
AcDbLine
 10
27.7179212549446
 20
20.51372674987248
 30
0.0
 11
27.7194960580446
 21
20.51372674987248
 31
0.0
  0
LINE
  5
73C
330
1F
100
AcDbEntity
  8
ALL_AXES
  6
Continuous
 62
     7
100
AcDbLine
 10
28.0437372352446
 20
20.52540011517248
 30
0.0
 11
28.0378317234446
 21
20.52540011517248
 31
0.0
  0
LINE
  5
73D
330
1F
100
AcDbEntity
  8
02___PRT_ALL_AXES
  6
Continuous
 62
     7
100
AcDbLine
 10
27.7179212549446
 20
20.56097084437248
 30
0.0
 11
27.7194960580446
 21
20.56097084437248
 31
0.0
  0
LINE
  5
73E
330
1F
100
AcDbEntity
  8
ALL_AXES
  6
Continuous
 62
     7
100
AcDbLine
 10
28.0437372352446
 20
20.60414027257247
 30
0.0
 11
28.0378317234446
 21
20.60414027257247
 31
0.0
  0
LINE
  5
73F
330
1F
100
AcDbEntity
  8
0
  6
Continuous
 62
     7
100
AcDbLine
 10
28.0358632194446
 20
20.65532137497247
 30
0.0
 11
27.9122183616446
 21
20.65532137497247
 31
0.0
  0
LINE
  5
740
330
1F
100
AcDbEntity
  8
0
  6
Continuous
 62
     7
100
AcDbLine
 10
27.9122183616446
 20
20.66319539077247
 30
0.0
 11
28.0555482588446
 21
20.66319539077247
 31
0.0
  0
LINE
  5
741
330
1F
100
AcDbEntity
  8
0
  6
Continuous
 62
     7
100
AcDbLine
 10
27.8911496013446
 20
20.90077640817248
 30
0.0
 11
27.9356526663446
 21
20.87508255157247
 31
0.0
  0
LINE
  5
742
330
1F
100
AcDbEntity
  8
0
  6
Continuous
 62
     7
100
AcDbLine
 10
27.6381018474446
 20
20.75705105547247
 30
0.0
 11
27.6302278316446
 21
20.75705105547247
 31
0.0
  0
LINE
  5
743
330
1F
100
AcDbEntity
  8
0
  6
Continuous
 62
     7
100
AcDbLine
 10
27.6774719261446
 20
20.76307467757247
 30
0.0
 11
27.6381018474446
 21
20.76307467757247
 31
0.0
  0
LINE
  5
744
330
1F
100
AcDbEntity
  8
0
  6
Continuous
 62
     7
100
AcDbLine
 10
27.8844566879446
 20
20.76701168547248
 30
0.0
 11
27.8852440895446
 21
20.76701168547248
 31
0.0
  0
LINE
  5
745
330
1F
100
AcDbEntity
  8
0
  6
Continuous
 62
     7
100
AcDbLine
 10
27.8849121258446
 20
20.82134239407247
 30
0.0
 11
27.8847886516446
 21
20.82134239407247
 31
0.0
  0
LINE
  5
746
330
1F
100
AcDbEntity
  8
0
  6
Continuous
 62
     7
100
AcDbLine
 10
27.8691023572446
 20
20.83000381147247
 30
0.0
 11
27.8730393651446
 21
20.83000381147247
 31
0.0
  0
LINE
  5
747
330
1F
100
AcDbEntity
  8
0
  6
Continuous
 62
     7
100
AcDbLine
 10
27.8966614123446
 20
20.83000381147247
 30
0.0
 11
27.9005984202446
 21
20.83000381147247
 31
0.0
  0
LINE
  5
748
330
1F
100
AcDbEntity
  8
0
  6
Continuous
 62
     7
100
AcDbLine
 10
27.7194960580446
 20
20.83168569007248
 30
0.0
 11
27.6381018474446
 21
20.83168569007248
 31
0.0
  0
LINE
  5
749
330
1F
100
AcDbEntity
  8
0
  6
Continuous
 62
     7
100
AcDbLine
 10
27.6302278316446
 20
20.83168569007248
 30
0.0
 11
27.5433182820446
 21
20.83168569007248
 31
0.0
  0
LINE
  5
74A
330
1F
100
AcDbEntity
  8
0
  6
Continuous
 62
     7
100
AcDbLine
 10
27.7194960580446
 20
20.83562269787247
 30
0.0
 11
27.6381018474446
 21
20.83562269787247
 31
0.0
  0
LINE
  5
74B
330
1F
100
AcDbEntity
  8
0
  6
Continuous
 62
     7
100
AcDbLine
 10
27.6302278316446
 20
20.83562269787247
 30
0.0
 11
27.5433182820446
 21
20.83562269787247
 31
0.0
  0
LINE
  5
74C
330
1F
100
AcDbEntity
  8
0
  6
Continuous
 62
     7
100
AcDbLine
 10
27.7194960580446
 20
20.84168569007248
 30
0.0
 11
27.6381018474446
 21
20.84168569007248
 31
0.0
  0
LINE
  5
74D
330
1F
100
AcDbEntity
  8
0
  6
Continuous
 62
     7
100
AcDbLine
 10
27.6302278316446
 20
20.84168569007248
 30
0.0
 11
27.5433182820446
 21
20.84168569007248
 31
0.0
  0
LINE
  5
74E
330
1F
100
AcDbEntity
  8
0
  6
Continuous
 62
     7
100
AcDbLine
 10
27.9005984202446
 20
20.84181483507248
 30
0.0
 11
27.8691023572446
 21
20.84181483507248
 31
0.0
  0
LINE
  5
74F
330
1F
100
AcDbEntity
  8
0
  6
Continuous
 62
     7
100
AcDbLine
 10
27.7194960580446
 20
20.84562269787248
 30
0.0
 11
27.6381018474446
 21
20.84562269787248
 31
0.0
  0
LINE
  5
750
330
1F
100
AcDbEntity
  8
0
  6
Continuous
 62
     7
100
AcDbLine
 10
27.6302278316446
 20
20.84562269787248
 30
0.0
 11
27.5433182820446
 21
20.84562269787248
 31
0.0
  0
LINE
  5
751
330
1F
100
AcDbEntity
  8
0
  6
Continuous
 62
     7
100
AcDbLine
 10
27.8907559005446
 20
20.84968885077247
 30
0.0
 11
27.8789448769446
 21
20.84968885077247
 31
0.0
  0
LINE
  5
752
330
1F
100
AcDbEntity
  8
0
  6
Continuous
 62
     7
100
AcDbLine
 10
27.8192042096446
 20
20.98496444137248
 30
0.0
 11
27.9413301781446
 21
20.98740696067247
 31
0.0
  0
LINE
  5
753
330
1F
100
AcDbEntity
  8
0
  6
Continuous
 62
     7
100
AcDbLine
 10
27.7194960580446
 20
20.85168569007247
 30
0.0
 11
27.6381018474446
 21
20.85168569007247
 31
0.0
  0
LINE
  5
754
330
1F
100
AcDbEntity
  8
0
  6
Continuous
 62
     7
100
AcDbLine
 10
27.6302278316446
 20
20.85168569007247
 30
0.0
 11
27.5433182820446
 21
20.85168569007247
 31
0.0
  0
LINE
  5
755
330
1F
100
AcDbEntity
  8
0
  6
Continuous
 62
     7
100
AcDbLine
 10
27.7194960580446
 20
20.85562269787248
 30
0.0
 11
27.6381018474446
 21
20.85562269787248
 31
0.0
  0
LINE
  5
756
330
1F
100
AcDbEntity
  8
0
  6
Continuous
 62
     7
100
AcDbLine
 10
27.6302278316446
 20
20.85562269787248
 30
0.0
 11
27.5433182820446
 21
20.85562269787248
 31
0.0
  0
LINE
  5
757
330
1F
100
AcDbEntity
  8
02___PRT_ALL_AXES
  6
Continuous
 62
     7
100
AcDbLine
 10
27.8907559005446
 20
20.85953137047248
 30
0.0
 11
27.8789448769446
 21
20.85953137047248
 31
0.0
  0
LINE
  5
758
330
1F
100
AcDbEntity
  8
0
  6
Continuous
 62
     7
100
AcDbLine
 10
27.6302278316446
 20
20.87516129177247
 30
0.0
 11
27.8113301939446
 21
20.87516129177247
 31
0.0
  0
LINE
  5
759
330
1F
100
AcDbEntity
  8
0
  6
Continuous
 62
     7
100
AcDbLine
 10
28.2466935895446
 20
20.88174637497248
 30
0.0
 11
28.2130285738446
 21
20.88174637497248
 31
0.0
  0
LINE
  5
75A
330
1F
100
AcDbEntity
  8
0
  6
Continuous
 62
     7
100
AcDbLine
 10
28.2568786692446
 20
20.91836054817247
 30
0.0
 11
28.2466935895446
 21
20.91836054817247
 31
0.0
  0
LINE
  5
75B
330
1F
100
AcDbEntity
  8
0
  6
Continuous
 62
     7
100
AcDbLine
 10
27.8852440895446
 20
20.92449200037247
 30
0.0
 11
27.8844566879446
 21
20.92449200037247
 31
0.0
  0
LINE
  5
75C
330
1F
100
AcDbEntity
  8
0
  6
Continuous
 62
     7
100
AcDbLine
 10
27.9510939734446
 20
20.96583058307247
 30
0.0
 11
27.9727475167446
 21
20.96583058307247
 31
0.0
  0
LINE
  5
75D
330
1F
100
AcDbEntity
  8
02___PRT_ALL_AXES
  6
Continuous
 62
     7
100
AcDbLine
 10
28.0199916112446
 20
20.98748412637247
 30
0.0
 11
27.9806215324446
 21
20.98748412637247
 31
0.0
  0
LINE
  5
75E
330
1F
100
AcDbEntity
  8
0
  6
Continuous
 62
     7
100
AcDbLine
 10
28.0239286190446
 20
20.99929514997247
 30
0.0
 11
28.0555482588446
 21
20.99929514997247
 31
0.0
  0
LINE
  5
75F
330
1F
100
AcDbEntity
  8
0
  6
Continuous
 62
     7
100
AcDbLine
 10
27.7578964023446
 20
21.07469125087248
 30
0.0
 11
28.0524397809446
 21
21.08194842597248
 31
0.0
  0
LINE
  5
760
330
1F
100
AcDbEntity
  8
02___PRT_ALL_AXES
  6
Continuous
 62
     7
100
AcDbLine
 10
27.8935714818446
 20
21.08197231537248
 30
0.0
 11
27.9144101249446
 21
21.08248575307248
 31
0.0
  0
LINE
  5
761
330
1F
100
AcDbEntity
  8
02___PRT_ALL_AXES
  6
Continuous
 62
     7
100
AcDbLine
 10
27.9340951643446
 20
21.08297076747247
 30
0.0
 11
27.9808422787446
 21
21.08412255707248
 31
0.0
  0
LINE
  5
762
330
1F
100
AcDbEntity
  8
0
  6
Continuous
 62
     7
100
AcDbLine
 10
27.9510939734446
 20
21.06677410727248
 30
0.0
 11
27.9727475167446
 21
21.06678763857248
 31
0.0
  0
LINE
  5
763
330
1F
100
AcDbEntity
  8
0
  6
Continuous
 62
     7
100
AcDbLine
 10
27.7877081466446
 20
21.02291719727248
 30
0.0
 11
27.7444010600446
 21
21.02291719727248
 31
0.0
  0
LINE
  5
764
330
1F
100
AcDbEntity
  8
0
  6
Continuous
 62
     7
100
AcDbLine
 10
28.0239286190446
 20
21.03866522877247
 30
0.0
 11
28.0555482588446
 21
21.03866522877247
 31
0.0
  0
LINE
  5
765
330
1F
100
AcDbEntity
  8
0
  6
Continuous
 62
     7
100
AcDbLine
 10
27.7444010600446
 20
21.04260223667248
 30
0.0
 11
27.7877081466446
 21
21.04260223667248
 31
0.0
  0
LINE
  5
766
330
1F
100
AcDbEntity
  8
02___PRT_ALL_AXES
  6
Continuous
 62
     7
100
AcDbLine
 10
28.0199916112446
 20
21.05047625237248
 30
0.0
 11
27.9806215324446
 21
21.05047625237248
 31
0.0
  0
LINE
  5
767
330
1F
100
AcDbEntity
  8
0
  6
Continuous
 62
     7
100
AcDbLine
 10
27.6302278316446
 20
21.06622428387247
 30
0.0
 11
27.8192042096446
 21
21.06622428387247
 31
0.0
  0
LINE
  5
768
330
1F
100
AcDbEntity
  8
0
  6
Continuous
 62
     7
100
AcDbLine
 10
27.9510939734446
 20
21.07212979567247
 30
0.0
 11
27.9727475167446
 21
21.07212979567247
 31
0.0
  0
LINE
  5
769
330
1F
100
AcDbEntity
  8
0
  6
Continuous
 62
     7
100
AcDbLine
 10
27.6381018474446
 20
21.07409829957248
 30
0.0
 11
27.8192042096446
 21
21.07409829957248
 31
0.0
  0
LINE
  5
76A
330
1F
100
AcDbEntity
  8
0
  6
Continuous
 62
     7
100
AcDbLine
 10
28.0555482588446
 20
21.08197231537248
 30
0.0
 11
27.6691345344446
 21
21.08197231537248
 31
0.0
  0
LINE
  5
76B
330
1F
100
AcDbEntity
  8
0
  6
Continuous
 62
     7
100
AcDbLine
 10
27.9144101249446
 20
21.08512192167248
 30
0.0
 11
27.9340951643446
 21
21.08512192167248
 31
0.0
  0
LINE
  5
76C
330
1F
100
AcDbEntity
  8
0
  6
Continuous
 62
     7
100
AcDbLine
 10
28.0128353218446
 20
21.08512192167248
 30
0.0
 11
28.0325203612446
 21
21.08512192167248
 31
0.0
  0
LINE
  5
76D
330
1F
100
AcDbEntity
  8
0
  6
Continuous
 62
     7
100
AcDbLine
 10
28.0319620973446
 20
21.08590932327247
 30
0.0
 11
28.0317510106446
 21
21.08590932327247
 31
0.0
  0
LINE
  5
76E
330
1F
100
AcDbEntity
  8
0
  6
Continuous
 62
     7
100
AcDbLine
 10
28.0136046723446
 20
21.08590932327247
 30
0.0
 11
28.0133935857446
 21
21.08590932327247
 31
0.0
  0
LINE
  5
76F
330
1F
100
AcDbEntity
  8
0
  6
Continuous
 62
     7
100
AcDbLine
 10
28.0246463454446
 20
21.08590932327247
 30
0.0
 11
28.0207093375446
 21
21.08590932327247
 31
0.0
  0
LINE
  5
770
330
1F
100
AcDbEntity
  8
0
  6
Continuous
 62
     7
100
AcDbLine
 10
27.9335369004446
 20
21.08590932327247
 30
0.0
 11
27.9333258138446
 21
21.08590932327247
 31
0.0
  0
LINE
  5
771
330
1F
100
AcDbEntity
  8
0
  6
Continuous
 62
     7
100
AcDbLine
 10
27.9151794755446
 20
21.08590932327247
 30
0.0
 11
27.9149683888446
 21
21.08590932327247
 31
0.0
  0
LINE
  5
772
330
1F
100
AcDbEntity
  8
0
  6
Continuous
 62
     7
100
AcDbLine
 10
27.9262211486446
 20
21.08590932327247
 30
0.0
 11
27.9222841407446
 21
21.08590932327247
 31
0.0
  0
LINE
  5
773
330
1F
100
AcDbEntity
  8
0
  6
Continuous
 62
     7
100
AcDbLine
 10
28.0555482588446
 20
21.09771901277247
 30
0.0
 11
28.2130285738446
 21
21.09771901277247
 31
0.0
  0
LINE
  5
774
330
1F
100
AcDbEntity
  8
0
  6
Continuous
 62
     7
100
AcDbLine
 10
27.8192042096446
 20
21.05299593737248
 30
0.0
 11
27.9413301781446
 21
21.05055341807247
 31
0.0
  0
ARC
  5
775
330
1F
100
AcDbEntity
  8
0
  6
Continuous
 62
     7
100
AcDbCircle
 10
27.0881213161446
 20
20.60043275867248
 30
0.0
 40
1.199094837399999
100
AcDbArc
 50
350.4891670660999
 51
350.6949195289999
  0
ARC
  5
776
330
1F
100
AcDbEntity
  8
0
  6
Continuous
 62
     7
100
AcDbCircle
 10
27.0881235904446
 20
20.60042608327247
 30
0.0
 40
1.1990911039
100
AcDbArc
 50
350.4407441612
 51
350.6952135211999
  0
ARC
  5
777
330
1F
100
AcDbEntity
  8
0
  6
Continuous
 62
     7
100
AcDbCircle
 10
27.0884062576446
 20
20.60038507507247
 30
0.0
 40
1.1988059337
100
AcDbArc
 50
350.3519796039999
 51
350.4891644896001
  0
ARC
  5
778
330
1F
100
AcDbEntity
  8
0
  6
Continuous
 62
     7
100
AcDbCircle
 10
27.0888191777446
 20
20.60030795517247
 30
0.0
 40
1.1983855562
100
AcDbArc
 50
350.0778801381999
 51
350.2646712660001
  0
ARC
  5
779
330
1F
100
AcDbEntity
  8
0
  6
Continuous
 62
     7
100
AcDbCircle
 10
27.0888539846446
 20
20.60030852457248
 30
0.0
 40
1.1983517095
100
AcDbArc
 50
350.0775694184999
 51
350.2670362594999
  0
ARC
  5
77A
330
1F
100
AcDbEntity
  8
0
  6
Continuous
 62
     7
100
AcDbCircle
 10
27.6381018474446
 20
21.06622428387247
 30
0.0
 40
0.0078740157
100
AcDbArc
 50
90.0
 51
180.0
  0
ARC
  5
77B
330
1F
100
AcDbEntity
  8
0
  6
Continuous
 62
     7
100
AcDbCircle
 10
28.2062285866446
 20
17.44550026017247
 30
0.0
 40
0.3942178793
100
AcDbArc
 50
184.1578573673
 51
185.6189123651
  0
ARC
  5
77C
330
1F
100
AcDbEntity
  8
0
  6
Continuous
 62
     7
100
AcDbCircle
 10
27.8327332982446
 20
17.37232531197247
 30
0.0
 40
0.3937007874
100
AcDbArc
 50
92.86598398259991
 51
180.0
  0
ARC
  5
77D
330
1F
100
AcDbEntity
  8
ALL_FEATURES
  6
Continuous
 62
     7
100
AcDbCircle
 10
28.0799577076446
 20
18.25914044717247
 30
0.0
 40
0.2401574803
100
AcDbArc
 50
180.0
 51
254.5949441449001
  0
ARC
  5
77E
330
1F
100
AcDbEntity
  8
0
  6
Continuous
 62
     7
100
AcDbCircle
 10
27.8327332982446
 20
17.37232531197247
 30
0.0
 40
0.0393700787
100
AcDbArc
 50
118.5706613605
 51
180.0
  0
ARC
  5
77F
330
1F
100
AcDbEntity
  8
ALL_FEATURES
  6
Continuous
 62
     7
100
AcDbCircle
 10
28.0799577076446
 20
18.25914044717247
 30
0.0
 40
0.0354330709
100
AcDbArc
 50
180.0
 51
226.4364360936999
  0
CIRCLE
  5
780
330
1F
100
AcDbEntity
  8
ALL_FEATURES
  6
Continuous
 62
     7
100
AcDbCircle
 10
28.1342884163446
 20
16.92055365837247
 30
0.0
 40
0.0216535433
  0
ARC
  5
781
330
1F
100
AcDbEntity
  8
ALL_AXES
  6
Continuous
 62
     7
100
AcDbCircle
 10
28.2081909360446
 20
18.21876515757248
 30
0.0
 40
0.0196850394
100
AcDbArc
 50
14.54052551639995
 51
75.76639943429994
  0
ARC
  5
782
330
1F
100
AcDbEntity
  8
ALL_AXES
  6
Continuous
 62
     7
100
AcDbCircle
 10
28.2081909360446
 20
18.02392518567247
 30
0.0
 40
0.0196850394
100
AcDbArc
 50
284.2336005657001
 51
345.4594744836001
  0
ARC
  5
783
330
1F
100
AcDbEntity
  8
0
  6
Continuous
 62
     7
100
AcDbCircle
 10
27.7770049375446
 20
19.02933721767247
 30
0.0
 40
0.0157480315
100
AcDbArc
 50
188.5585333231
 51
270.0
  0
ARC
  5
784
330
1F
100
AcDbEntity
  8
0
  6
Continuous
 62
     7
100
AcDbCircle
 10
28.2760206997446
 20
17.84870326467247
 30
0.0
 40
0.0157480315
100
AcDbArc
 50
0.0
 51
90.0
  0
ARC
  5
785
330
1F
100
AcDbEntity
  8
0
  6
Continuous
 62
     7
100
AcDbCircle
 10
28.2760206997446
 20
17.32901822537247
 30
0.0
 40
0.0157480315
100
AcDbArc
 50
270.0
 51
0.0
  0
ARC
  5
786
330
1F
100
AcDbEntity
  8
0
  6
Continuous
 62
     7
100
AcDbCircle
 10
27.8746894974446
 20
17.80933318597247
 30
0.0
 40
0.0157480315
100
AcDbArc
 50
90.0
 51
134.9999909985999
  0
ARC
  5
787
330
1F
100
AcDbEntity
  8
0
  6
Continuous
 62
     7
100
AcDbCircle
 10
27.8746894974446
 20
17.36838830407247
 30
0.0
 40
0.0157480315
100
AcDbArc
 50
224.9990493257
 51
270.0
  0
ARC
  5
788
330
1F
100
AcDbEntity
  8
0
  6
Continuous
 62
     7
100
AcDbCircle
 10
27.8055482588446
 20
19.00177816247247
 30
0.0
 40
0.0118110236
100
AcDbArc
 50
0.0
 51
89.99999923459997
  0
ARC
  5
789
330
1F
100
AcDbEntity
  8
0
  6
Continuous
 62
     7
100
AcDbCircle
 10
28.0476742431446
 20
18.13019932767247
 30
0.0
 40
0.0078740157
100
AcDbArc
 50
0.0
 51
90.0
  0
ARC
  5
78A
330
1F
100
AcDbEntity
  8
0
  6
Continuous
 62
     7
100
AcDbCircle
 10
28.0476742431446
 20
18.03374263477247
 30
0.0
 40
0.0078740157
100
AcDbArc
 50
270.0
 51
0.0
  0
ARC
  5
78B
330
1F
100
AcDbEntity
  8
0
  6
Continuous
 62
     7
100
AcDbCircle
 10
27.8260206997446
 20
18.49980973857247
 30
0.0
 40
0.0078740157
100
AcDbArc
 50
90.0
 51
180.0
  0
ARC
  5
78C
330
1F
100
AcDbEntity
  8
0
  6
Continuous
 62
     7
100
AcDbCircle
 10
27.8260206997446
 20
18.46043965977247
 30
0.0
 40
0.0078740157
100
AcDbArc
 50
180.0
 51
270.0
  0
ARC
  5
78D
330
1F
100
AcDbEntity
  8
0
  6
Continuous
 62
     7
100
AcDbCircle
 10
27.7366220423446
 20
19.20256546947247
 30
0.0
 40
0.0590551181
100
AcDbArc
 50
180.0
 51
270.0
  0
ARC
  5
78E
330
1F
100
AcDbEntity
  8
0
  6
Continuous
 62
     7
100
AcDbCircle
 10
27.9424285185446
 20
19.12137109667247
 30
0.0
 40
0.0460235046
100
AcDbArc
 50
85.42494377209996
 51
86.17874203840003
  0
ARC
  5
78F
330
1F
100
AcDbEntity
  8
0
  6
Continuous
 62
     7
100
AcDbCircle
 10
27.9424363427446
 20
19.12137651877247
 30
0.0
 40
0.0460180724
100
AcDbArc
 50
93.82145228609998
 51
94.91257985909998
  0
ARC
  5
790
330
1F
100
AcDbEntity
  8
0
  6
Continuous
 62
     7
100
AcDbCircle
 10
27.9424325968446
 20
19.12144653467247
 30
0.0
 40
0.0459479625
100
AcDbArc
 50
86.17754717260012
 51
93.82261051340002
  0
ARC
  5
791
330
1F
100
AcDbEntity
  8
0
  6
Continuous
 62
     7
100
AcDbCircle
 10
27.7805450010446
 20
19.23720959997247
 30
0.0
 40
0.0407513499
100
AcDbArc
 50
0.0024089823000668
 51
1.862684146599938
  0
ARC
  5
792
330
1F
100
AcDbEntity
  8
0
  6
Continuous
 62
     7
100
AcDbCircle
 10
27.8083041643446
 20
19.29311665057247
 30
0.0
 40
0.0275590551
100
AcDbArc
 50
90.0
 51
180.0
  0
ARC
  5
793
330
1F
100
AcDbEntity
  8
0
  6
Continuous
 62
     7
100
AcDbCircle
 10
27.9673708323446
 20
19.30492767417247
 30
0.0
 40
0.0118110236
100
AcDbArc
 50
270.0
 51
358.0
  0
ARC
  5
794
330
1F
100
AcDbEntity
  8
0
  6
Continuous
 62
     7
100
AcDbCircle
 10
27.8097553936446
 20
19.26083336057248
 30
0.0
 40
0.0039370079
100
AcDbArc
 50
180.0
 51
270.0019530595999
  0
ARC
  5
795
330
1F
100
AcDbEntity
  8
0
  6
Continuous
 62
     7
100
AcDbCircle
 10
27.8389504618446
 20
19.18437666767247
 30
0.0
 40
0.0019685039
100
AcDbArc
 50
122.6473415596999
 51
149.9999999998999
  0
ARC
  5
796
330
1F
100
AcDbEntity
  8
0
  6
Continuous
 62
     7
100
AcDbCircle
 10
27.8077868897446
 20
19.29823493537248
 30
0.0
 40
0.0019685039
100
AcDbArc
 50
89.99738621789996
 51
180.0
  0
ARC
  5
797
330
1F
100
AcDbEntity
  8
0
  6
Continuous
 62
     7
100
AcDbCircle
 10
27.7041296463446
 20
20.43294389277248
 30
0.0
 40
0.0087930436
100
AcDbArc
 50
327.4468166975999
 51
328.7985012424999
  0
ARC
  5
798
330
1F
100
AcDbEntity
  8
0
  6
Continuous
 62
     7
100
AcDbCircle
 10
27.7041334605446
 20
20.45202606697248
 30
0.0
 40
0.008788604
100
AcDbArc
 50
326.4677437091999
 51
328.7982914871
  0
ARC
  5
799
330
1F
100
AcDbEntity
  8
0
  6
Continuous
 62
     7
100
AcDbCircle
 10
27.7041338017446
 20
20.46519143547248
 30
0.0
 40
0.0087882055
100
AcDbArc
 50
31.20171451089997
 51
33.5322717315001
  0
ARC
  5
79A
330
1F
100
AcDbEntity
  8
0
  6
Continuous
 62
     7
100
AcDbCircle
 10
27.7053983323446
 20
20.34103475527247
 30
0.0
 40
0.0085676867
100
AcDbArc
 50
241.545588736
 51
327.7835561658999
  0
ARC
  5
79B
330
1F
100
AcDbEntity
  8
0
  6
Continuous
 62
     7
100
AcDbCircle
 10
27.7052730132446
 20
20.35539489807248
 30
0.0
 40
0.0085676867
100
AcDbArc
 50
33.21644383409999
 51
119.454411264
  0
ARC
  5
79C
330
1F
100
AcDbEntity
  8
0
  6
Continuous
 62
     7
100
AcDbCircle
 10
27.7044707478446
 20
20.46547313887248
 30
0.0
 40
0.0083881641
100
AcDbArc
 50
118.1206435066
 51
122.4905294516998
  0
ARC
  5
79D
330
1F
100
AcDbEntity
  8
0
  6
Continuous
 62
     7
100
AcDbCircle
 10
27.7044706089446
 20
20.45174394477248
 30
0.0
 40
0.0083879097
100
AcDbArc
 50
237.5094885806
 51
241.8795639062
  0
ARC
  5
79E
330
1F
100
AcDbEntity
  8
0
  6
Continuous
 62
     7
100
AcDbCircle
 10
27.7044572692446
 20
20.43263127917247
 30
0.0
 40
0.0083568411
100
AcDbArc
 50
242.1742885685999
 51
246.3314457548001
  0
ARC
  5
79F
330
1F
100
AcDbEntity
  8
0
  6
Continuous
 62
     7
100
AcDbCircle
 10
27.7588661368446
 20
21.03533311677248
 30
0.0
 40
0.0393700787
100
AcDbArc
 50
91.41140974420004
 51
99.80542436329997
  0
ARC
  5
7A0
330
1F
100
AcDbEntity
  8
0
  6
Continuous
 62
     7
100
AcDbCircle
 10
27.7562120836446
 20
21.07016129177248
 30
0.0
 40
0.0118110236
100
AcDbArc
 50
180.0
 51
270.0
  0
ARC
  5
7A1
330
1F
100
AcDbEntity
  8
0
  6
Continuous
 62
     7
100
AcDbCircle
 10
27.7758971230446
 20
21.07016129177248
 30
0.0
 40
0.0118110236
100
AcDbArc
 50
270.0
 51
0.0
  0
ARC
  5
7A2
330
1F
100
AcDbEntity
  8
0
  6
Continuous
 62
     7
100
AcDbCircle
 10
27.8113301939446
 20
20.88303530747248
 30
0.0
 40
0.0078740157
100
AcDbArc
 50
270.0
 51
0.0
  0
ARC
  5
7A3
330
1F
100
AcDbEntity
  8
0
  6
Continuous
 62
     7
100
AcDbCircle
 10
27.9426641881446
 20
20.21376686627247
 30
0.0
 40
0.0334645669
100
AcDbArc
 50
18.28616186410005
 51
139.8808331015999
  0
ARC
  5
7A4
330
1F
100
AcDbEntity
  8
0
  6
Continuous
 62
     7
100
AcDbCircle
 10
27.9564437157446
 20
20.26002670877247
 30
0.0
 40
0.0196850394
100
AcDbArc
 50
0.0
 51
8.228313790400006
  0
ARC
  5
7A5
330
1F
100
AcDbEntity
  8
0
  6
Continuous
 62
     7
100
AcDbCircle
 10
27.9367586763446
 20
20.26185904107248
 30
0.0
 40
0.0196850394
100
AcDbArc
 50
177.1307612599
 51
180.0
  0
ARC
  5
7A6
330
1F
100
AcDbEntity
  8
06___PRT_ALL_SURFS
  6
Continuous
 62
     7
100
AcDbCircle
 10
27.9783359848446
 20
20.26019880387247
 30
0.0
 40
0.0178387795
100
AcDbArc
 50
262.8903282581001
 51
269.9936433658
  0
ARC
  5
7A7
330
1F
100
AcDbEntity
  8
0
  6
Continuous
 62
     7
100
AcDbCircle
 10
27.9426641881446
 20
20.21376686627247
 30
0.0
 40
0.0108267717
100
AcDbArc
 50
71.47262826780006
 51
114.2373322902001
  0
ARC
  5
7A8
330
1F
100
AcDbEntity
  8
0
  6
Continuous
 62
     7
100
AcDbCircle
 10
27.9424325561446
 20
20.21442014007248
 30
0.0
 40
0.0078740157
100
AcDbArc
 50
62.24447130689999
 51
122.3028557422
  0
ARC
  5
7A9
330
1F
100
AcDbEntity
  8
0
  6
Continuous
 62
     7
100
AcDbCircle
 10
27.9210106448446
 20
20.22917715587247
 30
0.0
 40
0.0039370079
100
AcDbArc
 50
180.0
 51
225.0000000000001
  0
ARC
  5
7AA
330
1F
100
AcDbEntity
  8
0
  6
Continuous
 62
     7
100
AcDbCircle
 10
27.8847886516446
 20
20.82823215787247
 30
0.0
 40
0.0068897638
100
AcDbArc
 50
187.6759710432999
 51
270.0
  0
ARC
  5
7AB
330
1F
100
AcDbEntity
  8
0
  6
Continuous
 62
     7
100
AcDbCircle
 10
27.8691023572446
 20
20.83590932327247
 30
0.0
 40
0.0059055118
100
AcDbArc
 50
90.0
 51
270.0
  0
ARC
  5
7AC
330
1F
100
AcDbEntity
  8
0
  6
Continuous
 62
     7
100
AcDbCircle
 10
27.8844566879446
 20
20.77291719727248
 30
0.0
 40
0.0059055118
100
AcDbArc
 50
180.0
 51
270.0
  0
ARC
  5
7AD
330
1F
100
AcDbEntity
  8
0
  6
Continuous
 62
     7
100
AcDbCircle
 10
27.8837298469446
 20
20.84735136247247
 30
0.0
 40
0.0384893574
100
AcDbArc
 50
30.41487828029993
 51
40.48064883449997
  0
ARC
  5
7AE
330
1F
100
AcDbEntity
  8
0
  6
Continuous
 62
     7
100
AcDbCircle
 10
27.8836536088446
 20
20.84729749737247
 30
0.0
 40
0.0349636775
100
AcDbArc
 50
214.4692221854
 51
215.4610089967
  0
ARC
  5
7AF
330
1F
100
AcDbEntity
  8
0
  6
Continuous
 62
     7
100
AcDbCircle
 10
27.8836185945446
 20
20.84726938007248
 30
0.0
 40
0.0349188459
100
AcDbArc
 50
215.456762006
 51
225.8522594772999
  0
ARC
  5
7B0
330
1F
100
AcDbEntity
  8
0
  6
Continuous
 62
     7
100
AcDbCircle
 10
27.8844566879446
 20
20.91858648857247
 30
0.0
 40
0.0059055118
100
AcDbArc
 50
90.0
 51
180.0
  0
ARC
  5
7B1
330
1F
100
AcDbEntity
  8
0
  6
Continuous
 62
     7
100
AcDbCircle
 10
27.8849121258446
 20
20.82823215787247
 30
0.0
 40
0.0068897638
100
AcDbArc
 50
270.0
 51
352.3240289566999
  0
ARC
  5
7B2
330
1F
100
AcDbEntity
  8
0
  6
Continuous
 62
     7
100
AcDbCircle
 10
27.9005984202446
 20
20.83590932327247
 30
0.0
 40
0.0059055118
100
AcDbArc
 50
270.0
 51
90.0
  0
ARC
  5
7B3
330
1F
100
AcDbEntity
  8
0
  6
Continuous
 62
     7
100
AcDbCircle
 10
27.8852440895446
 20
20.77291719727248
 30
0.0
 40
0.0059055118
100
AcDbArc
 50
270.0
 51
0.0
  0
ARC
  5
7B4
330
1F
100
AcDbEntity
  8
02___PRT_ALL_AXES
  6
Continuous
 62
     7
100
AcDbCircle
 10
27.8848503887446
 20
20.84575184297248
 30
0.0
 40
0.0688976378
100
AcDbArc
 50
275.2465052525999
 51
84.7534947474001
  0
ARC
  5
7B5
330
1F
100
AcDbEntity
  8
02___PRT_ALL_AXES
  6
Continuous
 62
     7
100
AcDbCircle
 10
27.8848503887446
 20
20.84575184297248
 30
0.0
 40
0.0688976378
100
AcDbArc
 50
95.24650525259991
 51
264.7534947474001
  0
ARC
  5
7B6
330
1F
100
AcDbEntity
  8
0
  6
Continuous
 62
     7
100
AcDbCircle
 10
27.8848503887446
 20
20.84575184297248
 30
0.0
 40
0.0677165354
100
AcDbArc
 50
275.3375568493999
 51
84.66244315060007
  0
ARC
  5
7B7
330
1F
100
AcDbEntity
  8
0
  6
Continuous
 62
     7
100
AcDbCircle
 10
27.8848503887446
 20
20.84575184297248
 30
0.0
 40
0.0677165354
100
AcDbArc
 50
95.33755684939992
 51
264.6624431506001
  0
CIRCLE
  5
7B8
330
1F
100
AcDbEntity
  8
0
  6
Continuous
 62
     7
100
AcDbCircle
 10
27.8848503887446
 20
20.84575184297248
 30
0.0
 40
0.0433070866
  0
ARC
  5
7B9
330
1F
100
AcDbEntity
  8
0
  6
Continuous
 62
     7
100
AcDbCircle
 10
27.8848503887446
 20
20.84575184297248
 30
0.0
 40
0.0394330709
100
AcDbArc
 50
85.50644555189997
 51
85.11244711509995
  0
ARC
  5
7BA
330
1F
100
AcDbEntity
  8
0
  6
Continuous
 62
     7
100
AcDbCircle
 10
27.8848503887446
 20
20.84575184297248
 30
0.0
 40
0.0347421557
100
AcDbArc
 50
101.0489561198001
 51
211.2580793087
  0
ARC
  5
7BB
330
1F
100
AcDbEntity
  8
02___PRT_ALL_AXES
  6
Continuous
 62
     7
100
AcDbCircle
 10
27.8848503887446
 20
20.84575184297248
 30
0.0
 40
0.0347421557
100
AcDbArc
 50
211.2580793087
 51
31.25807930869998
  0
ARC
  5
7BC
330
1F
100
AcDbEntity
  8
0
  6
Continuous
 62
     7
100
AcDbCircle
 10
27.8848503887446
 20
20.84575184297248
 30
0.0
 40
0.0347421557
100
AcDbArc
 50
31.25807930869998
 51
100.8714739807998
  0
ARC
  5
7BD
330
1F
100
AcDbEntity
  8
0
  6
Continuous
 62
     7
100
AcDbCircle
 10
27.8850605823446
 20
20.84643359117247
 30
0.0
 40
0.0339781873
100
AcDbArc
 50
166.0928110702999
 51
167.0704494136999
  0
CIRCLE
  5
7BE
330
1F
100
AcDbEntity
  8
02___PRT_ALL_AXES
  6
Continuous
 62
     7
100
AcDbCircle
 10
27.8848503887446
 20
20.84575184297248
 30
0.0
 40
0.0310851082
  0
CIRCLE
  5
7BF
330
1F
100
AcDbEntity
  8
02___PRT_ALL_AXES
  6
Continuous
 62
     7
100
AcDbCircle
 10
27.8848503887446
 20
20.84575184297248
 30
0.0
 40
0.0301153979
  0
CIRCLE
  5
7C0
330
1F
100
AcDbEntity
  8
02___PRT_ALL_AXES
  6
Continuous
 62
     7
100
AcDbCircle
 10
27.8848503887446
 20
20.84575184297248
 30
0.0
 40
0.0254244826
  0
ARC
  5
7C1
330
1F
100
AcDbEntity
  8
02___PRT_ALL_AXES
  6
Continuous
 62
     7
100
AcDbCircle
 10
27.8848503887446
 20
20.84575184297248
 30
0.0
 40
0.0246062992
100
AcDbArc
 50
102.7199955969999
 51
77.28000440300005
  0
ARC
  5
7C2
330
1F
100
AcDbEntity
  8
0
  6
Continuous
 62
     7
100
AcDbCircle
 10
27.8848503887446
 20
20.84575184297248
 30
0.0
 40
0.0196850394
100
AcDbArc
 50
233.1301023542
 51
306.8698976458001
  0
ARC
  5
7C3
330
1F
100
AcDbEntity
  8
0
  6
Continuous
 62
     7
100
AcDbCircle
 10
27.8848503887446
 20
20.86740538627247
 30
0.0
 40
0.0059055118
100
AcDbArc
 50
146.296378126
 51
180.0
  0
ARC
  5
7C4
330
1F
100
AcDbEntity
  8
0
  6
Continuous
 62
     7
100
AcDbCircle
 10
27.8848503887446
 20
20.86740538627247
 30
0.0
 40
0.0059055118
100
AcDbArc
 50
0.0
 51
33.84287174899996
  0
ARC
  5
7C5
330
1F
100
AcDbEntity
  8
0
  6
Continuous
 62
     7
100
AcDbCircle
 10
27.8852440895446
 20
20.91858648857247
 30
0.0
 40
0.0059055118
100
AcDbArc
 50
0.0
 51
90.0
  0
ARC
  5
7C6
330
1F
100
AcDbEntity
  8
0
  6
Continuous
 62
     7
100
AcDbCircle
 10
27.8868036494446
 20
20.84575853657248
 30
0.0
 40
0.0393081615
100
AcDbArc
 50
87.94950549060004
 51
88.3465877276
  0
ARC
  5
7C7
330
1F
100
AcDbEntity
  8
0
  6
Continuous
 62
     7
100
AcDbCircle
 10
27.9209752985446
 20
21.07641160487248
 30
0.0
 40
0.0157480315
100
AcDbArc
 50
33.5802986357
 51
37.0926102168
  0
ARC
  5
7C8
330
1F
100
AcDbEntity
  8
0
  6
Continuous
 62
     7
100
AcDbCircle
 10
27.9275299907446
 20
21.07641160487248
 30
0.0
 40
0.0157480315
100
AcDbArc
 50
142.9073897832
 51
146.4197013643
  0
ARC
  5
7C9
330
1F
100
AcDbEntity
  8
0
  6
Continuous
 62
     7
100
AcDbCircle
 10
27.9211276962446
 20
21.07647186667248
 30
0.0
 40
0.0154226994
100
AcDbArc
 50
37.72845332129996
 51
38.71224001109995
  0
ARC
  5
7CA
330
1F
100
AcDbEntity
  8
0
  6
Continuous
 62
     7
100
AcDbCircle
 10
27.9273751391446
 20
21.07647379767248
 30
0.0
 40
0.015419577
100
AcDbArc
 50
140.3439808724001
 51
142.2716417735
  0
ARC
  5
7CB
330
1F
100
AcDbEntity
  8
0
  6
Continuous
 62
     7
100
AcDbCircle
 10
27.9251560878446
 20
21.08121114597247
 30
0.0
 40
0.0101500933
100
AcDbArc
 50
106.4362208191
 51
107.7564711469
  0
ARC
  5
7CC
330
1F
100
AcDbEntity
  8
0
  6
Continuous
 62
     7
100
AcDbCircle
 10
27.9234036613446
 20
21.08139218867247
 30
0.0
 40
0.0099610396
100
AcDbArc
 50
73.04441664900005
 51
73.56958112890007
  0
ARC
  5
7CD
330
1F
100
AcDbEntity
  8
0
  6
Continuous
 62
     7
100
AcDbCircle
 10
27.9727475167446
 20
21.06819278777248
 30
0.0
 40
0.0039370079
100
AcDbArc
 50
359.9999953163999
 51
90.0
  0
ARC
  5
7CE
330
1F
100
AcDbEntity
  8
0
  6
Continuous
 62
     7
100
AcDbCircle
 10
27.9727475167446
 20
20.96976759097247
 30
0.0
 40
0.0039370079
100
AcDbArc
 50
270.0
 51
0.0000046835999413
  0
ARC
  5
7CF
330
1F
100
AcDbEntity
  8
0
  6
Continuous
 62
     7
100
AcDbCircle
 10
27.9412514537446
 20
21.04661719737248
 30
0.0
 40
0.0039370079
100
AcDbArc
 50
0.0
 51
88.8542371618
  0
ARC
  5
7D0
330
1F
100
AcDbEntity
  8
0
  6
Continuous
 62
     7
100
AcDbCircle
 10
27.9412514537446
 20
20.99134318147247
 30
0.0
 40
0.0039370079
100
AcDbArc
 50
271.1457628381999
 51
0.0
  0
ARC
  5
7D1
330
1F
100
AcDbEntity
  8
0
  6
Continuous
 62
     7
100
AcDbCircle
 10
28.0502230525446
 20
19.92247112147247
 30
0.0
 40
0.6521240161000001
100
AcDbArc
 50
122.4866784825998
 51
122.7384836645999
  0
ARC
  5
7D2
330
1F
100
AcDbEntity
  8
0
  6
Continuous
 62
     7
100
AcDbCircle
 10
28.0649855278446
 20
19.30492767417247
 30
0.0
 40
0.0118110236
100
AcDbArc
 50
182.0
 51
216.9597555674999
  0
ARC
  5
7D3
330
1F
100
AcDbEntity
  8
0
  6
Continuous
 62
     7
100
AcDbCircle
 10
27.9885546439446
 20
20.27227993087247
 30
0.0
 40
0.0666778659
100
AcDbArc
 50
225.6976776496002
 51
228.4661361455
  0
ARC
  5
7D4
330
1F
100
AcDbEntity
  8
0
  6
Continuous
 62
     7
100
AcDbCircle
 10
27.9850948204446
 20
20.27221562687247
 30
0.0
 40
0.0665903668
100
AcDbArc
 50
226.4005619617
 51
227.5649970313999
  0
ARC
  5
7D5
330
1F
100
AcDbEntity
  8
0
  6
Continuous
 62
     7
100
AcDbCircle
 10
27.9884033165446
 20
20.27211088017248
 30
0.0
 40
0.0664509809
100
AcDbArc
 50
228.578580396
 51
229.0970796538
  0
ARC
  5
7D6
330
1F
100
AcDbEntity
  8
0
  6
Continuous
 62
     7
100
AcDbCircle
 10
27.9849879162446
 20
20.27209928987248
 30
0.0
 40
0.0664323711
100
AcDbArc
 50
227.5653429756999
 51
228.7273363564
  0
ARC
  5
7D7
330
1F
100
AcDbEntity
  8
0
  6
Continuous
 62
     7
100
AcDbCircle
 10
28.0087500695446
 20
20.27372453977247
 30
0.0
 40
0.0404611102
100
AcDbArc
 50
216.2430489421
 51
230.8221850677
  0
ARC
  5
7D8
330
1F
100
AcDbEntity
  8
0
  6
Continuous
 62
     7
100
AcDbCircle
 10
28.0092527602446
 20
20.27184884957248
 30
0.0
 40
0.0381282106
100
AcDbArc
 50
266.7215016975999
 51
266.9793182228
  0
ARC
  5
7D9
330
1F
100
AcDbEntity
  8
0
  6
Continuous
 62
     7
100
AcDbCircle
 10
28.0092471855446
 20
20.27172228207247
 30
0.0
 40
0.0380015252
100
AcDbArc
 50
266.9776556726999
 51
269.9980298200999
  0
ARC
  5
7DA
330
1F
100
AcDbEntity
  8
0
  6
Continuous
 62
     7
100
AcDbCircle
 10
28.0092454922446
 20
20.27165310557248
 30
0.0
 40
0.0379323488
100
AcDbArc
 50
270.0005839482001
 51
271.5623004517
  0
ARC
  5
7DB
330
1F
100
AcDbEntity
  8
0
  6
Continuous
 62
     7
100
AcDbCircle
 10
27.9914389051446
 20
20.27126563347247
 30
0.0
 40
0.0375451882
100
AcDbArc
 50
262.6031576974
 51
263.3891336099998
  0
ARC
  5
7DC
330
1F
100
AcDbEntity
  8
0
  6
Continuous
 62
     7
100
AcDbCircle
 10
27.9865703448446
 20
20.27125543817247
 30
0.0
 40
0.0375346828
100
AcDbArc
 50
253.8404776654999
 51
269.9840485547001
  0
ARC
  5
7DD
330
1F
100
AcDbEntity
  8
0
  6
Continuous
 62
     7
100
AcDbCircle
 10
27.9914197406446
 20
20.27121424027248
 30
0.0
 40
0.037493484
100
AcDbArc
 50
270.0100304518999
 51
282.1907153006999
  0
ARC
  5
7DE
330
1F
100
AcDbEntity
  8
0
  6
Continuous
 62
     7
100
AcDbCircle
 10
27.9914309474446
 20
20.27117466627247
 30
0.0
 40
0.0374539098
100
AcDbArc
 50
263.3852054229
 51
269.9928972610999
  0
ARC
  5
7DF
330
1F
100
AcDbEntity
  8
0
  6
Continuous
 62
     7
100
AcDbCircle
 10
28.0180181562446
 20
20.27193187757248
 30
0.0
 40
0.038211448
100
AcDbArc
 50
263.2727764709999
 51
263.4412627662001
  0
ARC
  5
7E0
330
1F
100
AcDbEntity
  8
0
  6
Continuous
 62
     7
100
AcDbCircle
 10
28.0114484366446
 20
20.27193144227247
 30
0.0
 40
0.0382110153
100
AcDbArc
 50
263.4893524395001
 51
263.7094926268
  0
ARC
  5
7E1
330
1F
100
AcDbEntity
  8
0
  6
Continuous
 62
     7
100
AcDbCircle
 10
28.0180169849446
 20
20.27192004967247
 30
0.0
 40
0.0381995637
100
AcDbArc
 50
263.4409816028
 51
266.5225841834999
  0
ARC
  5
7E2
330
1F
100
AcDbEntity
  8
0
  6
Continuous
 62
     7
100
AcDbCircle
 10
28.0114466554446
 20
20.27191310887248
 30
0.0
 40
0.0381925972
100
AcDbArc
 50
263.70913511
 51
266.7437256901
  0
ARC
  5
7E3
330
1F
100
AcDbEntity
  8
0
  6
Continuous
 62
     7
100
AcDbCircle
 10
28.0180130521446
 20
20.27186192477247
 30
0.0
 40
0.0381413073
100
AcDbArc
 50
266.5231850877001
 51
266.7183454613001
  0
ARC
  5
7E4
330
1F
100
AcDbEntity
  8
0
  6
Continuous
 62
     7
100
AcDbCircle
 10
28.0136332767446
 20
20.27186185397248
 30
0.0
 40
0.0381412363
100
AcDbArc
 50
266.5231873897
 51
266.7197204167
  0
ARC
  5
7E5
330
1F
100
AcDbEntity
  8
0
  6
Continuous
 62
     7
100
AcDbCircle
 10
28.0158229406446
 20
20.27186083867247
 30
0.0
 40
0.038140216
100
AcDbArc
 50
266.5233297853999
 51
266.7614434423001
  0
ARC
  5
7E6
330
1F
100
AcDbEntity
  8
0
  6
Continuous
 62
     7
100
AcDbCircle
 10
28.0114402128446
 20
20.27180325447247
 30
0.0
 40
0.0380825542
100
AcDbArc
 50
266.7440149548
 51
268.3381192569999
  0
ARC
  5
7E7
330
1F
100
AcDbEntity
  8
0
  6
Continuous
 62
     7
100
AcDbCircle
 10
28.0180099356446
 20
20.27180301437248
 30
0.0
 40
0.0380823151
100
AcDbArc
 50
266.7179529481
 51
268.3455525400998
  0
ARC
  5
7E8
330
1F
100
AcDbEntity
  8
0
  6
Continuous
 62
     7
100
AcDbCircle
 10
28.0136301637446
 20
20.27180299437247
 30
0.0
 40
0.0380822951
100
AcDbArc
 50
266.7193291433999
 51
268.3449005225
  0
ARC
  5
7E9
330
1F
100
AcDbEntity
  8
0
  6
Continuous
 62
     7
100
AcDbCircle
 10
28.0158173112446
 20
20.27174267007248
 30
0.0
 40
0.0380219181
100
AcDbArc
 50
266.7598532656
 51
269.8141165766001
  0
ARC
  5
7EA
330
1F
100
AcDbEntity
  8
0
  6
Continuous
 62
     7
100
AcDbCircle
 10
28.0114363855446
 20
20.27167025967248
 30
0.0
 40
0.0379495043
100
AcDbArc
 50
268.3380718719998
 51
269.8155104716999
  0
ARC
  5
7EB
330
1F
100
AcDbEntity
  8
0
  6
Continuous
 62
     7
100
AcDbCircle
 10
28.0201959235446
 20
20.27166770567248
 30
0.0
 40
0.0379469504
100
AcDbArc
 50
268.3446599988999
 51
269.8154984464999
  0
ARC
  5
7EC
330
1F
100
AcDbEntity
  8
0
  6
Continuous
 62
     7
100
AcDbCircle
 10
28.0136262710446
 20
20.27166767197247
 30
0.0
 40
0.0379469167
100
AcDbArc
 50
268.3448742262001
 51
269.8154981403
  0
ARC
  5
7ED
330
1F
100
AcDbEntity
  8
0
  6
Continuous
 62
     7
100
AcDbCircle
 10
28.0180060394446
 20
20.27166755127247
 30
0.0
 40
0.037946796
100
AcDbArc
 50
268.3455277093
 51
269.8154976819999
  0
ARC
  5
7EE
330
1F
100
AcDbEntity
  8
0
  6
Continuous
 62
     7
100
AcDbCircle
 10
28.0201949138446
 20
20.27165570497247
 30
0.0
 40
0.0379349481
100
AcDbArc
 50
270.0005831766
 51
271.5685721179999
  0
ARC
  5
7EF
330
1F
100
AcDbEntity
  8
0
  6
Continuous
 62
     7
100
AcDbCircle
 10
28.0180050288446
 20
20.27165322827247
 30
0.0
 40
0.0379324715
100
AcDbArc
 50
270.0005842981
 51
271.5635943003
  0
ARC
  5
7F0
330
1F
100
AcDbEntity
  8
0
  6
Continuous
 62
     7
100
AcDbCircle
 10
28.0136252605446
 20
20.27165311517248
 30
0.0
 40
0.0379323583
100
AcDbArc
 50
270.0005841833999
 51
271.5629731802
  0
ARC
  5
7F1
330
1F
100
AcDbEntity
  8
0
  6
Continuous
 62
     7
100
AcDbCircle
 10
28.0114353792446
 20
20.27165294397248
 30
0.0
 40
0.0379321871
100
AcDbArc
 50
270.0005797174
 51
271.5574946640999
  0
ARC
  5
7F2
330
1F
100
AcDbEntity
  8
0
  6
Continuous
 62
     7
100
AcDbCircle
 10
28.0158151496446
 20
20.27165287137247
 30
0.0
 40
0.0379321145
100
AcDbArc
 50
270.0005768023
 51
271.5536926394
  0
ARC
  5
7F3
330
1F
100
AcDbEntity
  8
0
  6
Continuous
 62
     7
100
AcDbCircle
 10
28.0158155372446
 20
20.27158247787248
 30
0.0
 40
0.037861721
100
AcDbArc
 50
269.8160146115
 51
269.9999912995999
  0
ARC
  5
7F4
330
1F
100
AcDbEntity
  8
0
  6
Continuous
 62
     7
100
AcDbCircle
 10
28.0114357688446
 20
20.27158030797247
 30
0.0
 40
0.0378595511
100
AcDbArc
 50
269.8160054787
 51
269.9999912559
  0
ARC
  5
7F5
330
1F
100
AcDbEntity
  8
0
  6
Continuous
 62
     7
100
AcDbCircle
 10
28.0201953057446
 20
20.27157737347248
 30
0.0
 40
0.0378566166
100
AcDbArc
 50
269.8159932356001
 51
269.9999911881999
  0
ARC
  5
7F6
330
1F
100
AcDbEntity
  8
0
  6
Continuous
 62
     7
100
AcDbCircle
 10
28.0136256531446
 20
20.27157731617247
 30
0.0
 40
0.0378565594
100
AcDbArc
 50
269.8159929868
 51
269.9999911836
  0
ARC
  5
7F7
330
1F
100
AcDbEntity
  8
0
  6
Continuous
 62
     7
100
AcDbCircle
 10
28.0180054215446
 20
20.27157717397248
 30
0.0
 40
0.0378564171
100
AcDbArc
 50
269.8159924065
 51
269.9999911757999
  0
ARC
  5
7F8
330
1F
100
AcDbEntity
  8
0
  6
Continuous
 62
     7
100
AcDbCircle
 10
28.0167875270446
 20
20.27531408947247
 30
0.0
 40
0.0430117469
100
AcDbArc
 50
198.7464348904
 51
199.7914254369
  0
ARC
  5
7F9
330
1F
100
AcDbEntity
  8
0
  6
Continuous
 62
     7
100
AcDbCircle
 10
28.0166395825446
 20
20.27530488867247
 30
0.0
 40
0.0429838973
100
AcDbArc
 50
199.3380045693
 51
200.0534096558
  0
ARC
  5
7FA
330
1F
100
AcDbEntity
  8
0
  6
Continuous
 62
     7
100
AcDbCircle
 10
28.0167210166446
 20
20.27529019587247
 30
0.0
 40
0.0429410749
100
AcDbArc
 50
199.7914760415
 51
200.6001556384999
  0
ARC
  5
7FB
330
1F
100
AcDbEntity
  8
0
  6
Continuous
 62
     7
100
AcDbCircle
 10
28.0165916471446
 20
20.27528740457247
 30
0.0
 40
0.0429328729
100
AcDbArc
 50
200.0534266198001
 51
200.6574233008
  0
ARC
  5
7FC
330
1F
100
AcDbEntity
  8
0
  6
Continuous
 62
     7
100
AcDbCircle
 10
28.0282608553446
 20
20.27303377747248
 30
0.0
 40
0.0395291387
100
AcDbArc
 50
301.9077511513001
 51
313.6620867844001
  0
ARC
  5
7FD
330
1F
100
AcDbEntity
  8
0
  6
Continuous
 62
     7
100
AcDbCircle
 10
28.0245878132446
 20
20.27193187937248
 30
0.0
 40
0.0382114501
100
AcDbArc
 50
263.2727944058
 51
263.4400908326
  0
ARC
  5
7FE
330
1F
100
AcDbEntity
  8
0
  6
Continuous
 62
     7
100
AcDbCircle
 10
28.0223979160446
 20
20.27193183247248
 30
0.0
 40
0.0382114023
100
AcDbArc
 50
263.2727660163001
 51
263.4413996658001
  0
ARC
  5
7FF
330
1F
100
AcDbEntity
  8
0
  6
Continuous
 62
     7
100
AcDbCircle
 10
28.0202080320446
 20
20.27193177637248
 30
0.0
 40
0.0382113467
100
AcDbArc
 50
263.2727793613999
 51
263.4420405880001
  0
ARC
  5
800
330
1F
100
AcDbEntity
  8
0
  6
Continuous
 62
     7
100
AcDbCircle
 10
28.0267776693446
 20
20.27193172087248
 30
0.0
 40
0.0382112902
100
AcDbArc
 50
263.2727496489999
 51
263.4428609985998
  0
ARC
  5
801
330
1F
100
AcDbEntity
  8
0
  6
Continuous
 62
     7
100
AcDbCircle
 10
28.0223967533446
 20
20.27192008277248
 30
0.0
 40
0.0381995968
100
AcDbArc
 50
263.4411193438999
 51
266.5225875724001
  0
ARC
  5
802
330
1F
100
AcDbEntity
  8
0
  6
Continuous
 62
     7
100
AcDbCircle
 10
28.0267765141446
 20
20.27192003977248
 30
0.0
 40
0.0381995535
100
AcDbArc
 50
263.4425816378001
 51
266.5225936031001
  0
ARC
  5
803
330
1F
100
AcDbEntity
  8
0
  6
Continuous
 62
     7
100
AcDbCircle
 10
28.0245866360446
 20
20.27191999787247
 30
0.0
 40
0.0381995119
100
AcDbArc
 50
263.4398090139999
 51
266.5225828317001
  0
ARC
  5
804
330
1F
100
AcDbEntity
  8
0
  6
Continuous
 62
     7
100
AcDbCircle
 10
28.0202068587446
 20
20.27191992797248
 30
0.0
 40
0.0381994418
100
AcDbArc
 50
263.4417593384
 51
266.5225875158001
  0
ARC
  5
805
330
1F
100
AcDbEntity
  8
0
  6
Continuous
 62
     7
100
AcDbCircle
 10
28.0267725915446
 20
20.27186206367247
 30
0.0
 40
0.0381414463
100
AcDbArc
 50
266.5231927395999
 51
266.7171137047
  0
ARC
  5
806
330
1F
100
AcDbEntity
  8
0
  6
Continuous
 62
     7
100
AcDbCircle
 10
28.0223928249446
 20
20.27186202557247
 30
0.0
 40
0.0381414082
100
AcDbArc
 50
266.5231879695998
 51
266.7170804294
  0
ARC
  5
807
330
1F
100
AcDbEntity
  8
0
  6
Continuous
 62
     7
100
AcDbCircle
 10
28.0245826999446
 20
20.27186182587247
 30
0.0
 40
0.0381412083
100
AcDbArc
 50
266.5231843608
 51
266.7191337904
  0
ARC
  5
808
330
1F
100
AcDbEntity
  8
0
  6
Continuous
 62
     7
100
AcDbCircle
 10
28.0202029263446
 20
20.27186180407247
 30
0.0
 40
0.0381411863
100
AcDbArc
 50
266.5231877961999
 51
266.7201135302999
  0
ARC
  5
809
330
1F
100
AcDbEntity
  8
0
  6
Continuous
 62
     7
100
AcDbCircle
 10
28.0289586876446
 20
20.27185373697248
 30
0.0
 40
0.038132975
100
AcDbArc
 50
266.5243060742
 51
266.7069188934
  0
ARC
  5
80A
330
1F
100
AcDbEntity
  8
0
  6
Continuous
 62
     7
100
AcDbCircle
 10
28.0289582689446
 20
20.27184597707247
 30
0.0
 40
0.0381252038
100
AcDbArc
 50
266.7068771694001
 51
267.9318600216999
  0
ARC
  5
80B
330
1F
100
AcDbEntity
  8
0
  6
Continuous
 62
     7
100
AcDbCircle
 10
28.0289579937446
 20
20.27184465127247
 30
0.0
 40
0.038123864
100
AcDbArc
 50
263.2584505658999
 51
266.5245190701
  0
ARC
  5
80C
330
1F
100
AcDbEntity
  8
0
  6
Continuous
 62
     7
100
AcDbCircle
 10
28.0289577523446
 20
20.27183262147247
 30
0.0
 40
0.0381118384
100
AcDbArc
 50
267.9319115047
 51
268.1571509964001
  0
ARC
  5
80D
330
1F
100
AcDbEntity
  8
0
  6
Continuous
 62
     7
100
AcDbCircle
 10
28.0289573491446
 20
20.27181937527247
 30
0.0
 40
0.038098586
100
AcDbArc
 50
268.1571164643
 51
268.9376920156
  0
ARC
  5
80E
330
1F
100
AcDbEntity
  8
0
  6
Continuous
 62
     7
100
AcDbCircle
 10
28.0201998146446
 20
20.27180296477248
 30
0.0
 40
0.0380822654
100
AcDbArc
 50
266.7197226633
 51
268.3446867136001
  0
ARC
  5
80F
330
1F
100
AcDbEntity
  8
0
  6
Continuous
 62
     7
100
AcDbCircle
 10
28.0223896972446
 20
20.27180290017247
 30
0.0
 40
0.0380822007
100
AcDbArc
 50
266.7166842058
 51
268.3512624064
  0
ARC
  5
810
330
1F
100
AcDbEntity
  8
0
  6
Continuous
 62
     7
100
AcDbCircle
 10
28.0267694614446
 20
20.27180288527247
 30
0.0
 40
0.0380821857
100
AcDbArc
 50
266.7167165891999
 51
268.3532325714001
  0
ARC
  5
811
330
1F
100
AcDbEntity
  8
0
  6
Continuous
 62
     7
100
AcDbCircle
 10
28.0289568445446
 20
20.27179135517247
 30
0.0
 40
0.0380705614
100
AcDbArc
 50
268.9376695248999
 51
269.8140276326999
  0
ARC
  5
812
330
1F
100
AcDbEntity
  8
0
  6
Continuous
 62
     7
100
AcDbCircle
 10
28.0289567313446
 20
20.27176951157247
 30
0.0
 40
0.0380487175
100
AcDbArc
 50
269.8140912854
 51
269.9973579607
  0
ARC
  5
813
330
1F
100
AcDbEntity
  8
0
  6
Continuous
 62
     7
100
AcDbCircle
 10
28.0245769142446
 20
20.27174166857248
 30
0.0
 40
0.0380209168
100
AcDbArc
 50
266.7174753258
 51
269.8140154807
  0
ARC
  5
814
330
1F
100
AcDbEntity
  8
0
  6
Continuous
 62
     7
100
AcDbCircle
 10
28.0223848073446
 20
20.27167292617248
 30
0.0
 40
0.0379521694
100
AcDbArc
 50
270.0005688682001
 51
271.5989265525998
  0
ARC
  5
815
330
1F
100
AcDbEntity
  8
0
  6
Continuous
 62
     7
100
AcDbCircle
 10
28.0223858048446
 20
20.27166726847247
 30
0.0
 40
0.0379465131
100
AcDbArc
 50
268.3512449868
 51
269.8155010483
  0
ARC
  5
816
330
1F
100
AcDbEntity
  8
0
  6
Continuous
 62
     7
100
AcDbCircle
 10
28.0267655720446
 20
20.27166725077247
 30
0.0
 40
0.0379464954
100
AcDbArc
 50
268.3532174217
 51
269.8155027415998
  0
ARC
  5
817
330
1F
100
AcDbEntity
  8
0
  6
Continuous
 62
     7
100
AcDbCircle
 10
28.0245746820446
 20
20.27165651897247
 30
0.0
 40
0.0379357622
100
AcDbArc
 50
270.0005833937999
 51
271.5706376084001
  0
ARC
  5
818
330
1F
100
AcDbEntity
  8
0
  6
Continuous
 62
     7
100
AcDbCircle
 10
28.0267645946446
 20
20.27165029197248
 30
0.0
 40
0.0379295351
100
AcDbArc
 50
270.0005405999
 51
271.501819152
  0
ARC
  5
819
330
1F
100
AcDbEntity
  8
0
  6
Continuous
 62
     7
100
AcDbCircle
 10
28.0245750741446
 20
20.27157725377247
 30
0.0
 40
0.0378564969
100
AcDbArc
 50
269.8159927371
 51
269.9999911870999
  0
ARC
  5
81A
330
1F
100
AcDbEntity
  8
0
  6
Continuous
 62
     7
100
AcDbCircle
 10
28.0267649583446
 20
20.27157721107248
 30
0.0
 40
0.0378564542
100
AcDbArc
 50
269.8159926958
 51
269.999991177
  0
ARC
  5
81B
330
1F
100
AcDbEntity
  8
0
  6
Continuous
 62
     7
100
AcDbCircle
 10
28.0223851899446
 20
20.27157712847247
 30
0.0
 40
0.0378563717
100
AcDbArc
 50
269.8159922972001
 51
269.9999911772999
  0
ARC
  5
81C
330
1F
100
AcDbEntity
  8
0
  6
Continuous
 62
     7
100
AcDbCircle
 10
28.0358632194446
 20
20.48209302857247
 30
0.0
 40
0.0078740157
100
AcDbArc
 50
270.0
 51
0.0
  0
ARC
  5
81D
330
1F
100
AcDbEntity
  8
0
  6
Continuous
 62
     7
100
AcDbCircle
 10
28.0358632194446
 20
20.64744735927248
 30
0.0
 40
0.0078740157
100
AcDbArc
 50
0.0
 51
90.0
  0
ARC
  5
81E
330
1F
100
AcDbEntity
  8
0
  6
Continuous
 62
     7
100
AcDbCircle
 10
28.0501878651446
 20
20.99469116097247
 30
0.0
 40
0.6520587113000001
100
AcDbArc
 50
237.2615036207
 51
237.5133331800999
  0
ARC
  5
81F
330
1F
100
AcDbEntity
  8
0
  6
Continuous
 62
     7
100
AcDbCircle
 10
28.0543792499446
 20
21.00323215787248
 30
0.0
 40
0.0787401575
100
AcDbArc
 50
89.14933167749994
 51
91.41140974420004
  0
ARC
  5
820
330
1F
100
AcDbEntity
  8
0
  6
Continuous
 62
     7
100
AcDbCircle
 10
28.0194004954446
 20
21.07641160487248
 30
0.0
 40
0.0157480315
100
AcDbArc
 50
33.5802986357
 51
37.0926102168
  0
ARC
  5
821
330
1F
100
AcDbEntity
  8
0
  6
Continuous
 62
     7
100
AcDbCircle
 10
28.0259551876446
 20
21.07641160487248
 30
0.0
 40
0.0157480315
100
AcDbArc
 50
142.9073897832
 51
146.4197013643
  0
ARC
  5
822
330
1F
100
AcDbEntity
  8
0
  6
Continuous
 62
     7
100
AcDbCircle
 10
28.0195528931446
 20
21.07647186667248
 30
0.0
 40
0.0154226994
100
AcDbArc
 50
37.72845332129996
 51
38.71224001109995
  0
ARC
  5
823
330
1F
100
AcDbEntity
  8
0
  6
Continuous
 62
     7
100
AcDbCircle
 10
28.0258003359446
 20
21.07647379767248
 30
0.0
 40
0.015419577
100
AcDbArc
 50
140.3439808716001
 51
142.2716417743999
  0
ARC
  5
824
330
1F
100
AcDbEntity
  8
0
  6
Continuous
 62
     7
100
AcDbCircle
 10
28.0235812846446
 20
21.08121114597247
 30
0.0
 40
0.0101500933
100
AcDbArc
 50
106.4362208191
 51
107.7564711469
  0
ARC
  5
825
330
1F
100
AcDbEntity
  8
0
  6
Continuous
 62
     7
100
AcDbCircle
 10
28.0218288581446
 20
21.08139218867247
 30
0.0
 40
0.0099610396
100
AcDbArc
 50
73.04441664969992
 51
73.56958112869995
  0
ARC
  5
826
330
1F
100
AcDbEntity
  8
0
  6
Continuous
 62
     7
100
AcDbCircle
 10
28.0199916112446
 20
20.99142113427248
 30
0.0
 40
0.0039370079
100
AcDbArc
 50
270.0
 51
0.0
  0
ARC
  5
827
330
1F
100
AcDbEntity
  8
0
  6
Continuous
 62
     7
100
AcDbCircle
 10
28.0199916112446
 20
21.04653924447248
 30
0.0
 40
0.0039370079
100
AcDbArc
 50
0.0
 51
90.0
  0
ARC
  5
828
330
1F
100
AcDbEntity
  8
0
  6
Continuous
 62
     7
100
AcDbCircle
 10
27.9806215324446
 20
21.05441326027248
 30
0.0
 40
0.0039370079
100
AcDbArc
 50
180.0
 51
270.0
  0
ARC
  5
829
330
1F
100
AcDbEntity
  8
0
  6
Continuous
 62
     7
100
AcDbCircle
 10
27.9806215324446
 20
20.98354711847247
 30
0.0
 40
0.0039370079
100
AcDbArc
 50
90.0
 51
180.0
  0
ARC
  5
82A
330
1F
100
AcDbEntity
  8
0
  6
Continuous
 62
     7
100
AcDbCircle
 10
28.2569260705446
 20
20.34158889467247
 30
0.0
 40
0.0019685039
100
AcDbArc
 50
273.3595302174999
 51
347.50343918
  0
ARC
  5
82B
330
1F
100
AcDbEntity
  8
0
  6
Continuous
 62
     7
100
AcDbCircle
 10
28.1202229646446
 20
21.22040747457248
 30
0.0
 40
0.8991163190000001
100
AcDbArc
 50
241.9835153931999
 51
242.176174585
  0
ARC
  5
82C
330
1F
100
AcDbEntity
  8
0
  6
Continuous
 62
     7
100
AcDbCircle
 10
28.2568787277446
 20
20.91639204427248
 30
0.0
 40
0.0019685039
100
AcDbArc
 50
10.84685359300007
 51
86.60596042099998
  0
ARC
  5
82D
330
1F
100
AcDbEntity
  8
0
  6
Continuous
 62
     7
100
AcDbCircle
 10
28.2565665907446
 20
20.91639204537248
 30
0.0
 40
0.0019685028
100
AcDbArc
 50
0.8912564723999581
 51
89.99994767209988
  0
SPLINE
  5
82E
330
1F
100
AcDbEntity
  8
0
  6
Continuous
 62
     7
100
AcDbSpline
210
0.0
220
0.0
230
1.0
 70
     8
 71
     3
 72
    25
 73
    21
 74
    19
 42
0.0000000001
 43
0.0000000001
 44
0.0000000001
 12
-0.952397685417902
 22
-0.3048584078070066
 32
0.0
 13
-0.6381796061167041
 23
-0.7698875179769629
 33
0.0
 40
0.0
 40
0.0
 40
0.0
 40
0.0
 40
0.0000458035776691
 40
0.0003373384174385
 40
0.0006473065434746
 40
0.0009822793255099
 40
0.0013495809463625
 40
0.0017639008893184
 40
0.0022194648527627
 40
0.0027047224949014
 40
0.0032176458485738
 40
0.0037596605144801
 40
0.0043189507661281
 40
0.0048769471802212
 40
0.0054299129941273
 40
0.0059831583649848
 40
0.0065553271936997
 40
0.0071686819273382
 40
0.0078462645619767
 40
0.0080922766966172
 40
0.0080922766966172
 40
0.0080922766966172
 40
0.0080922766966172
 10
28.0204857918446
 20
21.09087770267247
 30
0.0
 10
28.02047125077081
 20
21.09087304813722
 30
0.0
 10
28.02036423253012
 20
21.09083853372675
 30
0.0
 10
28.0201599302728
 20
21.09076903926295
 30
0.0
 10
28.01986714214073
 20
21.09066068800552
 30
0.0
 10
28.01955392655481
 20
21.09053509814348
 30
0.0
 10
28.01921241530367
 20
21.09038698045924
 30
0.0
 10
28.0188390611852
 20
21.09021167778432
 30
0.0
 10
28.01843644119456
 20
21.09000669850015
 30
0.0
 10
28.01801213457061
 20
21.08977244505552
 30
0.0
 10
28.01757148680225
 20
21.08950878318764
 30
0.0
 10
28.01711992194462
 20
21.08921595877003
 30
0.0
 10
28.01666724729193
 20
21.08889791797915
 30
0.0
 10
28.01622384561724
 20
21.08856100747892
 30
0.0
 10
28.01579470444605
 20
21.0882092878863
 30
0.0
 10
28.01537511901054
 20
21.08783904392616
 30
0.0
 10
28.01495487623992
 20
21.0874396961855
 30
0.0
 10
28.01452147909844
 20
21.08699466954268
 30
0.0
 10
28.0141796614437
 20
21.08661280437218
 30
0.0
 10
28.01398129655366
 20
21.08637735136305
 30
0.0
 10
28.0139289632446
 20
21.08631421747248
 30
0.0
 11
28.0204857918446
 21
21.09087770267247
 31
0.0
 11
28.0204421991446
 21
21.09086364407247
 31
0.0
 11
28.0201661678446
 21
21.09076983957248
 31
0.0
 11
28.0198754397446
 21
21.09066233417248
 31
0.0
 11
28.0195645014446
 21
21.09053773827247
 31
0.0
 11
28.0192274990446
 21
21.09039165657247
 31
0.0
 11
28.0188524295446
 21
21.09021563417247
 31
0.0
 11
28.0184464179446
 21
21.09000901107247
 31
0.0
 11
28.0180215712446
 21
21.08977453237248
 31
0.0
 11
28.0175813954446
 21
21.08951121577248
 31
0.0
 11
28.0171266032446
 21
21.08921635317248
 31
0.0
 11
28.0166689494446
 21
21.08889485887247
 31
0.0
 11
28.0162246414446
 21
21.08855729347248
 31
0.0
 11
28.0157969521446
 21
21.08820678947248
 31
0.0
 11
28.0153821083446
 21
21.08784074977247
 31
0.0
 11
28.0149673348446
 21
21.08744661767248
 31
0.0
 11
28.0145393983446
 21
21.08700721537247
 31
0.0
 11
28.0140874706446
 21
21.08650235937247
 31
0.0
 11
28.0139289632446
 21
21.08631421747248
 31
0.0
  0
SPLINE
  5
82F
330
1F
100
AcDbEntity
  8
0
  6
Continuous
 62
     7
100
AcDbSpline
210
0.0
220
0.0
230
1.0
 70
     8
 71
     3
 72
    25
 73
    21
 74
    19
 42
0.0000000001
 43
0.0000000001
 44
0.0000000001
 12
-0.6254096938917391
 22
0.7802965556672934
 32
0.0
 13
-0.9565364458474883
 23
0.2916128045293198
 33
0.0
 40
0.0
 40
0.0
 40
0.0
 40
0.0
 40
0.0004915099311472
 40
0.0011624586753704
 40
0.0017700114569529
 40
0.0023362726757387
 40
0.002882587265673
 40
0.0034273352895757
 40
0.0039758781054009
 40
0.0045263660990794
 40
0.0050648079182847
 40
0.0055809933709799
 40
0.0060768153661878
 40
0.0065500919139049
 40
0.0069839622100945
 40
0.0073653458299958
 40
0.0077053964583308
 40
0.008014504526074
 40
0.0083026680214899
 40
0.0084888064018416
 40
0.0084888064018416
 40
0.0084888064018416
 40
0.0084888064018416
 10
28.0315871764446
 20
21.08611736737247
 30
0.0
 10
28.03148471141941
 20
21.08624520854126
 30
0.0
 10
28.03123754173622
 20
21.08654371780607
 30
0.0
 10
28.03084424153339
 20
21.0869837733513
 30
0.0
 10
28.03041562770915
 20
21.08742492281761
 30
0.0
 10
28.03000050956976
 20
21.08782063458738
 30
0.0
 10
28.02958691768235
 20
21.08818705461557
 30
0.0
 10
28.02916499028672
 20
21.08853462727641
 30
0.0
 10
28.02872965053963
 20
21.08886754691618
 30
0.0
 10
28.02828411159359
 20
21.08918306987081
 30
0.0
 10
28.02783632613687
 20
21.08947612580004
 30
0.0
 10
28.02739388473044
 20
21.0897434405391
 30
0.0
 10
28.02696130293012
 20
21.08998446078315
 30
0.0
 10
28.02654510035899
 20
21.09019791566392
 30
0.0
 10
28.02615655439458
 20
21.09038115236401
 30
0.0
 10
28.02580326866262
 20
21.09053456549923
 30
0.0
 10
28.0254843494569
 20
21.09066232572444
 30
0.0
 10
28.02519123949361
 20
21.0907706233421
 30
0.0
 10
28.02494395398989
 20
21.09085463862257
 30
0.0
 10
28.02479314822619
 20
21.09090213962743
 30
0.0
 10
28.0247337988446
 20
21.09092023307248
 30
0.0
 11
28.0315871764446
 21
21.08611736737247
 31
0.0
 11
28.0312737052446
 21
21.08649594077247
 31
0.0
 11
28.0308265848446
 21
21.08699619627247
 31
0.0
 11
28.0304032073446
 21
21.08743193917248
 31
0.0
 11
28.0299933255446
 21
21.08782264197248
 31
0.0
 11
28.0295843983446
 21
21.08818491007248
 31
0.0
 11
28.0291639294446
 21
21.08853125717248
 31
0.0
 11
28.0287281811446
 21
21.08886445777248
 31
0.0
 11
28.0282789180446
 21
21.08918257677248
 31
0.0
 11
28.0278283607446
 21
21.08947739487248
 31
0.0
 11
28.0273865251446
 21
21.08974428197248
 31
0.0
 11
28.0269533634446
 21
21.08998555027247
 31
0.0
 11
28.0265322043446
 21
21.09020145697248
 31
0.0
 11
28.0261397455446
 21
21.09038644217247
 31
0.0
 11
28.0257898887446
 21
21.09053827657247
 31
0.0
 11
28.0254741961446
 21
21.09066465937248
 31
0.0
 11
28.0251842191446
 21
21.09077171607248
 31
0.0
 11
28.0249113467446
 21
21.09086433817247
 31
0.0
 11
28.0247337988446
 21
21.09092023307248
 31
0.0
  0
SPLINE
  5
830
330
1F
100
AcDbEntity
  8
0
  6
Continuous
 62
     7
100
AcDbSpline
210
0.0
220
0.0
230
1.0
 70
     8
 71
     3
 72
    25
 73
    21
 74
    19
 42
0.0000000001
 43
0.0000000001
 44
0.0000000001
 12
-0.952397685417902
 22
-0.3048584078070066
 32
0.0
 13
-0.6381796061167041
 23
-0.7698875179769629
 33
0.0
 40
0.0
 40
0.0
 40
0.0
 40
0.0
 40
0.000045803482496
 40
0.0003373384169475
 40
0.0006473064491923
 40
0.0009822792312268
 40
0.0013495809438295
 40
0.0017639008867862
 40
0.0022194648502296
 40
0.0027047224923691
 40
0.0032176458460408
 40
0.0037596605119485
 40
0.0043189507635958
 40
0.0048769470980627
 40
0.0054299129893141
 40
0.0059831583601715
 40
0.0065553271888871
 40
0.0071686818527558
 40
0.0078462645540901
 40
0.0080922766887313
 40
0.0080922766887313
 40
0.0080922766887313
 40
0.0080922766887313
 10
27.9220605949446
 20
21.09087770267247
 30
0.0
 10
27.92204605390103
 20
21.09087304814689
 30
0.0
 10
27.92193903570015
 20
21.09083853361362
 30
0.0
 10
27.92173473341016
 20
21.09076903934948
 30
0.0
 10
27.92144194532055
 20
21.0906606879676
 30
0.0
 10
27.92112872972861
 20
21.09053509812884
 30
0.0
 10
27.9207872184258
 20
21.09038698048449
 30
0.0
 10
27.92041386428695
 20
21.09021167778047
 30
0.0
 10
27.92001124429398
 20
21.09000669850138
 30
0.0
 10
27.91958693767105
 20
21.08977244505482
 30
0.0
 10
27.91914628990106
 20
21.08950878318923
 30
0.0
 10
27.91869472504925
 20
21.08921595876402
 30
0.0
 10
27.91824205039584
 20
21.08889791801745
 30
0.0
 10
27.91779864880469
 20
21.08856100741054
 30
0.0
 10
27.91736950754592
 20
21.08820928792706
 30
0.0
 10
27.9169499221212
 20
21.08783904391456
 30
0.0
 10
27.91652967933272
 20
21.08743969622496
 30
0.0
 10
27.91609628231056
 20
21.08699466946891
 30
0.0
 10
27.91575446454809
 20
21.08661280439827
 30
0.0
 10
27.91555609965366
 20
21.08637735136305
 30
0.0
 10
27.9155037663446
 20
21.08631421747248
 30
0.0
 11
27.9220605949446
 21
21.09087770267247
 31
0.0
 11
27.9220170023446
 21
21.09086364407247
 31
0.0
 11
27.9217409709446
 21
21.09076983957248
 31
0.0
 11
27.9214502429446
 21
21.09066233417248
 31
0.0
 11
27.9211393046446
 21
21.09053773827247
 31
0.0
 11
27.9208023021446
 21
21.09039165657247
 31
0.0
 11
27.9204272326446
 21
21.09021563417247
 31
0.0
 11
27.9200212210446
 21
21.09000901107247
 31
0.0
 11
27.9195963743446
 21
21.08977453237248
 31
0.0
 11
27.9191561985446
 21
21.08951121577248
 31
0.0
 11
27.9187014063446
 21
21.08921635317248
 31
0.0
 11
27.9182437525446
 21
21.08889485887247
 31
0.0
 11
27.9177994446446
 21
21.08855729347248
 31
0.0
 11
27.9173717552446
 21
21.08820678947248
 31
0.0
 11
27.9169569114446
 21
21.08784074977247
 31
0.0
 11
27.9165421379446
 21
21.08744661767248
 31
0.0
 11
27.9161142015446
 21
21.08700721537247
 31
0.0
 11
27.9156622737446
 21
21.08650235937247
 31
0.0
 11
27.9155037663446
 21
21.08631421747248
 31
0.0
  0
SPLINE
  5
831
330
1F
100
AcDbEntity
  8
0
  6
Continuous
 62
     7
100
AcDbSpline
210
0.0
220
0.0
230
1.0
 70
     8
 71
     3
 72
    25
 73
    21
 74
    19
 42
0.0000000001
 43
0.0000000001
 44
0.0000000001
 12
-0.6254096938917391
 22
0.7802965556672934
 32
0.0
 13
-0.9565364458474883
 23
0.2916128045293198
 33
0.0
 40
0.0
 40
0.0
 40
0.0
 40
0.0
 40
0.00049150986737
 40
0.0011624586115944
 40
0.0017700113931769
 40
0.0023362726843452
 40
0.0028825872742809
 40
0.0034273352981836
 40
0.0039758781140088
 40
0.0045263660260741
 40
0.0050648079289589
 40
0.0055809933816533
 40
0.0060768153768612
 40
0.0065500918355896
 40
0.00698396213178
 40
0.0073653457516805
 40
0.0077053963800162
 40
0.0080145045415696
 40
0.0083026679422918
 40
0.0084888063226444
 40
0.0084888063226444
 40
0.0084888063226444
 40
0.0084888063226444
 10
27.9331619795446
 20
21.08611736737247
 30
0.0
 10
27.9330595145327
 20
21.08624520852467
 30
0.0
 10
27.93281234496164
 20
21.08654371785499
 30
0.0
 10
27.93241904471718
 20
21.08698377333661
 30
0.0
 10
27.93199043091335
 20
21.08742492285639
 30
0.0
 10
27.93157531267072
 20
21.08782063455369
 30
0.0
 10
27.93116172078586
 20
21.08818705461879
 30
0.0
 10
27.93073979338949
 20
21.08853462728088
 30
0.0
 10
27.9303044536465
 20
21.08886754687832
 30
0.0
 10
27.92985891477141
 20
21.08918306993625
 30
0.0
 10
27.9294111292464
 20
21.08947612576377
 30
0.0
 10
27.92896868783615
 20
21.08974344054868
 30
0.0
 10
27.92853610604728
 20
21.08998446075206
 30
0.0
 10
27.92811990353923
 20
21.09019791569012
 30
0.0
 10
27.92773135759357
 20
21.09038115236257
 30
0.0
 10
27.92737807186105
 20
21.0905345654946
 30
0.0
 10
27.92705915263391
 20
21.09066232575282
 30
0.0
 10
27.92676604264439
 20
21.09077062329717
 30
0.0
 10
27.92651875716312
 20
21.0908546386417
 30
0.0
 10
27.9263679514262
 20
21.09090213962743
 30
0.0
 10
27.9263086020446
 20
21.09092023307248
 30
0.0
 11
27.9331619795446
 21
21.08611736737247
 31
0.0
 11
27.9328485084446
 21
21.08649594077247
 31
0.0
 11
27.9324013880446
 21
21.08699619627247
 31
0.0
 11
27.9319780105446
 21
21.08743193917248
 31
0.0
 11
27.9315681286446
 21
21.08782264197248
 31
0.0
 11
27.9311592014446
 21
21.08818491007248
 31
0.0
 11
27.9307387325446
 21
21.08853125717248
 31
0.0
 11
27.9303029842446
 21
21.08886445777248
 31
0.0
 11
27.9298537212446
 21
21.08918257677248
 31
0.0
 11
27.9294031638446
 21
21.08947739487248
 31
0.0
 11
27.9289613282446
 21
21.08974428197248
 31
0.0
 11
27.9285281665446
 21
21.08998555027247
 31
0.0
 11
27.9281070075446
 21
21.09020145697248
 31
0.0
 11
27.9277145487446
 21
21.09038644217247
 31
0.0
 11
27.9273646919446
 21
21.09053827657247
 31
0.0
 11
27.9270489993446
 21
21.09066465937248
 31
0.0
 11
27.9267590222446
 21
21.09077171607248
 31
0.0
 11
27.9264861499446
 21
21.09086433817247
 31
0.0
 11
27.9263086020446
 21
21.09092023307248
 31
0.0
  0
SPLINE
  5
832
330
1F
100
AcDbEntity
  8
0
  6
Continuous
 62
     7
100
AcDbSpline
210
0.0
220
0.0
230
1.0
 70
     8
 71
     3
 72
    15
 73
    11
 74
     9
 42
0.0000000001
 43
0.0000000001
 44
0.0000000001
 12
0.0
 22
-1.0
 32
0.0
 13
0.9999999979272542
 23
0.0000643854898792
 33
0.0
 40
0.0
 40
0.0
 40
0.0
 40
0.0
 40
0.0013242673227928
 40
0.0025394646466011
 40
0.0037619751446224
 40
0.0049327844360776
 40
0.0061797098578103
 40
0.0073932683911408
 40
0.0087061989669043
 40
0.0092598939389811
 40
0.0092598939389811
 40
0.0092598939389811
 40
0.0092598939389811
 10
27.9451884616446
 20
20.97173620317247
 30
0.0
 10
27.9451884616446
 20
20.97129478073155
 30
0.0
 10
27.94528424245096
 20
20.97044507435918
 30
0.0
 10
27.94569079924562
 20
20.96925008780626
 30
0.0
 10
27.94630808073505
 20
20.96820736127681
 30
0.0
 10
27.9471292852115
 20
20.96730350848091
 30
0.0
 10
27.94811617173678
 20
20.96658668410837
 30
0.0
 10
27.94927260167457
 20
20.96607082922733
 30
0.0
 10
27.9502871101859
 20
20.96585974800248
 30
0.0
 10
27.95090940835429
 20
20.96583073278917
 30
0.0
 10
27.9510939733446
 20
20.96583074467247
 30
0.0
 11
27.9451884616446
 21
20.97173620317247
 31
0.0
 11
27.9453369401446
 21
20.97042028597247
 31
0.0
 11
27.9457281681446
 21
20.96926978817247
 31
0.0
 11
27.9463509754446
 21
20.96821781717247
 31
0.0
 11
27.9471382983446
 21
20.96735126247248
 31
0.0
 11
27.9481471643446
 21
20.96661845117247
 31
0.0
 11
27.9492554951446
 21
20.96612415657247
 31
0.0
 11
27.9505408846446
 21
20.96585664857248
 31
0.0
 11
27.9510939733446
 21
20.96583074467247
 31
0.0
  0
SPLINE
  5
833
330
1F
100
AcDbEntity
  8
0
  6
Continuous
 62
     7
100
AcDbSpline
210
0.0
220
0.0
230
1.0
 70
     8
 71
     3
 72
    15
 73
    11
 74
     9
 42
0.0000000001
 43
0.0000000001
 44
0.0000000001
 12
0.0
 22
1.0
 32
0.0
 13
0.9999999971094229
 23
-0.0000760339032719
 33
0.0
 40
0.0
 40
0.0
 40
0.0
 40
0.0
 40
0.0013286898427491
 40
0.0025481237844853
 40
0.0037743450688264
 40
0.0049487409167905
 40
0.0061990251887035
 40
0.0074159011387553
 40
0.0087328912513023
 40
0.0092597715378569
 40
0.0092597715378569
 40
0.0092597715378569
 40
0.0092597715378569
 10
27.9451884616446
 20
21.06622408407247
 30
0.0
 10
27.9451884616446
 20
21.06666698068672
 30
0.0
 10
27.94528489577381
 20
21.06751960549787
 30
0.0
 10
27.94569414616323
 20
21.0687181219527
 30
0.0
 10
27.94631530050435
 20
21.06976311690966
 30
0.0
 10
27.94714112506122
 20
21.07066766269564
 30
0.0
 10
27.94813299933595
 20
21.07138356721069
 30
0.0
 10
27.94929458812303
 20
21.07189676335827
 30
0.0
 10
27.95030366765609
 20
21.07210229238753
 30
0.0
 10
27.95091834668292
 20
21.07212955712606
 30
0.0
 10
27.9510939734446
 20
21.07212954377247
 30
0.0
 11
27.9451884616446
 21
21.06622408407247
 31
0.0
 11
27.9453379335446
 21
21.06754433967247
 31
0.0
 11
27.9457318116446
 21
21.06869841037248
 31
0.0
 11
27.9463583980446
 21
21.06975245407247
 31
0.0
 11
27.9471502268446
 21
21.07061975607248
 31
0.0
 11
27.9481640123446
 21
21.07135150037247
 31
0.0
 11
27.9492771359446
 21
21.07184317397248
 31
0.0
 11
27.9505676153446
 21
21.07210609197248
 31
0.0
 11
27.9510939734446
 21
21.07212954377247
 31
0.0
  0
SPLINE
  5
834
330
1F
100
AcDbEntity
  8
0
  6
Continuous
 62
     7
100
AcDbSpline
210
0.0
220
0.0
230
1.0
 70
     8
 71
     3
 72
    15
 73
    11
 74
     9
 42
0.0000000001
 43
0.0000000001
 44
0.0000000001
 12
-0.4665547812015402
 22
-0.884492304171146
 32
0.0
 13
-0.0000378005389949
 23
-0.9999999992855597
 33
0.0
 40
0.0
 40
0.0
 40
0.0
 40
0.0
 40
0.0011941252621509
 40
0.0024514291659987
 40
0.0038061954678265
 40
0.0052973498942832
 40
0.0068186770412018
 40
0.008192064467888
 40
0.0093957622444777
 40
0.0104601682567745
 40
0.0104601682567745
 40
0.0104601682567745
 40
0.0104601682567745
 10
27.9806215324446
 20
20.99357418537247
 30
0.0
 10
27.98043582416113
 20
20.99322212050428
 30
0.0
 10
27.98005191133444
 20
20.99250077289202
 30
0.0
 10
27.97945187110085
 20
20.99138290511721
 30
0.0
 10
27.97880821005576
 20
20.99017607632129
 30
0.0
 10
27.97814269861925
 20
20.98888121171191
 30
0.0
 10
27.97752638212279
 20
20.98755469191194
 30
0.0
 10
27.97704693069156
 20
20.98627312483888
 30
0.0
 10
27.97675468453552
 20
20.985091619683
 30
0.0
 10
27.97668453805631
 20
20.98433477687632
 30
0.0
 10
27.9766845246446
 20
20.98397997487248
 30
0.0
 11
27.9806215324446
 21
20.99357418537247
 31
0.0
 11
27.9800612003446
 21
20.99251968877247
 31
0.0
 11
27.9794677086446
 21
20.99141127517247
 31
0.0
 11
27.9788324942446
 21
20.99021465727247
 31
0.0
 11
27.9781560532446
 21
20.98888575957248
 31
0.0
 11
27.9775244131446
 21
20.98750175557247
 31
0.0
 11
27.9770539627446
 21
20.98621145737248
 31
0.0
 11
27.9767750164446
 21
20.98504052727248
 31
0.0
 11
27.9766845246446
 21
20.98397997487248
 31
0.0
  0
SPLINE
  5
835
330
1F
100
AcDbEntity
  8
0
  6
Continuous
 62
     7
100
AcDbSpline
210
0.0
220
0.0
230
1.0
 70
     8
 71
     3
 72
    15
 73
    11
 74
     9
 42
0.0000000001
 43
0.0000000001
 44
0.0000000001
 12
0.0000324789112706
 22
-0.9999999994725602
 32
0.0
 13
0.4676875988853313
 23
-0.8838938340371388
 33
0.0
 40
0.0
 40
0.0
 40
0.0
 40
0.0
 40
0.000983215017681
 40
0.0020819876410472
 40
0.003307322526693
 40
0.0046901559979897
 40
0.006222054902893
 40
0.0077342599507857
 40
0.0091583992722072
 40
0.0104406208093038
 40
0.0104406208093038
 40
0.0104406208093038
 40
0.0104406208093038
 10
27.9766845246446
 20
21.05398385997248
 30
0.0
 10
27.97668453528919
 20
21.05365612163342
 30
0.0
 10
27.9767441229942
 20
21.05296142778107
 30
0.0
 10
27.97699281192167
 20
21.05188459872179
 30
0.0
 10
27.9774038583411
 20
21.05071729677419
 30
0.0
 10
27.97796493133267
 20
21.04945550527713
 30
0.0
 10
27.9786297845092
 20
21.04813781244927
 30
0.0
 10
27.9793296787388
 20
21.04682306834958
 30
0.0
 10
27.97999660210805
 20
21.04558509648723
 30
0.0
 10
27.9804216394073
 20
21.04478937324264
 30
0.0
 10
27.9806215324446
 20
21.04441159067247
 30
0.0
 11
27.9766845246446
 21
21.05398385997248
 31
0.0
 11
27.9767624404446
 21
21.05300373707247
 31
0.0
 11
27.9770018362446
 21
21.05193136077248
 31
0.0
 11
27.9774005768446
 21
21.05077271867248
 31
0.0
 11
27.9779543479446
 21
21.04950560937247
 31
0.0
 11
27.9786377175446
 21
21.04813458047248
 31
0.0
 11
27.9793446062446
 21
21.04679776617247
 31
0.0
 11
27.9800182579446
 21
21.04554302867247
 31
0.0
 11
27.9806215324446
 21
21.04441159067247
 31
0.0
  0
LINE
  5
836
330
1F
100
AcDbEntity
  8
0
  6
Continuous
 62
     7
100
AcDbLine
 10
27.9766845246446
 20
21.06642278997247
 30
0.0
 11
27.9765503739446
 21
21.06651721987248
 31
0.0
  0
LINE
  5
837
330
1F
100
AcDbEntity
  8
0
  6
Continuous
 62
     7
100
AcDbLine
 10
27.9765503739446
 20
21.06651721987248
 30
0.0
 11
27.9727475167446
 21
21.06678763857248
 31
0.0
  0
SPLINE
  5
838
330
1F
100
AcDbEntity
  8
0
  6
Continuous
 62
     7
100
AcDbSpline
210
0.0
220
0.0
230
1.0
 70
     8
 71
     3
 72
    26
 73
    22
 74
    20
 42
0.0000000001
 43
0.0000000001
 44
0.0000000001
 12
-0.9995206589359494
 22
0.0309588817667192
 32
0.0
 13
0.0
 23
1.0
 33
0.0
 40
0.0
 40
0.0
 40
0.0
 40
0.0
 40
0.0007089829119253
 40
0.0013369334788729
 40
0.0018886211162047
 40
0.0023702062035488
 40
0.0027892099503852
 40
0.0031533315666894
 40
0.0034722158162451
 40
0.0037584028372413
 40
0.0040172702015076
 40
0.0042501414739811
 40
0.0044716104754404
 40
0.0046876515115872
 40
0.0048943350647536
 40
0.0050949364503838
 40
0.0052902736129028
 40
0.0054785404723752
 40
0.0056547708466222
 40
0.0058095684813661
 40
0.0059920154550987
 40
0.0059920154550987
 40
0.0059920154550987
 40
0.0059920154550987
 10
27.9510939734446
 20
20.97117283137247
 30
0.0
 10
27.95085775908884
 20
20.97118014781186
 30
0.0
 10
27.95041219656765
 20
20.97119245429146
 30
0.0
 10
27.94978261923797
 20
20.97118546422389
 30
0.0
 10
27.94922891856525
 20
20.97118785816816
 30
0.0
 10
27.94874479760478
 20
20.97120540805387
 30
0.0
 10
27.94832560792514
 20
20.97125126663745
 30
0.0
 10
27.94796023188216
 20
20.97128993629558
 30
0.0
 10
27.94763703352116
 20
20.9713012122683
 30
0.0
 10
27.94734915666493
 20
20.97129361299352
 30
0.0
 10
27.94708975671464
 20
20.97128949124823
 30
0.0
 10
27.94685226543624
 20
20.97130666887384
 30
0.0
 10
27.94663165029671
 20
20.97134450046663
 30
0.0
 10
27.94642396823066
 20
20.97139933383552
 30
0.0
 10
27.94622119912414
 20
20.9714449775222
 30
0.0
 10
27.9460224764595
 20
20.97147592989645
 30
0.0
 10
27.9458275468559
 20
20.97148586156418
 30
0.0
 10
27.94564299194665
 20
20.97150529707239
 30
0.0
 10
27.94547005633433
 20
20.97154877000221
 30
0.0
 10
27.94532819879042
 20
20.97161728830477
 30
0.0
 10
27.9451884616446
 20
20.97167538751457
 30
0.0
 10
27.9451884616446
 20
20.97173620317247
 30
0.0
 11
27.9510939734446
 21
20.97117283137247
 31
0.0
 11
27.9503851603446
 21
20.97118834777248
 31
0.0
 11
27.9497572114446
 21
20.97118690087247
 31
0.0
 11
27.9492055397446
 21
20.97119109427248
 31
0.0
 11
27.9487244257446
 21
20.97121239017248
 31
0.0
 11
27.9483073940446
 21
20.97125299437248
 31
0.0
 11
27.9479448610446
 21
20.97128697047248
 31
0.0
 11
27.9476261731446
 21
20.97129815917248
 31
0.0
 11
27.9473400178446
 21
20.97129389827248
 31
0.0
 11
27.9470811510446
 21
20.97129335777248
 31
0.0
 11
27.9468489342446
 21
20.97131080447248
 31
0.0
 11
27.9466306149446
 21
20.97134802277247
 31
0.0
 11
27.9464206300446
 21
20.97139881717248
 31
0.0
 11
27.9462187526446
 21
20.97144312977247
 31
0.0
 11
27.9460203438446
 21
20.97147270787247
 31
0.0
 11
27.9458255862446
 21
20.97148774397247
 31
0.0
 11
27.9456386972446
 21
20.97151047967248
 31
0.0
 11
27.9454682431446
 21
20.97155522947248
 31
0.0
 11
27.9453260264446
 21
20.97161635817248
 31
0.0
 11
27.9451884616446
 21
20.97173620317247
 31
0.0
  0
SPLINE
  5
839
330
1F
100
AcDbEntity
  8
0
  6
Continuous
 62
     7
100
AcDbSpline
210
0.0
220
0.0
230
1.0
 70
     8
 71
     3
 72
    26
 73
    22
 74
    20
 42
0.0000000001
 43
0.0000000001
 44
0.0000000001
 12
-0.999344297888523
 22
-0.0362073787741526
 32
0.0
 13
0.0
 23
-1.0
 33
0.0
 40
0.0
 40
0.0
 40
0.0
 40
0.0
 40
0.0007180373161546
 40
0.0013506445559507
 40
0.0019036111536744
 40
0.0023843368459993
 40
0.0028017758172094
 40
0.0031640393594602
 40
0.0034808644117793
 40
0.0037649221629719
 40
0.0040209399862367
 40
0.00425067679318
 40
0.0044699085550538
 40
0.0046851901649174
 40
0.0048917726102161
 40
0.005092243020034
 40
0.0052874202791302
 40
0.0054754697392187
 40
0.0056518658472117
 40
0.0058078961277002
 40
0.005990198838929
 40
0.005990198838929
 40
0.005990198838929
 40
0.005990198838929
 10
27.9510939734446
 20
21.06677394107248
 30
0.0
 10
27.95085478461208
 20
21.06676527498945
 30
0.0
 10
27.95040464873068
 20
21.06675103687344
 30
0.0
 10
27.94977009387729
 20
21.06676205738339
 30
0.0
 10
27.94921469691471
 20
21.06676125028605
 30
0.0
 10
27.94873091482445
 20
21.06674290447116
 30
0.0
 10
27.94831350463272
 20
21.06669397402416
 30
0.0
 10
27.9479499301225
 20
21.06665527637574
 30
0.0
 10
27.9476286181006
 20
21.06664633882432
 30
0.0
 10
27.94734319526206
 20
21.06665713276437
 30
0.0
 10
27.94708651006994
 20
21.06666295084123
 30
0.0
 10
27.94685169209609
 20
21.06664653296089
 30
0.0
 10
27.94663308525795
 20
21.0666088734457
 30
0.0
 10
27.94642677351408
 20
21.06655285823684
 30
0.0
 10
27.94622469468751
 20
21.0665057089373
 30
0.0
 10
27.94602602891852
 20
21.06647462581721
 30
0.0
 10
27.94583109182805
 20
21.0664675178905
 30
0.0
 10
27.94564632223637
 20
21.06645201848965
 30
0.0
 10
27.94547206753587
 20
21.06641059681593
 30
0.0
 10
27.94533119787498
 20
21.06633997583724
 30
0.0
 10
27.9451884616446
 20
21.06628485164288
 30
0.0
 10
27.9451884616446
 20
21.06622408407247
 30
0.0
 11
27.9510939734446
 21
21.06677394107248
 31
0.0
 11
27.9503761511446
 21
21.06675637027247
 31
0.0
 11
27.9497435567446
 21
21.06676040077247
 31
0.0
 11
27.9491905971446
 21
21.06675761887247
 31
0.0
 11
27.9487103866446
 21
21.06673536877247
 31
0.0
 11
27.9482951422446
 21
21.06669262087248
 31
0.0
 11
27.9479344703446
 21
21.06665869957248
 31
0.0
 11
27.9476177734446
 21
21.06664968917248
 31
0.0
 11
27.9473338030446
 21
21.06665673317247
 31
0.0
 11
27.9470777951446
 21
21.06665898727248
 31
0.0
 11
27.9468486607446
 21
21.06664236117247
 31
0.0
 11
27.9466325918446
 21
21.06660525597248
 31
0.0
 11
27.9464236554446
 21
21.06655337387247
 31
0.0
 11
27.9462221677446
 21
21.06650777767248
 31
0.0
 11
27.9460238677446
 21
21.06647835837248
 31
0.0
 11
27.9458290892446
 21
21.06646588847247
 31
0.0
 11
27.9456420253446
 21
21.06644666097247
 31
0.0
 11
27.9454709701446
 21
21.06640358307247
 31
0.0
 11
27.9453277237446
 21
21.06634172907247
 31
0.0
 11
27.9451884616446
 21
21.06622408407247
 31
0.0
  0
SPLINE
  5
83A
330
1F
100
AcDbEntity
  8
0
  6
Continuous
 62
     7
100
AcDbSpline
210
0.0
220
0.0
230
1.0
 70
     8
 71
     3
 72
    11
 73
     7
 74
     5
 42
0.0000000001
 43
0.0000000001
 44
0.0000000001
 12
0.9999999989395675
 22
-0.0000460528512883
 32
0.0
 13
0.8516167778584325
 23
0.5241649202970582
 33
0.0
 40
0.0
 40
0.0
 40
0.0
 40
0.0
 40
0.0013088924785531
 40
0.00793045119199
 40
0.0145723392848644
 40
0.0212480439195464
 40
0.0212480439195464
 40
0.0212480439195464
 40
0.0212480439195464
 10
28.0289549768446
 20
20.23372079407248
 30
0.0
 10
28.02939127433699
 20
20.23372077397973
 30
0.0
 10
28.0320344902672
 20
20.23376606614726
 30
0.0
 10
28.03688439014289
 20
20.23435822993878
 30
0.0
 10
28.04327249011357
 20
20.2363002195441
 30
0.0
 10
28.04725905998763
 20
20.23831109400989
 30
0.0
 10
28.0491541073446
 20
20.23947748407247
 30
0.0
 11
28.0289549768446
 21
20.23372079407248
 31
0.0
 11
28.0302636763446
 21
20.23374326937247
 31
0.0
 11
28.0368365153446
 21
20.23454503447247
 31
0.0
 11
28.0431919819446
 21
20.23647447007247
 31
0.0
 11
28.0491541073446
 21
20.23947748407247
 31
0.0
  0
SPLINE
  5
83B
330
1F
100
AcDbEntity
  8
0
  6
Continuous
 62
     7
100
AcDbSpline
210
0.0
220
0.0
230
1.0
 70
     8
 71
     3
 72
    10
 73
     6
 74
     4
 42
0.0000000001
 43
0.0000000001
 44
0.0000000001
 12
-0.5562499329877518
 22
-0.8310150492326368
 32
0.0
 13
-0.7202710438152506
 23
-0.6936927442616721
 33
0.0
 40
0.0
 40
0.0
 40
0.0
 40
0.0
 40
0.0040554113094632
 40
0.01412283697092
 40
0.0145535024289163
 40
0.0145535024289163
 40
0.0145535024289163
 40
0.0145535024289163
 10
28.0401439320446
 20
20.23540457157247
 30
0.0
 10
28.03939199128823
 20
20.23428120229614
 30
0.0
 10
28.03665901383266
 20
20.23044627361158
 30
0.0
 10
28.03343532448052
 20
20.22678913057027
 30
0.0
 10
28.03092275346426
 20
20.22435363234028
 30
0.0
 10
28.0308193548446
 20
20.22425404917248
 30
0.0
 11
28.0401439320446
 21
20.23540457157247
 31
0.0
 11
28.0377898308446
 21
20.23210236497248
 31
0.0
 11
28.0311285859446
 21
20.22455379717248
 31
0.0
 11
28.0308193548446
 21
20.22425404917248
 31
0.0
  0
SPLINE
  5
83C
330
1F
100
AcDbEntity
  8
0
  6
Continuous
 62
     7
100
AcDbSpline
210
0.0
220
0.0
230
1.0
 70
     8
 71
     3
 72
    14
 73
    10
 74
     8
 42
0.0000000001
 43
0.0000000001
 44
0.0000000001
 12
-0.9918153629069424
 22
0.1276804053164396
 32
0.0
 13
-0.2901120903724617
 23
0.9569926723960431
 33
0.0
 40
0.0
 40
0.0
 40
0.0
 40
0.0
 40
0.006657465516453
 40
0.0133435139402953
 40
0.0200704417049436
 40
0.0268457062872491
 40
0.033670559516012
 40
0.0405400204214709
 40
0.0463671319317742
 40
0.0463671319317742
 40
0.0463671319317742
 40
0.0463671319317742
 10
28.0239704097446
 20
20.23403259147247
 30
0.0
 10
28.02176941755219
 20
20.23431593410431
 30
0.0
 10
28.01739833582992
 20
20.23527228122589
 30
0.0
 10
28.01117885837276
 20
20.23782206367662
 30
0.0
 10
28.0054512595045
 20
20.24141723840999
 30
0.0
 10
28.000376910995
 20
20.24595506939923
 30
0.0
 10
27.99609489790655
 20
20.25130728028875
 30
0.0
 10
27.99289890342016
 20
20.25700826778444
 30
0.0
 10
27.99139559071163
 20
20.26098025453361
 30
0.0
 10
27.9908320855446
 20
20.26283908887247
 30
0.0
 11
28.0239704097446
 21
20.23403259147247
 31
0.0
 11
28.0174664866446
 21
20.23545415097247
 31
0.0
 11
28.0112787557446
 21
20.23798698137247
 31
0.0
 11
28.0055791706446
 21
20.24155997547248
 31
0.0
 11
28.0005258073446
 21
20.24607303757248
 31
0.0
 11
27.9962588932446
 21
20.25139958107248
 31
0.0
 11
27.9928966727446
 21
20.25738998727248
 31
0.0
 11
27.9908320855446
 21
20.26283908887247
 31
0.0
  0
SPLINE
  5
83D
330
1F
100
AcDbEntity
  8
0
  6
Continuous
 62
     7
100
AcDbSpline
210
0.0
220
0.0
230
1.0
 70
     8
 71
     3
 72
    15
 73
    11
 74
     9
 42
0.0000000001
 43
0.0000000001
 44
0.0000000001
 12
0.2900301045556382
 22
-0.9570175225414869
 32
0.0
 13
0.9934529446034281
 23
-0.1142420538102234
 33
0.0
 40
0.0
 40
0.0
 40
0.0
 40
0.0
 40
0.0046546399677458
 40
0.0113705668471461
 40
0.0181028489385852
 40
0.0247751621840028
 40
0.031385513136359
 40
0.0380480465944314
 40
0.0446930630678649
 40
0.0468884979032811
 40
0.0468884979032811
 40
0.0468884979032811
 40
0.0468884979032811
 10
27.9886412186446
 20
20.26284239557248
 30
0.0
 10
27.98909121388344
 20
20.26135753823572
 30
0.0
 10
27.99038690724808
 20
20.25778727711865
 30
0.0
 10
27.99319240981584
 20
20.25241539267354
 30
0.0
 10
27.99722359971843
 20
20.24701866452272
 30
0.0
 10
28.00205325810044
 20
20.24237238783594
 30
0.0
 10
28.00756382392983
 20
20.23859779938316
 30
0.0
 10
28.0136226949691
 20
20.23580665101736
 30
0.0
 10
28.01864583809234
 20
20.23447481496167
 30
0.0
 10
28.02156366264396
 20
20.23405420533401
 30
0.0
 10
28.0222906830446
 20
20.23397060167248
 30
0.0
 11
27.9886412186446
 21
20.26284239557248
 31
0.0
 11
27.9902301887446
 21
20.25846737017248
 31
0.0
 11
27.9933420621446
 21
20.25251590667248
 31
0.0
 11
27.9973740762446
 21
20.24712457247247
 31
0.0
 11
28.0021854621446
 21
20.24250176707248
 31
0.0
 11
28.0076412812446
 21
20.23876937137247
 31
0.0
 11
28.0136941331446
 21
20.23598506967247
 31
0.0
 11
28.0201177338446
 21
20.23428401177247
 31
0.0
 11
28.0222906830446
 21
20.23397060167248
 31
0.0
  0
SPLINE
  5
83E
330
1F
100
AcDbEntity
  8
0
  6
Continuous
 62
     7
100
AcDbSpline
210
0.0
220
0.0
230
1.0
 70
     8
 71
     3
 72
    11
 73
     7
 74
     5
 42
0.0000000001
 43
0.0000000001
 44
0.0000000001
 12
0.7758440204272379
 22
-0.6309247625250572
 32
0.0
 13
1.0
 23
0.0
 33
0.0
 40
0.0
 40
0.0
 40
0.0
 40
0.0
 40
0.0065808007137383
 40
0.0130924649798038
 40
0.0195702584743365
 40
0.0260301094207323
 40
0.0260301094207323
 40
0.0260301094207323
 40
0.0260301094207323
 10
27.9831896049446
 20
20.24235952597248
 30
0.0
 10
27.98489149657239
 20
20.24097552926329
 30
0.0
 10
27.9885141962993
 20
20.23849875935998
 30
0.0
 10
27.99447082642148
 20
20.23576521190772
 30
0.0
 10
28.00076714187748
 20
20.23409536136549
 30
0.0
 10
28.0050888511958
 20
20.23372075687248
 30
0.0
 10
28.0072421348446
 20
20.23372075687248
 30
0.0
 11
27.9831896049446
 21
20.24235952597248
 31
0.0
 11
27.9886248540446
 21
20.23864940397247
 31
0.0
 11
27.9945443263446
 21
20.23593617357247
 31
0.0
 11
28.0008063959446
 21
20.23427837597247
 31
0.0
 11
28.0072421348446
 21
20.23372075687248
 31
0.0
  0
SPLINE
  5
83F
330
1F
100
AcDbEntity
  8
0
  6
Continuous
 62
     7
100
AcDbSpline
210
0.0
220
0.0
230
1.0
 70
     8
 71
     3
 72
    15
 73
    11
 74
     9
 42
0.0000000001
 43
0.0000000001
 44
0.0000000001
 12
0.2900020473363583
 22
-0.9570260250070113
 32
0.0
 13
0.9934555539028938
 23
-0.1142193609660567
 33
0.0
 40
0.0
 40
0.0
 40
0.0
 40
0.0
 40
0.0045251741806641
 40
0.0113690442213989
 40
0.0182007678456825
 40
0.0249207803711498
 40
0.0315019735898481
 40
0.0380948847918265
 40
0.0447006994430652
 40
0.0468902920018987
 40
0.0468902920018987
 40
0.0468902920018987
 40
0.0468902920018987
 10
27.9864509982446
 20
20.26284350917248
 30
0.0
 10
27.98688843483692
 20
20.26139993935295
 30
0.0
 10
27.98817829561432
 20
20.25782870579325
 30
0.0
 10
27.99099094072917
 20
20.25242219983423
 30
0.0
 10
27.99508394141115
 20
20.24695564471433
 30
0.0
 10
27.99995633044764
 20
20.24229612362135
 30
0.0
 10
28.00546494093857
 20
20.23854947460499
 30
0.0
 10
28.01148698437236
 20
20.23579052226093
 30
0.0
 10
28.01647357704056
 20
20.23447204590552
 30
0.0
 10
28.01937657091515
 20
20.23405386709342
 30
0.0
 10
28.0201016585446
 20
20.23397050247247
 30
0.0
 11
27.9864509982446
 21
20.26284350917248
 31
0.0
 11
27.9879892227446
 21
20.25858779927248
 31
0.0
 11
27.9911508669446
 21
20.25251799177247
 31
0.0
 11
27.9952487024446
 21
20.24705171407247
 31
0.0
 11
28.0001083651446
 21
20.24241035147247
 31
0.0
 11
28.0055522910446
 21
20.23871227427248
 31
0.0
 11
28.0115475971446
 21
20.23596950507247
 31
0.0
 11
28.0179344607446
 21
20.23428286327248
 31
0.0
 11
28.0201016585446
 21
20.23397050247247
 31
0.0
  0
SPLINE
  5
840
330
1F
100
AcDbEntity
  8
0
  6
Continuous
 62
     7
100
AcDbSpline
210
0.0
220
0.0
230
1.0
 70
     8
 71
     3
 72
    15
 73
    11
 74
     9
 42
0.0000000001
 43
0.0000000001
 44
0.0000000001
 12
0.2900272939939286
 22
-0.9570183742951645
 32
0.0
 13
0.9934568314510912
 23
-0.1142082485775789
 33
0.0
 40
0.0
 40
0.0
 40
0.0
 40
0.0
 40
0.0046362558145936
 40
0.0113606930567561
 40
0.0181059897245998
 40
0.0247827126218615
 40
0.0313914709640805
 40
0.0380520571996947
 40
0.0446950923021524
 40
0.0468898730100592
 40
0.0468898730100592
 40
0.0468898730100592
 40
0.0468898730100592
 10
27.9842614172446
 20
20.26284250387247
 30
0.0
 10
27.98470963082066
 20
20.26136350987164
 30
0.0
 10
27.98600340347068
 20
20.2577961412798
 30
0.0
 10
27.98880761445395
 20
20.25242230443121
 30
0.0
 10
27.99284361337959
 20
20.24701818588004
 30
0.0
 10
27.99767772428602
 20
20.24236883281794
 30
0.0
 10
28.00318915395074
 20
20.23859501954051
 30
0.0
 10
28.00924668296062
 20
20.23580541842863
 30
0.0
 10
28.01426842705574
 20
20.23447436724324
 30
0.0
 10
28.01718539891533
 20
20.2340540069927
 30
0.0
 10
28.0179122055446
 20
20.23397045297247
 30
0.0
 11
27.9842614172446
 21
20.26284250387247
 31
0.0
 11
27.9858431643446
 21
20.25848441437247
 31
0.0
 11
27.9889569781446
 21
20.25252436237248
 31
0.0
 11
27.9929963401446
 21
20.24712227187248
 31
0.0
 11
27.9978115079446
 21
20.24249703807248
 31
0.0
 11
28.0032666407446
 21
20.23876645997248
 31
0.0
 11
28.0093180746446
 21
20.23598373527248
 31
0.0
 11
28.0157398904446
 21
20.23428367727248
 31
0.0
 11
28.0179122055446
 21
20.23397045297247
 31
0.0
  0
SPLINE
  5
841
330
1F
100
AcDbEntity
  8
0
  6
Continuous
 62
     7
100
AcDbSpline
210
0.0
220
0.0
230
1.0
 70
     8
 71
     3
 72
    15
 73
    11
 74
     9
 42
0.0000000001
 43
0.0000000001
 44
0.0000000001
 12
0.2900059800755908
 22
-0.9570248332830221
 32
0.0
 13
0.9934552810571902
 23
-0.1142217340946068
 33
0.0
 40
0.0
 40
0.0
 40
0.0
 40
0.0
 40
0.0044842088898516
 40
0.0113211928028523
 40
0.0181467499873505
 40
0.0248614114517858
 40
0.0314465599889881
 40
0.03807301255706
 40
0.0446976286848541
 40
0.0468899297677603
 40
0.0468899297677603
 40
0.0468899297677603
 40
0.0468899297677603
 10
27.9820712878446
 20
20.26284331937247
 30
0.0
 10
27.98250477030926
 20
20.26141281961741
 30
0.0
 10
27.98378747759998
 20
20.25785615803465
 30
0.0
 10
27.98658613488871
 20
20.25246279915665
 30
0.0
 10
27.99066872357417
 20
20.24699624602816
 30
0.0
 10
27.99553274981934
 20
20.24233173927184
 30
0.0
 10
28.00104483692037
 20
20.23857106691487
 30
0.0
 10
28.00708158396851
 20
20.23579811861002
 30
0.0
 10
28.01208573820585
 20
20.2344732934413
 30
0.0
 10
28.01499581838177
 20
20.23405398224959
 30
0.0
 10
28.0157218027446
 20
20.23397051277247
 30
0.0
 11
27.9820712878446
 21
20.26284331937247
 31
0.0
 11
27.9835935887446
 21
20.25862541357247
 31
0.0
 11
27.9867457144446
 21
20.25255841657247
 31
0.0
 11
27.9908331660446
 21
20.24709206767248
 31
0.0
 11
27.9956824916446
 21
20.24244763877248
 31
0.0
 11
28.0011243478446
 21
20.23873948797247
 31
0.0
 11
28.0071474323446
 21
20.23597682137248
 31
0.0
 11
28.0135519359446
 21
20.23428334197248
 31
0.0
 11
28.0157218027446
 21
20.23397051277247
 31
0.0
  0
SPLINE
  5
842
330
1F
100
AcDbEntity
  8
0
  6
Continuous
 62
     7
100
AcDbSpline
210
0.0
220
0.0
230
1.0
 70
     8
 71
     3
 72
    15
 73
    11
 74
     9
 42
0.0000000001
 43
0.0000000001
 44
0.0000000001
 12
0.2900086739838324
 22
-0.9570240169474008
 32
0.0
 13
0.9934579130893432
 23
-0.1141988393993878
 33
0.0
 40
0.0
 40
0.0
 40
0.0
 40
0.0
 40
0.0044635582719927
 40
0.0112954235504916
 40
0.0181162531911985
 40
0.0248265487771052
 40
0.0314210330817475
 40
0.0380641531630373
 40
0.0446973608610024
 40
0.0468906361111254
 40
0.0468906361111254
 40
0.0468906361111254
 40
0.0468906361111254
 10
27.9776915578446
 20
20.26284319287247
 30
0.0
 10
27.97812304804983
 20
20.26141928205003
 30
0.0
 10
27.97940197167133
 20
20.25787048536499
 30
0.0
 10
27.98219297961396
 20
20.2524846953934
 30
0.0
 10
27.98626900959042
 20
20.24701924727697
 30
0.0
 10
27.99112930981472
 20
20.2423508214556
 30
0.0
 10
27.99664458742813
 20
20.23858182413277
 30
0.0
 10
28.00269078995896
 20
20.23580130568935
 30
0.0
 10
28.0077033591254
 20
20.23447363797008
 30
0.0
 10
28.01061660156033
 20
20.23405390170182
 30
0.0
 10
28.0113429104446
 20
20.23397041187248
 30
0.0
 11
27.9776915578446
 21
20.26284319287247
 31
0.0
 11
27.9792058486446
 21
20.25864435067248
 31
0.0
 11
27.9823523073446
 21
20.25258017877248
 31
0.0
 11
27.9864332380446
 21
20.24711485887247
 31
0.0
 11
27.9912756824446
 21
20.24246956027248
 31
0.0
 11
27.9967224388446
 21
20.23875202507248
 31
0.0
 11
28.0027594606446
 21
20.23597976747248
 31
0.0
 11
28.0091720762446
 21
20.23428335787247
 31
0.0
 11
28.0113429104446
 21
20.23397041187248
 31
0.0
  0
SPLINE
  5
843
330
1F
100
AcDbEntity
  8
0
  6
Continuous
 62
     7
100
AcDbSpline
210
0.0
220
0.0
230
1.0
 70
     8
 71
     3
 72
    15
 73
    11
 74
     9
 42
0.0000000001
 43
0.0000000001
 44
0.0000000001
 12
0.3527805659443479
 22
-0.9357060822138464
 32
0.0
 13
0.9935507996486563
 23
-0.1133878675940048
 33
0.0
 40
0.0
 40
0.0
 40
0.0
 40
0.0
 40
0.001795335242822
 40
0.0085767566135534
 40
0.0153613823773663
 40
0.0220507253011385
 40
0.0286521957433015
 40
0.0352886233410219
 40
0.0418905687840668
 40
0.0440704725185061
 40
0.0440704725185061
 40
0.0440704725185061
 40
0.0440704725185061
 10
27.9764190815446
 20
20.26014156227248
 30
0.0
 10
27.97663020133895
 20
20.25958159357037
 30
0.0
 10
27.97769461145744
 20
20.25692775123922
 30
0.0
 10
27.98007882217482
 20
20.25236831324617
 30
0.0
 10
27.9841479008453
 20
20.24694385516648
 30
0.0
 10
27.98900588318805
 20
20.24229732529798
 30
0.0
 10
27.99452299982825
 20
20.2385431883215
 30
0.0
 10
28.00056539823146
 20
20.2357793209686
 30
0.0
 10
28.00556313933924
 20
20.23446399505897
 30
0.0
 10
28.00846204727843
 20
20.23404924881781
 30
0.0
 10
28.0091839956446
 20
20.23396685727248
 30
0.0
 11
27.9764190815446
 21
20.26014156227248
 31
0.0
 11
27.9770875072446
 21
20.25847529827247
 31
0.0
 11
27.9802331779446
 21
20.25246760057247
 31
0.0
 11
27.9843074441446
 21
20.24704251977247
 31
0.0
 11
27.9891445694446
 21
20.24242196487248
 31
0.0
 11
27.9946044963446
 21
20.23871135707247
 31
0.0
 11
28.0006410571446
 21
20.23595416557247
 31
0.0
 11
28.0070260892446
 21
20.23427575897247
 31
0.0
 11
28.0091839956446
 21
20.23396685727248
 31
0.0
  0
SPLINE
  5
844
330
1F
100
AcDbEntity
  8
0
  6
Continuous
 62
     7
100
AcDbSpline
210
0.0
220
0.0
230
1.0
 70
     8
 71
     3
 72
    14
 73
    10
 74
     8
 42
0.0000000001
 43
0.0000000001
 44
0.0000000001
 12
0.4530951926638377
 22
-0.8914621396250767
 32
0.0
 13
0.9934623509508003
 23
-0.1141602261880593
 33
0.0
 40
0.0
 40
0.0
 40
0.0
 40
0.0
 40
0.0037944070354442
 40
0.0105921663157853
 40
0.0172709619793493
 40
0.0238742753231744
 40
0.0305320239386825
 40
0.0371722489675578
 40
0.0393661010460945
 40
0.0393661010460945
 40
0.0393661010460945
 40
0.0393661010460945
 10
27.9761167115446
 20
20.25586101917248
 30
0.0
 10
27.97668978740686
 20
20.25473349576767
 30
0.0
 10
27.97843056966867
 20
20.25165642864522
 30
0.0
 10
27.9818900332682
 20
20.2470204779106
 30
0.0
 10
27.98673718815972
 20
20.24236176921859
 30
0.0
 10
27.99224799789268
 20
20.23859057887003
 30
0.0
 10
27.99830261365597
 20
20.23580367104775
 30
0.0
 10
28.00332235320429
 20
20.23447373086702
 30
0.0
 10
28.00623811509674
 20
20.23405372532231
 30
0.0
 10
28.0069646182446
 20
20.23397024177247
 30
0.0
 11
27.9761167115446
 21
20.25586101917248
 31
0.0
 11
27.9779858578446
 21
20.25255892637247
 31
0.0
 11
27.9820547501446
 21
20.24711341017248
 31
0.0
 11
27.9868728777446
 21
20.24248826607248
 31
0.0
 11
27.9923245627446
 21
20.23876229267248
 31
0.0
 11
27.9983739190446
 21
20.23598184217247
 31
0.0
 11
28.0047932033446
 21
20.23428320227248
 31
0.0
 11
28.0069646182446
 21
20.23397024177247
 31
0.0
  0
SPLINE
  5
845
330
1F
100
AcDbEntity
  8
0
  6
Continuous
 62
     7
100
AcDbSpline
210
0.0
220
0.0
230
1.0
 70
     8
 71
     3
 72
    14
 73
    10
 74
     8
 42
0.0000000001
 43
0.0000000001
 44
0.0000000001
 12
0.3646858931121262
 22
-0.9311306027432515
 32
0.0
 13
1.0
 23
0.0
 33
0.0
 40
0.0
 40
0.0
 40
0.0
 40
0.0
 40
0.0022693992380916
 40
0.0081116846973051
 40
0.013903109551452
 40
0.01964140565814
 40
0.0253315157297532
 40
0.0309850904789093
 40
0.0366189769763567
 40
0.0366189769763567
 40
0.0366189769763567
 40
0.0366189769763567
 10
28.0009241340446
 20
20.26284046677247
 30
0.0
 10
28.00120000667392
 20
20.26213609774567
 30
0.0
 10
28.00227242114304
 20
20.25965214419583
 30
0.0
 10
28.00463486250555
 20
20.25563286966029
 30
0.0
 10
28.00844549408464
 20
20.25123051684457
 30
0.0
 10
28.01296390548428
 20
20.24763620285109
 30
0.0
 10
28.01803739590937
 20
20.2449754106732
 30
0.0
 10
28.02349038005803
 20
20.24334055478393
 30
0.0
 10
28.02726301477878
 20
20.24297272537248
 30
0.0
 10
28.0291409769446
 20
20.24297272537248
 30
0.0
 11
28.0009241340446
 21
20.26284046677247
 31
0.0
 11
28.0018240096446
 21
20.26075710487248
 31
0.0
 11
28.0047885367446
 21
20.25572283447248
 31
0.0
 11
28.0085823570446
 21
20.25134704547248
 31
0.0
 11
28.0130762764446
 21
20.24777875027247
 31
0.0
 11
28.0181172599446
 21
20.24513946287247
 31
0.0
 11
28.0235336429446
 21
20.24351906087247
 31
0.0
 11
28.0291409769446
 21
20.24297272537248
 31
0.0
  0
SPLINE
  5
846
330
1F
100
AcDbEntity
  8
0
  6
Continuous
 62
     7
100
AcDbSpline
210
0.0
220
0.0
230
1.0
 70
     8
 71
     3
 72
    15
 73
    11
 74
     9
 42
0.0000000001
 43
0.0000000001
 44
0.0000000001
 12
0.2900798488010575
 22
-0.9570024458273636
 32
0.0
 13
0.998347224867776
 23
-0.0574701539828311
 33
0.0
 40
0.0
 40
0.0
 40
0.0
 40
0.0
 40
0.0050226746901397
 40
0.011726566354212
 40
0.0184392566576275
 40
0.0250646529389585
 40
0.0316138116184666
 40
0.0382070202234135
 40
0.0447738121620333
 40
0.0490611814915497
 40
0.0490611814915497
 40
0.0490611814915497
 40
0.0490611814915497
 10
27.9798822970446
 20
20.26284033007248
 30
0.0
 10
27.9803679559495
 20
20.26123809275146
 30
0.0
 10
27.98172067318246
 20
20.25756036490994
 30
0.0
 10
27.98462514838854
 20
20.25211381996991
 30
0.0
 10
27.98868558234737
 20
20.24677205255394
 30
0.0
 10
27.99351995022208
 20
20.24219313977551
 30
0.0
 10
27.99900541476247
 20
20.23848850012344
 30
0.0
 10
28.0050147244805
 20
20.23575699442314
 30
0.0
 10
28.01066972771721
 20
20.23427667268709
 30
0.0
 10
28.0142724798539
 20
20.23386579179766
 30
0.0
 10
28.0156992409446
 20
20.23378365987248
 30
0.0
 11
27.9798822970446
 21
20.26284033007248
 31
0.0
 11
27.9816174369446
 21
20.25812688647247
 31
0.0
 11
27.9847747711446
 21
20.25221305487248
 31
0.0
 11
27.9888400637446
 21
20.24687136907247
 31
0.0
 11
27.9936531209446
 21
20.24231830897247
 31
0.0
 11
27.9990826265446
 21
20.23865607627247
 31
0.0
 11
28.0050862617446
 21
20.23593086727248
 31
0.0
 11
28.0114395409446
 21
20.23426996397247
 31
0.0
 11
28.0156992409446
 21
20.23378365987248
 31
0.0
  0
SPLINE
  5
847
330
1F
100
AcDbEntity
  8
0
  6
Continuous
 62
     7
100
AcDbSpline
210
0.0
220
0.0
230
1.0
 70
     8
 71
     3
 72
    10
 73
     6
 74
     4
 42
0.0000000001
 43
0.0000000001
 44
0.0000000001
 12
-1.0
 22
0.0
 32
0.0
 13
-0.846544410422695
 23
0.5323181014976772
 33
0.0
 40
0.0
 40
0.0
 40
0.0
 40
0.0
 40
0.0036022181944696
 40
0.007225366364916
 40
0.0080884500032405
 40
0.0080884500032405
 40
0.0080884500032405
 40
0.0080884500032405
 10
28.0091556202446
 20
20.25931130797248
 30
0.0
 10
28.00795488084645
 20
20.25931130797248
 30
0.0
 10
28.00553641002208
 20
20.25961910260859
 30
0.0
 10
28.00300384659701
 20
20.2606297201755
 30
0.0
 10
28.00171504405452
 20
20.26138897965788
 30
0.0
 10
28.0014714978446
 20
20.26154212467247
 30
0.0
 11
28.0091556202446
 21
20.25931130797248
 31
0.0
 11
28.0055822264446
 21
20.25976609657247
 31
0.0
 11
28.0022152253446
 21
20.26110419457248
 31
0.0
 11
28.0014714978446
 21
20.26154212467247
 31
0.0
  0
SPLINE
  5
848
330
1F
100
AcDbEntity
  8
0
  6
Continuous
 62
     7
100
AcDbSpline
210
0.0
220
0.0
230
1.0
 70
     8
 71
     3
 72
    15
 73
    11
 74
     9
 42
0.0000000001
 43
0.0000000001
 44
0.0000000001
 12
-0.9981595804623326
 22
0.0606419980810358
 32
0.0
 13
-0.2900798495598229
 23
0.9570024455973717
 33
0.0
 40
0.0
 40
0.0
 40
0.0
 40
0.0
 40
0.0041663640408095
 40
0.0107331558826808
 40
0.0173263645786856
 40
0.0238755232581936
 40
0.0305009194668797
 40
0.037213609830856
 40
0.0439175014949286
 40
0.0489401761850684
 40
0.0489401761850684
 40
0.0489401761850684
 40
0.0489401761850684
 10
28.0135100374446
 20
20.23379081687248
 30
0.0
 10
28.01212380538359
 20
20.23387503575253
 30
0.0
 10
28.00856238207295
 20
20.23428692496876
 30
0.0
 10
28.00294646923446
 20
20.23575699904961
 30
0.0
 10
27.99693719912177
 20
20.23848849887772
 30
0.0
 10
27.99145172396506
 20
20.24219314007231
 30
0.0
 10
27.9866173590745
 20
20.24677205253168
 30
0.0
 10
27.98255692420295
 20
20.25211381995487
 30
0.0
 10
27.97965244922262
 20
20.25756036490912
 30
0.0
 10
27.97829973195077
 20
20.26123809275184
 30
0.0
 10
27.9778140730446
 20
20.26284033007248
 30
0.0
 11
28.0135100374446
 21
20.23379081687248
 31
0.0
 11
28.0093713169446
 21
20.23426996397247
 31
0.0
 11
28.0030180378446
 21
20.23593086727248
 31
0.0
 11
27.9970144025446
 21
20.23865607627247
 31
0.0
 11
27.9915848969446
 21
20.24231830897247
 31
0.0
 11
27.9867718398446
 21
20.24687136907247
 31
0.0
 11
27.9827065471446
 21
20.25221305487248
 31
0.0
 11
27.9795492129446
 21
20.25812688647247
 31
0.0
 11
27.9778140730446
 21
20.26284033007248
 31
0.0
  0
SPLINE
  5
849
330
1F
100
AcDbEntity
  8
0
  6
Continuous
 62
     7
100
AcDbSpline
210
0.0
220
0.0
230
1.0
 70
     8
 71
     3
 72
    15
 73
    11
 74
     9
 42
0.0000000001
 43
0.0000000001
 44
0.0000000001
 12
-0.9981594275900798
 22
0.0606445142864898
 32
0.0
 13
-0.3518459164443994
 23
0.9360579314772142
 33
0.0
 40
0.0
 40
0.0
 40
0.0
 40
0.0
 40
0.0042450353662094
 40
0.010878242967501
 40
0.0175213631396662
 40
0.0241158474443086
 40
0.0308261430302159
 40
0.0376469726110919
 40
0.0444788379356463
 40
0.0461334461894283
 40
0.0461334461894283
 40
0.0461334461894283
 40
0.0461334461894283
 10
28.0113202169446
 20
20.23379081957248
 30
0.0
 10
28.00990780958752
 20
20.23387663227511
 30
0.0
 10
28.00629836582434
 20
20.23429782989744
 30
0.0
 10
28.00062307206737
 20
20.23580121359797
 30
0.0
 10
27.9945762252261
 20
20.23858185791307
 30
0.0
 10
27.98906113731141
 20
20.24235077754658
 30
0.0
 10
27.98420071821375
 20
20.24701939254144
 30
0.0
 10
27.98012497632809
 20
20.25248414944566
 30
0.0
 10
27.97776594418911
 20
20.25703679652693
 30
0.0
 10
27.97671971086374
 20
20.259665358346
 30
0.0
 10
27.9765256551446
 20
20.26018162807247
 30
0.0
 11
28.0113202169446
 21
20.23379081957248
 31
0.0
 11
28.0071038522446
 21
20.23428335787247
 31
0.0
 11
28.0006912367446
 21
20.23597976747248
 31
0.0
 11
27.9946542148446
 21
20.23875202507248
 31
0.0
 11
27.9892074584446
 21
20.24246956027248
 31
0.0
 11
27.9843650140446
 21
20.24711485887247
 31
0.0
 11
27.9802840834446
 21
20.25258017877248
 31
0.0
 11
27.9771376246446
 21
20.25864435067248
 31
0.0
 11
27.9765256551446
 21
20.26018162807247
 31
0.0
  0
SPLINE
  5
84A
330
1F
100
AcDbEntity
  8
0
  6
Continuous
 62
     7
100
AcDbSpline
210
0.0
220
0.0
230
1.0
 70
     8
 71
     3
 72
    14
 73
    10
 74
     8
 42
0.0000000001
 43
0.0000000001
 44
0.0000000001
 12
-0.9935507996032267
 22
0.113387867992077
 32
0.0
 13
-0.4476439598399321
 23
0.8942118793769322
 33
0.0
 40
0.0
 40
0.0
 40
0.0
 40
0.0
 40
0.0021799037344385
 40
0.008781849177485
 40
0.0154182766842428
 40
0.0220197472091151
 40
0.028709090132886
 40
0.0354937158966988
 40
0.0396551263323246
 40
0.0396551263323246
 40
0.0396551263323246
 40
0.0396551263323246
 10
28.0071157716446
 20
20.23396685727248
 30
0.0
 10
28.00639382327846
 20
20.2340492488181
 30
0.0
 10
28.0034949157511
 20
20.23446399426063
 30
0.0
 10
27.99849716956932
 20
20.23577933004939
 30
0.0
 10
27.99245479280185
 20
20.23854315548161
 30
0.0
 10
27.9869375962961
 20
20.24229744766346
 30
0.0
 10
27.98207991650393
 20
20.24694338879716
 30
0.0
 10
27.97853616916259
 20
20.25166814408556
 30
0.0
 10
27.97674243045991
 20
20.25485233805698
 30
0.0
 10
27.9761214870446
 20
20.25609273227248
 30
0.0
 11
28.0071157716446
 21
20.23396685727248
 31
0.0
 11
28.0049578652446
 21
20.23427575897247
 31
0.0
 11
27.9985728331446
 21
20.23595416557247
 31
0.0
 11
27.9925362724446
 21
20.23871135707247
 31
0.0
 11
27.9870763454446
 21
20.24242196487248
 31
0.0
 11
27.9822392201446
 21
20.24704251977247
 31
0.0
 11
27.9781649539446
 21
20.25246760057247
 31
0.0
 11
27.9761214870446
 21
20.25609273227248
 31
0.0
  0
SPLINE
  5
84B
330
1F
100
AcDbEntity
  8
0
  6
Continuous
 62
     7
100
AcDbSpline
210
0.0
220
0.0
230
1.0
 70
     8
 71
     3
 72
    11
 73
     7
 74
     5
 42
0.0000000001
 43
0.0000000001
 44
0.0000000001
 12
-0.9983633571777426
 22
0.057189221403926
 32
0.0
 13
-0.7793666971255138
 23
0.6265680740443674
 33
0.0
 40
0.0
 40
0.0
 40
0.0
 40
0.0
 40
0.0043759303004136
 40
0.0110161553292881
 40
0.0176739039447961
 40
0.0240674083669155
 40
0.0240674083669155
 40
0.0240674083669155
 40
0.0240674083669155
 10
28.0070722319446
 20
20.23378304147247
 30
0.0
 10
28.00561597578944
 20
20.23386646015474
 30
0.0
 10
28.0019594911743
 20
20.23428667715687
 30
0.0
 10
27.99623472962648
 20
20.23580373574625
 30
0.0
 10
27.99024419472085
 20
20.23856064505574
 30
0.0
 10
27.98662933151944
 20
20.24102061595509
 30
0.0
 10
27.9849683700446
 20
20.24235593787247
 30
0.0
 11
28.0070722319446
 21
20.23378304147247
 31
0.0
 11
28.0027249793446
 21
20.23428320227248
 31
0.0
 11
27.9963056950446
 21
20.23598184217247
 31
0.0
 11
27.9902563387446
 21
20.23876229267248
 31
0.0
 11
27.9849683700446
 21
20.24235593787247
 31
0.0
  0
SPLINE
  5
84C
330
1F
100
AcDbEntity
  8
0
  6
Continuous
 62
     7
100
AcDbSpline
210
0.0
220
0.0
230
1.0
 70
     8
 71
     3
 72
    10
 73
     6
 74
     4
 42
0.0000000001
 43
0.0000000001
 44
0.0000000001
 12
-0.7793666952184397
 22
0.626568076416512
 32
0.0
 13
-0.5389723952738904
 23
0.8423234278664729
 33
0.0
 40
0.0
 40
0.0
 40
0.0
 40
0.0
 40
0.0002105083832081
 40
0.0068893040467728
 40
0.0133072909237218
 40
0.0133072909237218
 40
0.0133072909237218
 40
0.0133072909237218
 10
27.9849683700446
 20
20.24235593787247
 30
0.0
 10
27.98491368230362
 20
20.24239990381672
 30
0.0
 10
27.98312773768158
 20
20.24384343813123
 30
0.0
 10
27.97991278323324
 20
20.24693273705501
 30
0.0
 10
27.9772745442979
 20
20.25043509017041
 30
0.0
 10
27.9761215050446
 20
20.25223709707248
 30
0.0
 11
27.9849683700446
 21
20.24235593787247
 31
0.0
 11
27.9848046537446
 21
20.24248826607248
 31
0.0
 11
27.9799865261446
 21
20.24711341017248
 31
0.0
 11
27.9761215050446
 21
20.25223709707248
 31
0.0
  0
SPLINE
  5
84D
330
1F
100
AcDbEntity
  8
0
  6
Continuous
 62
     7
100
AcDbSpline
210
0.0
220
0.0
230
1.0
 70
     8
 71
     3
 72
    10
 73
     6
 74
     4
 42
0.0000000001
 43
0.0000000001
 44
0.0000000001
 12
-0.8737736496583314
 22
-0.4863328172792368
 32
0.0
 13
-0.982429478262674
 23
-0.1866341882949908
 33
0.0
 40
0.0
 40
0.0
 40
0.0
 40
0.0
 40
0.0057755985481868
 40
0.0114455057052372
 40
0.01207052587159
 40
0.01207052587159
 40
0.01207052587159
 40
0.01207052587159
 10
28.0491541073446
 20
20.23947748407247
 30
0.0
 10
28.04747191873713
 20
20.238541196368
 30
0.0
 10
28.04399415147354
 20
20.23693279999516
 30
0.0
 10
28.04011213581997
 20
20.23581150743652
 30
0.0
 10
28.03805410725658
 20
20.23540250094961
 30
0.0
 10
28.0378494278446
 20
20.23536361757248
 30
0.0
 11
28.0491541073446
 21
20.23947748407247
 31
0.0
 11
28.0439102852446
 21
20.23705676757248
 31
0.0
 11
28.0384624581446
 21
20.23548545377248
 31
0.0
 11
28.0378494278446
 21
20.23536361757248
 31
0.0
  0
SPLINE
  5
84E
330
1F
100
AcDbEntity
  8
0
  6
Continuous
 62
     7
100
AcDbSpline
210
0.0
220
0.0
230
1.0
 70
     8
 71
     3
 72
    17
 73
    13
 74
    11
 42
0.0000000001
 43
0.0000000001
 44
0.0000000001
 12
-0.9824294788186858
 22
-0.1866341853681833
 32
0.0
 13
-0.2609532420192103
 23
0.9653514414344982
 33
0.0
 40
0.0
 40
0.0
 40
0.0
 40
0.0
 40
0.0049784368440709
 40
0.0105649181829811
 40
0.0161519968900512
 40
0.0217744234461645
 40
0.0274045879205669
 40
0.0331078173293708
 40
0.0388523156022962
 40
0.0445597950062116
 40
0.0502037735429415
 40
0.0559122261755126
 40
0.0559122261755126
 40
0.0559122261755126
 40
0.0559122261755126
 10
28.0378494278446
 20
20.23536361757248
 30
0.0
 10
28.03621910680658
 20
20.23505390207088
 30
0.0
 10
28.03271070729861
 20
20.23462904790497
 30
0.0
 10
28.02730746728233
 20
20.23475968638668
 30
0.0
 10
28.02177535037356
 20
20.23575475222208
 30
0.0
 10
28.01644793480321
 20
20.23759275010657
 30
0.0
 10
28.01143099633599
 20
20.24024323389763
 30
0.0
 10
28.00684444104895
 20
20.24365267125713
 30
0.0
 10
28.00281131583339
 20
20.24773753965433
 30
0.0
 10
27.99944733304821
 20
20.25236371426604
 30
0.0
 10
27.99680292713791
 20
20.25741951539888
 30
0.0
 10
27.99554804795173
 20
20.2610063341134
 30
0.0
 10
27.9950515015446
 20
20.26284322177248
 30
0.0
 11
28.0378494278446
 21
20.23536361757248
 31
0.0
 11
28.0329068922446
 21
20.23476681337248
 31
0.0
 11
28.0273220605446
 21
20.23490256547248
 31
0.0
 11
28.0218232231446
 21
20.23589162347247
 31
0.0
 11
28.0165079114446
 21
20.23772441967247
 31
0.0
 11
28.0115290164446
 21
20.24035298517247
 31
0.0
 11
28.0069506255446
 21
20.24375374427247
 31
0.0
 11
28.0029130493446
 21
20.24783996977248
 31
0.0
 11
27.9995546872446
 21
20.25245480727248
 31
0.0
 11
27.9969376984446
 21
20.25745539357247
 31
0.0
 11
27.9950515015446
 21
20.26284322177248
 31
0.0
  0
SPLINE
  5
84F
330
1F
100
AcDbEntity
  8
0
  6
Continuous
 62
     7
100
AcDbSpline
210
0.0
220
0.0
230
1.0
 70
     8
 71
     3
 72
    15
 73
    11
 74
     9
 42
0.0000000001
 43
0.0000000001
 44
0.0000000001
 12
-0.9931150461129316
 22
0.1171430970399438
 32
0.0
 13
-0.2900059734875526
 23
0.9570248352793864
 33
0.0
 40
0.0
 40
0.0
 40
0.0
 40
0.0
 40
0.0020742960063301
 40
0.0086688053635306
 40
0.0152437174727348
 40
0.0218291151840696
 40
0.0285504643842828
 40
0.0353840110355294
 40
0.0422300751766982
 40
0.0467777313493445
 40
0.0467777313493445
 40
0.0467777313493445
 40
0.0467777313493445
 10
28.0223014809446
 20
20.23398351367247
 30
0.0
 10
28.02161480941994
 20
20.23406451015859
 30
0.0
 10
28.01875436469359
 20
20.23448076537735
 30
0.0
 10
28.01381433294619
 20
20.23578575080025
 30
0.0
 10
28.00779848340101
 20
20.23853750808352
 30
0.0
 10
28.00229041514167
 20
20.24227766849174
 30
0.0
 10
27.99741310214537
 20
20.24693561609367
 30
0.0
 10
27.99331561806641
 20
20.25240108927417
 30
0.0
 10
27.99049584237711
 20
20.25781388763567
 30
0.0
 10
27.98920220596308
 20
20.26139261150596
 30
0.0
 10
27.9887625901446
 20
20.26284335147248
 30
0.0
 11
28.0223014809446
 21
20.23398351367247
 31
0.0
 11
28.0202488273446
 21
20.23428237337247
 31
0.0
 11
28.0138725206446
 21
20.23596471297247
 31
0.0
 11
28.0078919536446
 21
20.23869643177247
 31
0.0
 11
28.0024417416446
 21
20.24239273427248
 31
0.0
 11
27.9975779840446
 21
20.24703174247247
 31
0.0
 11
27.9934756605446
 21
20.25249693247248
 31
0.0
 11
27.9903095963446
 21
20.25856691037247
 31
0.0
 11
27.9887625901446
 21
20.26284335147248
 31
0.0
  0
SPLINE
  5
850
330
1F
100
AcDbEntity
  8
0
  6
Continuous
 62
     7
100
AcDbSpline
210
0.0
220
0.0
230
1.0
 70
     8
 71
     3
 72
    15
 73
    11
 74
     9
 42
0.0000000001
 43
0.0000000001
 44
0.0000000001
 12
0.2901087973838733
 22
-0.9569936706585277
 32
0.0
 13
0.9930848877251714
 23
-0.1173984913526738
 33
0.0
 40
0.0
 40
0.0
 40
0.0
 40
0.0
 40
0.0055221402294217
 40
0.0123677462466373
 40
0.0191694778414829
 40
0.025922256905608
 40
0.032627014809454
 40
0.0392907537855966
 40
0.0459251546806251
 40
0.0467620373195408
 40
0.0467620373195408
 40
0.0467620373195408
 40
0.0467620373195408
 10
27.9909537018446
 20
20.26283925597248
 30
0.0
 10
27.99148770899825
 20
20.26107770488979
 30
0.0
 10
27.99293777622167
 20
20.25720497139448
 30
0.0
 10
27.99603398768969
 20
20.25158328450309
 30
0.0
 10
28.00025717120636
 20
20.24621455508751
 30
0.0
 10
28.00527350626361
 20
20.24164670120958
 30
0.0
 10
28.01094651544607
 20
20.23800801885113
 30
0.0
 10
28.01711787031992
 20
20.23540169365885
 30
0.0
 10
28.02173578465489
 20
20.2343366158386
 30
0.0
 10
28.02420556611076
 20
20.23401713365889
 30
0.0
 10
28.0244825979446
 20
20.23398438407247
 30
0.0
 11
27.9909537018446
 21
20.26283925597248
 31
0.0
 11
27.9928917625446
 21
20.25766838047247
 31
0.0
 11
27.9961973118446
 21
20.25167374407248
 31
0.0
 11
28.0004058425446
 21
20.24633035357247
 31
0.0
 11
28.0054017349446
 21
20.24178710757248
 31
0.0
 11
28.0110474674446
 21
20.23817055077247
 31
0.0
 11
28.0171876192446
 21
20.23558135147248
 31
0.0
 11
28.0236526324446
 21
20.23409176107247
 31
0.0
 11
28.0244825979446
 21
20.23398438407247
 31
0.0
  0
SPLINE
  5
851
330
1F
100
AcDbEntity
  8
0
  6
Continuous
 62
     7
100
AcDbSpline
210
0.0
220
0.0
230
1.0
 70
     8
 71
     3
 72
    15
 73
    11
 74
     9
 42
0.0000000001
 43
0.0000000001
 44
0.0000000001
 12
-0.9931151377213566
 22
0.1171423203999773
 32
0.0
 13
-0.2900301043987166
 23
0.957017522589043
 33
0.0
 40
0.0
 40
0.0
 40
0.0
 40
0.0
 40
0.0020839061109982
 40
0.0087289225844317
 40
0.015391456042505
 40
0.0220018069123266
 40
0.028674120229854
 40
0.0354064022614023
 40
0.042122329187138
 40
0.046776969154884
 40
0.046776969154884
 40
0.046776969154884
 40
0.046776969154884
 10
28.0201116357446
 20
20.23398350977247
 30
0.0
 10
28.01942178284313
 20
20.23406488097159
 30
0.0
 10
28.01654154433903
 20
20.23448438216234
 30
0.0
 10
28.01155444567541
 20
20.23580665634353
 30
0.0
 10
28.00549560666024
 20
20.2385977979324
 30
0.0
 10
27.99998503238391
 20
20.24237238829125
 30
0.0
 10
27.99515537618859
 20
20.24701866434118
 30
0.0
 10
27.99112418582243
 20
20.25241539277175
 30
0.0
 10
27.98831868325344
 20
20.25778727708342
 30
0.0
 10
27.98702298988319
 20
20.26135753823565
 30
0.0
 10
27.9865729946446
 20
20.26284239557248
 30
0.0
 11
28.0201116357446
 21
20.23398350977247
 31
0.0
 11
28.0180495098446
 21
20.23428401177247
 31
0.0
 11
28.0116259091446
 21
20.23598506967247
 31
0.0
 11
28.0055730572446
 21
20.23876937137247
 31
0.0
 11
28.0001172382446
 21
20.24250176707248
 31
0.0
 11
27.9953058522446
 21
20.24712457247247
 31
0.0
 11
27.9912738382446
 21
20.25251590667248
 31
0.0
 11
27.9881619647446
 21
20.25846737017248
 31
0.0
 11
27.9865729946446
 21
20.26284239557248
 31
0.0
  0
SPLINE
  5
852
330
1F
100
AcDbEntity
  8
0
  6
Continuous
 62
     7
100
AcDbSpline
210
0.0
220
0.0
230
1.0
 70
     8
 71
     3
 72
    15
 73
    11
 74
     9
 42
0.0000000001
 43
0.0000000001
 44
0.0000000001
 12
-0.9931150794889504
 22
0.1171428140845851
 32
0.0
 13
-0.2900020477173672
 23
0.9570260248915564
 33
0.0
 40
0.0
 40
0.0
 40
0.0
 40
0.0
 40
0.0020771721850125
 40
0.0086829868362513
 40
0.0152758980382288
 40
0.0218570912569264
 40
0.0285771037100781
 40
0.0354088273943447
 40
0.0422526973888823
 40
0.046777871603539
 40
0.046777871603539
 40
0.046777871603539
 40
0.046777871603539
 10
28.0179217253446
 20
20.23398351247248
 30
0.0
 10
28.01723410167139
 20
20.23406462107084
 30
0.0
 10
28.01436898989427
 20
20.23448166413559
 30
0.0
 10
28.00941873524653
 20
20.23579052752439
 30
0.0
 10
28.00339672365405
 20
20.23854947320583
 30
0.0
 10
27.9978881046026
 20
20.24229612396774
 30
0.0
 10
27.99301571804295
 20
20.24695564468347
 30
0.0
 10
27.98892271652932
 20
20.25242219978737
 30
0.0
 10
27.98611007181727
 20
20.25782870584969
 30
0.0
 10
27.98482021084078
 20
20.26139993934227
 30
0.0
 10
27.9843827742446
 20
20.26284350917248
 30
0.0
 11
28.0179217253446
 21
20.23398351247248
 31
0.0
 11
28.0158662367446
 21
20.23428286327248
 31
0.0
 11
28.0094793731446
 21
20.23596950507247
 31
0.0
 11
28.0034840670446
 21
20.23871227427248
 31
0.0
 11
27.9980401411446
 21
20.24241035147247
 31
0.0
 11
27.9931804785446
 21
20.24705171407247
 31
0.0
 11
27.9890826429446
 21
20.25251799177247
 31
0.0
 11
27.9859209988446
 21
20.25858779927248
 31
0.0
 11
27.9843827742446
 21
20.26284350917248
 31
0.0
  0
SPLINE
  5
853
330
1F
100
AcDbEntity
  8
0
  6
Continuous
 62
     7
100
AcDbSpline
210
0.0
220
0.0
230
1.0
 70
     8
 71
     3
 72
    10
 73
     6
 74
     4
 42
0.0000000001
 43
0.0000000001
 44
0.0000000001
 12
-0.9916782003653683
 22
0.1287413955187085
 32
0.0
 13
-0.9138504402760153
 23
0.406050948536428
 33
0.0
 40
0.0
 40
0.0
 40
0.0
 40
0.0
 40
0.0016332909366669
 40
0.0081110844311987
 40
0.0109179030061276
 40
0.0109179030061276
 40
0.0109179030061276
 40
0.0109179030061276
 10
27.9866053021446
 20
20.23403288667247
 30
0.0
 10
27.98606540247235
 20
20.23410297739063
 30
0.0
 10
27.98339214943738
 20
20.23450920247443
 30
0.0
 10
27.97985237839078
 20
20.23544769535353
 30
0.0
 10
27.97697837277476
 20
20.2366010387909
 30
0.0
 10
27.9761233686446
 20
20.23698094257247
 30
0.0
 11
27.9866053021446
 21
20.23403288667247
 31
0.0
 11
27.9849905655446
 21
20.23427837597247
 31
0.0
 11
27.9787284959446
 21
20.23593617357247
 31
0.0
 11
27.9761233686446
 21
20.23698094257247
 31
0.0
  0
SPLINE
  5
854
330
1F
100
AcDbEntity
  8
0
  6
Continuous
 62
     7
100
AcDbSpline
210
0.0
220
0.0
230
1.0
 70
     8
 71
     3
 72
    15
 73
    11
 74
     9
 42
0.0000000001
 43
0.0000000001
 44
0.0000000001
 12
-0.9931151068456552
 22
0.1171425821592764
 32
0.0
 13
-0.2900272935092318
 23
0.9570183744420532
 33
0.0
 40
0.0
 40
0.0
 40
0.0
 40
0.0
 40
0.0020819423767163
 40
0.0087249774791748
 40
0.015385563714789
 40
0.0219943220570073
 40
0.0286710449542691
 40
0.0354163416221133
 40
0.0421407788642757
 40
0.0467770346788693
 40
0.0467770346788693
 40
0.0467770346788693
 40
0.0467770346788693
 10
28.0157318567446
 20
20.23398351067247
 30
0.0
 10
28.01504265393596
 20
20.23406480537444
 30
0.0
 10
28.01216370909994
 20
20.23448404406352
 30
0.0
 10
28.00717843337456
 20
20.23580542376326
 30
0.0
 10
28.00112093675227
 20
20.23859501812241
 30
0.0
 10
27.9956094984492
 20
20.24236883320091
 30
0.0
 10
27.99077538988024
 20
20.24701818577568
 30
0.0
 10
27.98673939031728
 20
20.25242230445962
 30
0.0
 10
27.98393517949736
 20
20.25779614127449
 30
0.0
 10
27.98264140681991
 20
20.26136350987142
 30
0.0
 10
27.9821931932446
 20
20.26284250387247
 30
0.0
 11
28.0157318567446
 21
20.23398351067247
 31
0.0
 11
28.0136716664446
 21
20.23428367727248
 31
0.0
 11
28.0072498506446
 21
20.23598373527248
 31
0.0
 11
28.0011984167446
 21
20.23876645997248
 31
0.0
 11
27.9957432839446
 21
20.24249703807248
 31
0.0
 11
27.9909281161446
 21
20.24712227187248
 31
0.0
 11
27.9868887541446
 21
20.25252436237248
 31
0.0
 11
27.9837749403446
 21
20.25848441437247
 31
0.0
 11
27.9821931932446
 21
20.26284250387247
 31
0.0
  0
SPLINE
  5
855
330
1F
100
AcDbEntity
  8
0
  6
Continuous
 62
     7
100
AcDbSpline
210
0.0
220
0.0
230
1.0
 70
     8
 71
     3
 72
    10
 73
     6
 74
     4
 42
0.0000000001
 43
0.0000000001
 44
0.0000000001
 12
-0.760722074430639
 22
-0.649077749945217
 32
0.0
 13
-1.0
 23
0.0
 33
0.0
 40
0.0
 40
0.0
 40
0.0
 40
0.0
 40
0.0030394408536622
 40
0.0066625890241086
 40
0.0102648071193783
 40
0.0102648071193783
 40
0.0102648071193783
 40
0.0102648071193783
 10
28.0185956658446
 20
20.26283334077247
 30
0.0
 10
28.01782494259417
 20
20.26217572962901
 30
0.0
 10
28.01598570990854
 20
20.26089978759245
 30
0.0
 10
28.01277578208102
 20
20.25961966971342
 30
0.0
 10
28.01035635960969
 20
20.25931130797248
 30
0.0
 10
28.0091556202446
 20
20.25931130797248
 30
0.0
 11
28.0185956658446
 21
20.26283334077247
 31
0.0
 11
28.0160960150446
 21
20.26110419457248
 31
0.0
 11
28.0127290139446
 21
20.25976609657247
 31
0.0
 11
28.0091556202446
 21
20.25931130797248
 31
0.0
  0
SPLINE
  5
856
330
1F
100
AcDbEntity
  8
0
  6
Continuous
 62
     7
100
AcDbSpline
210
0.0
220
0.0
230
1.0
 70
     8
 71
     3
 72
    13
 73
     9
 74
     7
 42
0.0000000001
 43
0.0000000001
 44
0.0000000001
 12
1.0
 22
0.0
 32
0.0
 13
0.4823840874558233
 23
0.8759598119602364
 33
0.0
 40
0.0
 40
0.0
 40
0.0
 40
0.0
 40
0.0056338864974466
 40
0.0112874612466026
 40
0.0169775713182158
 40
0.0227158674249038
 40
0.0285072922135432
 40
0.0323608234673318
 40
0.0323608234673318
 40
0.0323608234673318
 40
0.0323608234673318
 10
28.0291409769446
 20
20.24297272537248
 30
0.0
 10
28.03101893911041
 20
20.24297272537248
 30
0.0
 10
28.03479157823521
 20
20.24334056242278
 30
0.0
 10
28.04024454246512
 20
20.24497538376278
 30
0.0
 10
28.04531810664582
 20
20.24763630387049
 30
0.0
 10
28.0498362396453
 20
20.25123013499232
 30
0.0
 10
28.05321156105622
 20
20.25513012204946
 30
0.0
 10
28.05493023645882
 20
20.25785660106832
 30
0.0
 10
28.0555498638446
 20
20.25898178057248
 30
0.0
 11
28.0291409769446
 21
20.24297272537248
 31
0.0
 11
28.0347483109446
 21
20.24351906087247
 31
0.0
 11
28.0401646939446
 21
20.24513946287247
 31
0.0
 11
28.0452056774446
 21
20.24777875027247
 31
0.0
 11
28.0496995968446
 21
20.25134704547248
 31
0.0
 11
28.0534934170446
 21
20.25572283447248
 31
0.0
 11
28.0555498638446
 21
20.25898178057248
 31
0.0
  0
LINE
  5
857
330
1F
100
AcDbEntity
  8
0
  6
Continuous
 62
     7
100
AcDbLine
 10
27.9443430453446
 20
20.22236728367248
 30
0.0
 11
27.9444398630446
 21
20.22228169577247
 31
0.0
  0
SPLINE
  5
858
330
1F
100
AcDbEntity
  8
0
  6
Continuous
 62
     7
100
AcDbSpline
210
0.0
220
0.0
230
1.0
 70
     8
 71
     3
 72
    13
 73
     9
 74
     7
 42
0.0000000001
 43
0.0000000001
 44
0.0000000001
 12
0.9395086561527115
 22
0.3425251596804622
 32
0.0
 13
0.3646858927334171
 23
0.9311306028915764
 33
0.0
 40
0.0
 40
0.0
 40
0.0
 40
0.0
 40
0.0010995826748024
 40
0.0067896927464148
 40
0.0125279888531036
 40
0.0183194137072493
 40
0.0241616991664637
 40
0.0264310984045545
 40
0.0264310984045545
 40
0.0264310984045545
 40
0.0264310984045545
 10
28.0191534638446
 20
20.24474365227248
 30
0.0
 10
28.01949781965831
 20
20.2448691971829
 30
0.0
 10
28.02160949093094
 20
20.2456838903854
 30
0.0
 10
28.02533362834618
 20
20.24763656278008
 30
0.0
 10
28.02985084798726
 20
20.25123041885796
 30
0.0
 10
28.03366180612666
 20
20.25563289714953
 30
0.0
 10
28.03602416844555
 20
20.2596521413141
 30
0.0
 10
28.03709659041556
 20
20.26213609774556
 30
0.0
 10
28.0373724630446
 20
20.26284046677247
 30
0.0
 11
28.0191534638446
 21
20.24474365227248
 31
0.0
 11
28.0201793371446
 21
20.24513946287247
 31
0.0
 11
28.0252203206446
 21
20.24777875027247
 31
0.0
 11
28.0297142400446
 21
20.25134704547248
 31
0.0
 11
28.0335080603446
 21
20.25572283447248
 31
0.0
 11
28.0364725874446
 21
20.26075710487248
 31
0.0
 11
28.0373724630446
 21
20.26284046677247
 31
0.0
  0
SPLINE
  5
859
330
1F
100
AcDbEntity
  8
0
  6
Continuous
 62
     7
100
AcDbSpline
210
0.0
220
0.0
230
1.0
 70
     8
 71
     3
 72
    15
 73
    11
 74
     9
 42
0.0000000001
 43
0.0000000001
 44
0.0000000001
 12
-0.9931151010169843
 22
0.1171426315737571
 32
0.0
 13
-0.2900059805936488
 23
0.9570248331260355
 33
0.0
 40
0.0
 40
0.0
 40
0.0
 40
0.0
 40
0.0020799790376484
 40
0.0087045951654433
 40
0.0153310477335153
 40
0.0219161962707175
 40
0.0286308577351522
 40
0.0354564149196515
 40
0.0422933988326518
 40
0.0467776077225033
 40
0.0467776077225033
 40
0.0467776077225033
 40
0.0467776077225033
 10
28.0135419671446
 20
20.23398351147247
 30
0.0
 10
28.01285341428057
 20
20.23406472954517
 30
0.0
 10
28.00998118518347
 20
20.23448291514208
 30
0.0
 10
28.00501333468276
 20
20.23579812388051
 30
0.0
 10
27.99897661964485
 20
20.23857106551323
 30
0.0
 10
27.99346452398373
 20
20.24233173965447
 30
0.0
 10
27.98860050007977
 20
20.24699624592274
 30
0.0
 10
27.9845179107497
 20
20.25246279918572
 30
0.0
 10
27.98171925362477
 20
20.2578561580292
 30
0.0
 10
27.98043654631003
 20
20.26141281961764
 30
0.0
 10
27.9800030638446
 20
20.26284331937247
 30
0.0
 11
28.0135419671446
 21
20.23398351147247
 31
0.0
 11
28.0114837119446
 21
20.23428334197248
 31
0.0
 11
28.0050792083446
 21
20.23597682137248
 31
0.0
 11
27.9990561238446
 21
20.23873948797247
 31
0.0
 11
27.9936142676446
 21
20.24244763877248
 31
0.0
 11
27.9887649420446
 21
20.24709206767248
 31
0.0
 11
27.9846774904446
 21
20.25255841657247
 31
0.0
 11
27.9815253647446
 21
20.25862541357247
 31
0.0
 11
27.9800030638446
 21
20.26284331937247
 31
0.0
  0
SPLINE
  5
85A
330
1F
100
AcDbEntity
  8
0
  6
Continuous
 62
     7
100
AcDbSpline
210
0.0
220
0.0
230
1.0
 70
     8
 71
     3
 72
    11
 73
     7
 74
     5
 42
0.0000000001
 43
0.0000000001
 44
0.0000000001
 12
0.1212833593895741
 22
-0.9926179258582726
 32
0.0
 13
0.5100576649947908
 23
-0.8601402085590825
 33
0.0
 40
0.0
 40
0.0
 40
0.0
 40
0.0
 40
0.0076588836225498
 40
0.0208106706663493
 40
0.0338985462952569
 40
0.041023634088851
 40
0.041023634088851
 40
0.041023634088851
 40
0.041023634088851
 10
27.8023452204446
 20
20.26284131627247
 30
0.0
 10
27.80265485215624
 20
20.26030720121387
 30
0.0
 10
27.80375836232983
 20
20.25345174900673
 30
0.0
 10
27.80670938306677
 20
20.24250914755187
 30
0.0
 10
27.8110082184033
 20
20.23221470980762
 30
0.0
 10
27.81423344766364
 20
20.2262923618394
 30
0.0
 10
27.8154448495446
 20
20.22424950367248
 30
0.0
 11
27.8023452204446
 21
20.26284131627247
 31
0.0
 11
27.8035630094446
 21
20.25527986877248
 31
0.0
 11
27.8069904170446
 21
20.24258253127248
 31
0.0
 11
27.8120368085446
 21
20.23050667017248
 31
0.0
 11
27.8154448495446
 21
20.22424950367248
 31
0.0
  0
SPLINE
  5
85B
330
1F
100
AcDbEntity
  8
0
  6
Continuous
 62
     7
100
AcDbSpline
210
0.0
220
0.0
230
1.0
 70
     8
 71
     3
 72
    13
 73
     9
 74
     7
 42
0.0000000001
 43
0.0000000001
 44
0.0000000001
 12
0.1371848284876629
 22
-0.9905454673223285
 32
0.0
 13
0.579970278534133
 23
-0.8146376347904878
 33
0.0
 40
0.0
 40
0.0
 40
0.0
 40
0.0
 40
0.0054878362870676
 40
0.01433348841072
 40
0.0231529860314643
 40
0.0319393045828659
 40
0.0406867992306112
 40
0.0418754164793627
 40
0.0418754164793627
 40
0.0418754164793627
 40
0.0418754164793627
 10
27.8306775134446
 20
20.26284269027248
 30
0.0
 10
27.83092846273787
 20
20.26103070648595
 30
0.0
 10
27.83173010054682
 20
20.25631743168864
 30
0.0
 10
27.83363825509435
 20
20.24882541870517
 30
0.0
 10
27.83666575850162
 20
20.24052844132214
 30
0.0
 10
27.84050105748332
 20
20.23260935345688
 30
0.0
 10
27.84378593419165
 20
20.22728810249263
 30
0.0
 10
27.84568780728566
 20
20.22457658558721
 30
0.0
 10
27.8459175948446
 20
20.22425382147247
 30
0.0
 11
27.8306775134446
 21
20.26284269027248
 31
0.0
 11
27.8315979591446
 21
20.25743259537247
 31
0.0
 11
27.8337823276446
 21
20.24886089217247
 31
0.0
 11
27.8368068641446
 21
20.24057622457247
 31
0.0
 11
27.8406384312446
 21
20.23266936127248
 31
0.0
 11
27.8452350495446
 21
20.22522693137247
 31
0.0
 11
27.8459175948446
 21
20.22425382147247
 31
0.0
  0
SPLINE
  5
85C
330
1F
100
AcDbEntity
  8
0
  6
Continuous
 62
     7
100
AcDbSpline
210
0.0
220
0.0
230
1.0
 70
     8
 71
     3
 72
    12
 73
     8
 74
     6
 42
0.0000000001
 43
0.0000000001
 44
0.0000000001
 12
0.1205495701110956
 22
-0.9927073089012845
 32
0.0
 13
0.5076467731640869
 23
-0.8615652927643324
 33
0.0
 40
0.0
 40
0.0
 40
0.0
 40
0.0
 40
0.0066802713937996
 40
0.016119361908105
 40
0.0255337391835925
 40
0.0349165681953716
 40
0.0409949894595556
 40
0.0409949894595556
 40
0.0409949894595556
 40
0.0409949894595556
 10
27.8194694910446
 20
20.26284290367247
 30
0.0
 10
27.81973792565952
 20
20.26063238559312
 30
0.0
 10
27.82056187188858
 20
20.25531855975437
 30
0.0
 10
27.82253640233259
 20
20.24702625166987
 30
0.0
 10
27.82557166137571
 20
20.23810251661721
 30
0.0
 10
27.8289772488442
 20
20.23052795972028
 30
0.0
 10
27.8314555325977
 20
20.22600521743782
 30
0.0
 10
27.8324840962446
 20
20.22425956517247
 30
0.0
 11
27.8194694910446
 21
20.26284290367247
 31
0.0
 11
27.8204934293446
 21
20.25624157227248
 31
0.0
 11
27.8226808636446
 21
20.24705943957247
 31
0.0
 11
27.8257137217446
 21
20.23814696117248
 31
0.0
 11
27.8295627956446
 21
20.22958996927247
 31
0.0
 11
27.8324840962446
 21
20.22425956517247
 31
0.0
  0
SPLINE
  5
85D
330
1F
100
AcDbEntity
  8
0
  6
Continuous
 62
     7
100
AcDbSpline
210
0.0
220
0.0
230
1.0
 70
     8
 71
     3
 72
    18
 73
    14
 74
    12
 42
0.0000000001
 43
0.0000000001
 44
0.0000000001
 12
-0.232298736569759
 22
0.9726444864327838
 32
0.0
 13
-0.1002161897495231
 23
0.994965685494775
 33
0.0
 40
0.0
 40
0.0
 40
0.0
 40
0.0
 40
0.0025766198430463
 40
0.0057597383073147
 40
0.0094310554594639
 40
0.0134347284383802
 40
0.0176450929625911
 40
0.0219843863554953
 40
0.0263623599431114
 40
0.0307639607513932
 40
0.0351948774096921
 40
0.0396239301490586
 40
0.0440392945518475
 40
0.0440392945518475
 40
0.0440392945518475
 40
0.0440392945518475
 10
28.2839260001446
 20
20.48526304877247
 30
0.0
 10
28.28372648496655
 20
20.4860984271338
 30
0.0
 10
28.28329971457657
 20
20.48797054677713
 30
0.0
 10
28.28269071336979
 20
20.49105505962169
 30
0.0
 10
28.28205987196709
 20
20.49461914968188
 30
0.0
 10
28.28141774774352
 20
20.49852862255464
 30
0.0
 10
28.2807768257619
 20
20.50266374562898
 30
0.0
 10
28.28015296767869
 20
20.50692758863186
 30
0.0
 10
28.27953913666562
 20
20.51125726511807
 30
0.0
 10
28.27895225258827
 20
20.51562153520538
 30
0.0
 10
28.27840508586918
 20
20.52000813377664
 30
0.0
 10
28.27789645780709
 20
20.52440396182889
 30
0.0
 10
28.27758308824354
 20
20.52733546208257
 30
0.0
 10
28.2774355912446
 20
20.52879984077248
 30
0.0
 11
28.2839260001446
 21
20.48526304877247
 31
0.0
 11
28.2833556282446
 21
20.48777574567247
 31
0.0
 11
28.2827318102446
 21
20.49089713867247
 31
0.0
 11
28.2820863327446
 21
20.49451126767248
 31
0.0
 11
28.2814347115446
 21
20.49846155717248
 31
0.0
 11
28.2807892102446
 21
20.50262214577247
 31
0.0
 11
28.2801580047446
 21
20.50691528527248
 31
0.0
 11
28.2795454037446
 21
20.51125018697248
 31
0.0
 11
28.2789604996446
 21
20.51561275237248
 31
0.0
 11
28.2784115366446
 21
20.52000953097247
 31
0.0
 11
28.2779023264446
 21
20.52440921427248
 31
0.0
 11
28.2774355912446
 21
20.52879984077248
 31
0.0
  0
SPLINE
  5
85E
330
1F
100
AcDbEntity
  8
0
  6
Continuous
 62
     7
100
AcDbSpline
210
0.0
220
0.0
230
1.0
 70
     8
 71
     3
 72
     8
 73
     4
 74
     2
 42
0.0000000001
 43
0.0000000001
 44
0.0000000001
 12
-0.938807784275256
 22
0.344441496025355
 32
0.0
 13
-0.2545916910577696
 23
0.9670486393374147
 33
0.0
 40
0.0
 40
0.0
 40
0.0
 40
0.0
 40
0.0013588066665121
 40
0.0013588066665121
 40
0.0013588066665121
 40
0.0013588066665121
 10
28.2849177697446
 20
20.48312828487247
 30
0.0
 10
28.28449255031932
 20
20.48328429467281
 30
0.0
 10
28.28429056447362
 20
20.48382826415982
 30
0.0
 10
28.2841752508446
 20
20.48426627487248
 30
0.0
 11
28.2849177697446
 21
20.48312828487247
 31
0.0
 11
28.2841752508446
 21
20.48426627487248
 31
0.0
  0
SPLINE
  5
85F
330
1F
100
AcDbEntity
  8
0
  6
Continuous
 62
     7
100
AcDbSpline
210
0.0
220
0.0
230
1.0
 70
     8
 71
     3
 72
    14
 73
    10
 74
     8
 42
0.0000000001
 43
0.0000000001
 44
0.0000000001
 12
-0.0986500891578802
 22
0.9951221834072148
 32
0.0
 13
0.0138108992139499
 23
0.9999046249832542
 33
0.0
 40
0.0
 40
0.0
 40
0.0
 40
0.0
 40
0.004282787817657
 40
0.0085640100899812
 40
0.012801709615507
 40
0.0169956110158389
 40
0.0211351974935391
 40
0.0251591911095075
 40
0.0289408020896091
 40
0.0289408020896091
 40
0.0289408020896091
 40
0.0289408020896091
 10
28.2774048985446
 20
20.52910462317247
 30
0.0
 10
28.27726406607792
 20
20.53052525556053
 30
0.0
 10
28.27699636511698
 20
20.53336742768839
 30
0.0
 10
28.27665176410839
 20
20.53762082541338
 30
0.0
 10
28.2763540068219
 20
20.54184804552376
 30
0.0
 10
28.27611408086793
 20
20.54603171652386
 30
0.0
 10
28.27594507967285
 20
20.55014762918859
 30
0.0
 10
28.27585749628342
 20
20.55412865230469
 30
0.0
 10
28.27585797969523
 20
20.55673082860284
 30
0.0
 10
28.2758753888446
 20
20.55799124537248
 30
0.0
 11
28.2774048985446
 21
20.52910462317247
 31
0.0
 11
28.2770056125446
 21
20.53336875757247
 31
0.0
 11
28.2766581155446
 21
20.53763585377247
 31
0.0
 11
28.2763622169446
 21
20.54186321007247
 31
0.0
 11
28.2761244613446
 21
20.54605036677248
 31
0.0
 11
28.2759568153446
 21
20.55018655717248
 31
0.0
 11
28.2758710578446
 21
20.55420963687248
 31
0.0
 11
28.2758753888446
 21
20.55799124537248
 31
0.0
  0
SPLINE
  5
860
330
1F
100
AcDbEntity
  8
0
  6
Continuous
 62
     7
100
AcDbSpline
210
0.0
220
0.0
230
1.0
 70
     8
 71
     3
 72
    24
 73
    20
 74
    18
 42
0.0000000001
 43
0.0000000001
 44
0.0000000001
 12
-0.2265719179044347
 22
-0.9739944383912602
 32
0.0
 13
-0.0138857500059095
 23
-0.9999035883257811
 33
0.0
 40
0.0
 40
0.0
 40
0.0
 40
0.0
 40
0.0028822035220325
 40
0.0082213649341283
 40
0.0110053530003979
 40
0.013914106405696
 40
0.0199604966881256
 40
0.026352710000095
 40
0.0330875768930849
 40
0.0365741033460773
 40
0.0400598335758247
 40
0.0435718267568229
 40
0.0474137560133224
 40
0.0495252596121531
 40
0.0517693637480401
 40
0.0529290089580467
 40
0.0541028921975397
 40
0.0552897103004675
 40
0.0564836646286288
 40
0.0564836646286288
 40
0.0564836646286288
 40
0.0564836646286288
 10
28.2834726318446
 20
20.61399493927247
 30
0.0
 10
28.28325495638468
 20
20.61305918920555
 30
0.0
 10
28.28264687112406
 20
20.61038701314864
 30
0.0
 10
28.28187746639099
 20
20.60679997494275
 30
0.0
 10
28.28114858069751
 20
20.60319560153954
 30
0.0
 10
28.28040493255166
 20
20.59935382956821
 30
0.0
 10
28.27949935716804
 20
20.59431851682857
 30
0.0
 10
28.27849504807529
 20
20.58800623564362
 30
0.0
 10
28.27775668448873
 20
20.58251722094278
 30
0.0
 10
28.277225464085
 20
20.57797908819869
 30
0.0
 10
28.27686034229551
 20
20.5745033723749
 30
0.0
 10
28.2765281242948
 20
20.57090535842166
 30
0.0
 10
28.27628753290115
 20
20.56775921035086
 30
0.0
 10
28.27611985340177
 20
20.56503180424728
 30
0.0
 10
28.27602729391625
 20
20.56319566815021
 30
0.0
 10
28.27596531818671
 20
20.56167103862781
 30
0.0
 10
28.27592651135854
 20
20.56049821915474
 30
0.0
 10
28.27589662147177
 20
20.55931369972911
 30
0.0
 10
28.27588263756171
 20
20.55852022327815
 30
0.0
 10
28.2758771112446
 20
20.55812227687248
 30
0.0
 11
28.2834726318446
 21
20.61399493927247
 31
0.0
 11
28.2828326920446
 21
20.61118467697248
 31
0.0
 11
28.2817123092446
 21
20.60596439087247
 31
0.0
 11
28.2811605312446
 21
20.60323563097247
 31
0.0
 11
28.2806077977446
 21
20.60037987677247
 31
0.0
 11
28.2795392348446
 21
20.59442865767247
 31
0.0
 11
28.2785377011446
 21
20.58811539217248
 31
0.0
 11
28.2776375596446
 21
20.58144095007248
 31
0.0
 11
28.2772322838446
 21
20.57797805847247
 31
0.0
 11
28.2768685101446
 21
20.57451136207248
 31
0.0
 11
28.2765470089446
 21
20.57101411557248
 31
0.0
 11
28.2762558540446
 21
20.56718323457248
 31
0.0
 11
28.2761263248446
 21
20.56507570767248
 31
0.0
 11
28.2760138931446
 21
20.56283442177248
 31
0.0
 11
28.2759669604446
 21
20.56167572667248
 31
0.0
 11
28.2759281803446
 21
20.56050248417248
 31
0.0
 11
28.2758981812446
 21
20.55931604527247
 31
0.0
 11
28.2758771112446
 21
20.55812227687248
 31
0.0
  0
SPLINE
  5
861
330
1F
100
AcDbEntity
  8
0
  6
Continuous
 62
     7
100
AcDbSpline
210
0.0
220
0.0
230
1.0
 70
     8
 71
     3
 72
    10
 73
     6
 74
     4
 42
0.0000000001
 43
0.0000000001
 44
0.0000000001
 12
-0.1072992854150606
 22
0.994226766562547
 32
0.0
 13
-0.378525531288111
 23
-0.925590850302148
 33
0.0
 40
0.0
 40
0.0
 40
0.0
 40
0.0
 40
0.0006711630454729
 40
0.0015714824684388
 40
0.0027702664648341
 40
0.0027702664648341
 40
0.0027702664648341
 40
0.0027702664648341
 10
28.2896772008446
 20
20.63230033187247
 30
0.0
 10
28.28965319573954
 20
20.63252276129399
 30
0.0
 10
28.28937363476768
 20
20.63330375932162
 30
0.0
 10
28.28869916624377
 20
20.63197151373968
 30
0.0
 10
28.28848472722765
 20
20.63148912163866
 30
0.0
 10
28.2883334704446
 20
20.63111926047247
 30
0.0
 11
28.2896772008446
 21
20.63230033187247
 31
0.0
 11
28.2893956052446
 21
20.63290956397247
 31
0.0
 11
28.2888263996446
 21
20.63221201107248
 31
0.0
 11
28.2883334704446
 21
20.63111926047247
 31
0.0
  0
SPLINE
  5
862
330
1F
100
AcDbEntity
  8
0
  6
Continuous
 62
     7
100
AcDbSpline
210
0.0
220
0.0
230
1.0
 70
     8
 71
     3
 72
    13
 73
     9
 74
     7
 42
0.0000000001
 43
0.0000000001
 44
0.0000000001
 12
-0.3785255164295732
 22
-0.9255908563786295
 32
0.0
 13
-0.2236174383371432
 23
-0.9746769933016445
 33
0.0
 40
0.0
 40
0.0
 40
0.0
 40
0.0
 40
0.000739554679485
 40
0.0034012998452965
 40
0.0065750197414085
 40
0.0101088405720069
 40
0.0138909775011621
 40
0.0178130584989774
 40
0.0178130584989774
 40
0.0178130584989774
 40
0.0178130584989774
 10
28.2883334704446
 20
20.63111926047247
 30
0.0
 10
28.28824015700561
 20
20.6308910854561
 30
0.0
 10
28.28783953008412
 20
20.62983021377285
 30
0.0
 10
28.2871334407465
 20
20.62775477876606
 30
0.0
 10
28.28623060362004
 20
20.62476460806068
 30
0.0
 10
28.28529530735117
 20
20.62139519120713
 30
0.0
 10
28.28436816583608
 20
20.61776556966025
 30
0.0
 10
28.28376432191316
 20
20.61526934651062
 30
0.0
 10
28.2834719733446
 20
20.61399509247248
 30
0.0
 11
28.2883334704446
 21
20.63111926047247
 31
0.0
 11
28.2880676098446
 21
20.63042914507247
 31
0.0
 11
28.2872018111446
 21
20.62791214687248
 31
0.0
 11
28.2862761122446
 21
20.62487642957247
 31
0.0
 11
28.2853288217446
 21
20.62147194277248
 31
0.0
 11
28.2843873645446
 21
20.61780885417247
 31
0.0
 11
28.2834719733446
 21
20.61399509247248
 31
0.0
  0
SPLINE
  5
863
330
1F
100
AcDbEntity
  8
0
  6
Continuous
 62
     7
100
AcDbSpline
210
0.0
220
0.0
230
1.0
 70
     8
 71
     3
 72
    22
 73
    18
 74
    16
 42
0.0000000001
 43
0.0000000001
 44
0.0000000001
 12
-0.9995836459819301
 22
0.0288536771568445
 32
0.0
 13
0.5659660546561974
 23
-0.8244285444942443
 33
0.0
 40
0.0
 40
0.0
 40
0.0
 40
0.0
 40
0.0041874418482727
 40
0.0086852606575379
 40
0.0133083225366943
 40
0.0181333989585333
 40
0.0232079805207871
 40
0.028626113702001
 40
0.0343999863718887
 40
0.0403731579213411
 40
0.0463519728738353
 40
0.0523173012973897
 40
0.0583210082714963
 40
0.0643524204334624
 40
0.0702493822089614
 40
0.0761696891049874
 40
0.0818613862339775
 40
0.0818613862339775
 40
0.0818613862339775
 40
0.0818613862339775
 10
27.8879378268446
 20
20.88505033227248
 30
0.0
 10
27.88654259404792
 20
20.88509060663755
 30
0.0
 10
27.88364197075651
 20
20.88502010826419
 30
0.0
 10
27.87923697493962
 20
20.88442050813086
 30
0.0
 10
27.87472494357415
 20
20.88325661639379
 30
0.0
 10
27.87020795632086
 20
20.88148079253071
 30
0.0
 10
27.86572225241268
 20
20.87901064364226
 30
0.0
 10
27.86136097840833
 20
20.87575812974982
 30
0.0
 10
27.8573117800718
 20
20.87168392500969
 30
0.0
 10
27.85383484615129
 20
20.86687546146222
 30
0.0
 10
27.85114116137696
 20
20.86151599864041
 30
0.0
 10
27.84934159528278
 20
20.85578295834547
 30
0.0
 10
27.84849550263832
 20
20.84981535564312
 30
0.0
 10
27.84864459207403
 20
20.84381200019085
 30
0.0
 10
27.8497764831983
 20
20.83794355472766
 30
0.0
 10
27.85182019229033
 20
20.83244889969165
 30
0.0
 10
27.85375472352181
 20
20.82907346609906
 30
0.0
 10
27.8548284926446
 20
20.82750933357247
 30
0.0
 11
27.8879378268446
 21
20.88505033227248
 31
0.0
 11
27.8837516342446
 21
20.88494805447247
 31
0.0
 11
27.8792949734446
 21
20.88434097247247
 31
0.0
 11
27.8748185968446
 21
20.88318565707247
 31
0.0
 11
27.8703283289446
 21
20.88141962857247
 31
0.0
 11
27.8658835525446
 21
20.87897109007248
 31
0.0
 11
27.8615408586446
 21
20.87573115537248
 31
0.0
 11
27.8574715905446
 21
20.87163497877247
 31
0.0
 11
27.8539727058446
 21
20.86679384417248
 31
0.0
 11
27.8512889925446
 21
20.86145119397247
 31
0.0
 11
27.8495037978446
 21
20.85575925027248
 31
0.0
 11
27.8486624794446
 21
20.84981478387248
 31
0.0
 11
27.8488137538446
 21
20.84378526907247
 31
0.0
 11
27.8499318687446
 21
20.83799527967248
 31
0.0
 11
27.8519974175446
 21
20.83244698787247
 31
0.0
 11
27.8548284926446
 21
20.82750933357247
 31
0.0
  0
SPLINE
  5
864
330
1F
100
AcDbEntity
  8
0
  6
Continuous
 62
     7
100
AcDbSpline
210
0.0
220
0.0
230
1.0
 70
     8
 71
     3
 72
    14
 73
    10
 74
     8
 42
0.0000000001
 43
0.0000000001
 44
0.0000000001
 12
-0.9779766568065031
 22
-0.2087142993222436
 32
0.0
 13
-0.2403489791094872
 23
-0.9706865447924098
 33
0.0
 40
0.0
 40
0.0
 40
0.0
 40
0.0
 40
0.00591820466169
 40
0.0117608384946866
 40
0.0176027133877845
 40
0.0234387866834251
 40
0.0292503725010983
 40
0.035060861227942
 40
0.0383384932957056
 40
0.0383384932957056
 40
0.0383384932957056
 40
0.0383384932957056
 10
27.8782977913446
 20
20.87987047197247
 30
0.0
 10
27.87636850267482
 20
20.87945873399274
 30
0.0
 10
27.87259645679582
 20
20.87831054865632
 30
0.0
 10
27.86732991687914
 20
20.87566367597295
 30
0.0
 10
27.86260590552352
 20
20.87218157584105
 30
0.0
 10
27.85854696937168
 20
20.86795749336745
 30
0.0
 10
27.85526835788904
 20
20.86311611719557
 30
0.0
 10
27.85321112996423
 20
20.85856736809954
 30
0.0
 10
27.85234101218506
 20
20.8556607607548
 30
0.0
 10
27.8520784203446
 20
20.85460024297248
 30
0.0
 11
27.8782977913446
 21
20.87987047197247
 31
0.0
 11
27.8726363683446
 21
20.87814610657247
 31
0.0
 11
27.8674160574446
 21
20.87552223077247
 31
0.0
 11
27.8627140722446
 21
20.87205541127247
 31
0.0
 11
27.8586707676446
 21
20.86784691517248
 31
0.0
 11
27.8554126608446
 21
20.86303450727247
 31
0.0
 11
27.8530186650446
 21
20.85774011747247
 31
0.0
 11
27.8520784203446
 21
20.85460024297248
 31
0.0
  0
SPLINE
  5
865
330
1F
100
AcDbEntity
  8
0
  6
Continuous
 62
     7
100
AcDbSpline
210
0.0
220
0.0
230
1.0
 70
     8
 71
     3
 72
    10
 73
     6
 74
     4
 42
0.0000000001
 43
0.0000000001
 44
0.0000000001
 12
-0.2237518610142332
 22
-0.9746461433221123
 32
0.0
 13
0.1713224790891599
 23
-0.9852150060564163
 33
0.0
 40
0.0
 40
0.0
 40
0.0
 40
0.0
 40
0.0019250262783388
 40
0.0076822941500047
 40
0.013425073262805
 40
0.013425073262805
 40
0.013425073262805
 40
0.013425073262805
 10
27.8519438806446
 20
20.85403630657248
 30
0.0
 10
27.85180030457384
 20
20.85341090009315
 30
0.0
 10
27.85129798163968
 20
20.8508988046341
 30
0.0
 10
27.85092098967962
 20
20.84641648377532
 30
0.0
 10
27.85125532562644
 20
20.84257631145861
 30
0.0
 10
27.8515832813446
 20
20.84069035407247
 30
0.0
 11
27.8519438806446
 21
20.85403630657248
 31
0.0
 11
27.8515665561446
 21
20.85214862217247
 31
0.0
 11
27.8510853148446
 21
20.84641150267247
 31
0.0
 11
27.8515832813446
 21
20.84069035407247
 31
0.0
  0
SPLINE
  5
866
330
1F
100
AcDbEntity
  8
0
  6
Continuous
 62
     7
100
AcDbSpline
210
0.0
220
0.0
230
1.0
 70
     8
 71
     3
 72
    20
 73
    16
 74
    14
 42
0.0000000001
 43
0.0000000001
 44
0.0000000001
 12
0.973137267181057
 22
0.2302256702094359
 32
0.0
 13
-0.506175128431952
 23
0.8624307156849743
 33
0.0
 40
0.0
 40
0.0
 40
0.0
 40
0.0
 40
0.006341436703519
 40
0.0127627774532335
 40
0.0192224991027028
 40
0.0257459071041635
 40
0.0321773849139131
 40
0.0383941435102906
 40
0.0440510426709852
 40
0.0490470194849583
 40
0.0535813833028329
 40
0.057859778274234
 40
0.0621008886357831
 40
0.0663860930584291
 40
0.0681754374595547
 40
0.0681754374595547
 40
0.0681754374595547
 40
0.0681754374595547
 10
27.8947337604446
 20
20.81244514177248
 30
0.0
 10
27.89679078990582
 20
20.81293179561086
 30
0.0
 10
27.90085042401552
 20
20.81429401892665
 30
0.0
 10
27.90648396928733
 20
20.81741763118284
 30
0.0
 10
27.91150718606743
 20
20.82154954226855
 30
0.0
 10
27.91570223491549
 20
20.82652412711683
 30
0.0
 10
27.91889969548394
 20
20.83209608521558
 30
0.0
 10
27.92098630290308
 20
20.83786144559904
 30
0.0
 10
27.92202851780612
 20
20.84340969651147
 30
0.0
 10
27.92224141080595
 20
20.84848281691023
 30
0.0
 10
27.92184634414068
 20
20.85307999184687
 30
0.0
 10
27.92096703541864
 20
20.85735108139053
 30
0.0
 10
27.91963890721915
 20
20.86141655299748
 30
0.0
 10
27.91820851752996
 20
20.86455224245796
 30
0.0
 10
27.91722429225528
 20
20.86632250168165
 30
0.0
 10
27.9169223850446
 20
20.86683689687248
 30
0.0
 11
27.8947337604446
 21
20.81244514177248
 31
0.0
 11
27.9007461935446
 21
20.81446119427248
 31
0.0
 11
27.9063632389446
 21
20.81757285267248
 31
0.0
 11
27.9113531650446
 21
20.82167512537247
 31
0.0
 11
27.9155601682446
 21
20.82666070217248
 31
0.0
 11
27.9187628643446
 21
20.83223803527248
 31
0.0
 11
27.9208801816446
 21
20.83808312337247
 31
0.0
 11
27.9219258742446
 21
20.84364253297247
 31
0.0
 11
27.9221362402446
 21
20.84863407887247
 31
0.0
 11
27.9217486156446
 21
20.85315184407247
 31
0.0
 11
27.9208863983446
 21
20.85734245797247
 31
0.0
 11
27.9195697714446
 21
20.86137402227247
 31
0.0
 11
27.9177918134446
 21
20.86527297627247
 31
0.0
 11
27.9169223850446
 21
20.86683689687248
 31
0.0
  0
SPLINE
  5
867
330
1F
100
AcDbEntity
  8
0
  6
Continuous
 62
     7
100
AcDbSpline
210
0.0
220
0.0
230
1.0
 70
     8
 71
     3
 72
    10
 73
     6
 74
     4
 42
0.0000000001
 43
0.0000000001
 44
0.0000000001
 12
-0.2271392175952745
 22
0.9738622981870726
 32
0.0
 13
0.1866878752359815
 23
0.9824192777220297
 33
0.0
 40
0.0
 40
0.0
 40
0.0
 40
0.0
 40
0.004693599226823
 40
0.0094301779323071
 40
0.0142042158776249
 40
0.0142042158776249
 40
0.0142042158776249
 40
0.0142042158776249
 10
27.8515832813446
 20
20.84069035407247
 30
0.0
 10
27.8512279145259
 20
20.84221399384908
 30
0.0
 10
27.85072780370465
 20
20.845329690221
 30
0.0
 10
27.85063287299524
 20
20.85007727115888
 30
0.0
 10
27.8510102305445
 20
20.85323720950245
 30
0.0
 10
27.8513073155446
 20
20.85480057847247
 30
0.0
 11
27.8515832813446
 21
20.84069035407247
 31
0.0
 11
27.8508383608446
 21
20.84532446317247
 31
0.0
 11
27.8507424866446
 21
20.85006007147248
 31
0.0
 11
27.8513073155446
 21
20.85480057847247
 31
0.0
  0
SPLINE
  5
868
330
1F
100
AcDbEntity
  8
0
  6
Continuous
 62
     7
100
AcDbSpline
210
0.0
220
0.0
230
1.0
 70
     8
 71
     3
 72
    11
 73
     7
 74
     5
 42
0.0000000001
 43
0.0000000001
 44
0.0000000001
 12
-0.6490665294853394
 22
0.7607316480217299
 32
0.0
 13
-0.877301111539559
 23
0.4799403709748268
 33
0.0
 40
0.0
 40
0.0
 40
0.0
 40
0.0
 40
0.0035472227487445
 40
0.0070972195505686
 40
0.0106470521748656
 40
0.0141963544880814
 40
0.0141963544880814
 40
0.0141963544880814
 40
0.0141963544880814
 10
27.9130058247446
 20
20.87233831427248
 30
0.0
 10
27.91223836355832
 20
20.87323780914166
 30
0.0
 10
27.91061928487167
 20
20.87496806024036
 30
0.0
 10
27.90796445895835
 20
20.87733049870897
 30
0.0
 10
27.9051055005775
 20
20.87944243045344
 30
0.0
 10
27.90307949846612
 20
20.88067248254951
 30
0.0
 10
27.9020415628446
 20
20.88124030037247
 30
0.0
 11
27.9130058247446
 21
20.87233831427248
 31
0.0
 11
27.9105822966446
 21
20.87492854607248
 31
0.0
 11
27.9079304788446
 21
20.87728870277247
 31
0.0
 11
27.9050753270446
 21
20.87939806757248
 31
0.0
 11
27.9020415628446
 21
20.88124030037247
 31
0.0
  0
SPLINE
  5
869
330
1F
100
AcDbEntity
  8
0
  6
Continuous
 62
     7
100
AcDbSpline
210
0.0
220
0.0
230
1.0
 70
     8
 71
     3
 72
    12
 73
     8
 74
     6
 42
0.0000000001
 43
0.0000000001
 44
0.0000000001
 12
0.1738860278249992
 22
-0.9847657839949778
 32
0.0
 13
0.7426757232618856
 23
-0.6696512301768998
 33
0.0
 40
0.0
 40
0.0
 40
0.0
 40
0.0
 40
0.0043023581043293
 40
0.0153005019446387
 40
0.0262342210905293
 40
0.0370872147822415
 40
0.0447770518684513
 40
0.0447770518684513
 40
0.0447770518684513
 40
0.0447770518684513
 10
27.8374149863446
 20
20.26284101697247
 30
0.0
 10
27.83766435966495
 20
20.2614287452886
 30
0.0
 10
27.83870527991903
 20
20.25643332379449
 30
0.0
 10
27.84142841161535
 20
20.24808058199135
 30
0.0
 10
27.84644520158297
 20
20.2383206906404
 30
0.0
 10
27.85231271007488
 20
20.23038322881462
 30
0.0
 10
27.85666047493801
 20
20.22596804562736
 30
0.0
 10
27.8585641600446
 20
20.22425154267248
 30
0.0
 11
27.8374149863446
 21
20.26284101697247
 31
0.0
 11
27.8382930264446
 21
20.25862920847247
 31
0.0
 11
27.8417065628446
 21
20.24817421267247
 31
0.0
 11
27.8467101551446
 21
20.23845257297248
 31
0.0
 11
27.8531673183446
 21
20.22972947057247
 31
0.0
 11
27.8585641600446
 21
20.22425154267248
 31
0.0
  0
SPLINE
  5
86A
330
1F
100
AcDbEntity
  8
0
  6
Continuous
 62
     7
100
AcDbSpline
210
0.0
220
0.0
230
1.0
 70
     8
 71
     3
 72
     9
 73
     5
 74
     3
 42
0.0000000001
 43
0.0000000001
 44
0.0000000001
 12
0.3441204491355784
 22
-0.9389255116816922
 32
0.0
 13
0.5673366461287844
 23
-0.8234859622114651
 33
0.0
 40
0.0
 40
0.0
 40
0.0
 40
0.0
 40
0.0036887052130411
 40
0.0101341009042589
 40
0.0101341009042589
 40
0.0101341009042589
 40
0.0101341009042589
 10
27.9123895763446
 20
20.26283826207248
 30
0.0
 10
27.91281269597615
 20
20.26168378892927
 30
0.0
 10
27.91413021612434
 20
20.25856813228138
 30
0.0
 10
27.91584247728646
 20
20.25563572183001
 30
0.0
 10
27.9170613803446
 20
20.25386649087248
 30
0.0
 11
27.9123895763446
 21
20.26283826207248
 31
0.0
 11
27.9138241212446
 21
20.25943993497248
 31
0.0
 11
27.9170613803446
 21
20.25386649087248
 31
0.0
  0
SPLINE
  5
86B
330
1F
100
AcDbEntity
  8
0
  6
Continuous
 62
     7
100
AcDbSpline
210
0.0
220
0.0
230
1.0
 70
     8
 71
     3
 72
     9
 73
     5
 74
     3
 42
0.0000000001
 43
0.0000000001
 44
0.0000000001
 12
0.0001039598647768
 22
0.9999999945961732
 32
0.0
 13
0.1315608706117695
 23
0.9913080940473923
 33
0.0
 40
0.0
 40
0.0
 40
0.0
 40
0.0
 40
0.0004126827221293
 40
0.0084768432308877
 40
0.0084768432308877
 40
0.0084768432308877
 40
0.0084768432308877
 10
27.8659178093446
 20
20.25438879787247
 30
0.0
 10
27.86591782364541
 20
20.25452635877911
 30
0.0
 10
27.86592770820631
 20
20.25735186181449
 30
0.0
 10
27.8661342388855
 20
20.2601808764778
 30
0.0
 10
27.8664878815446
 20
20.26284556567247
 30
0.0
 11
27.8659178093446
 21
20.25438879787247
 31
0.0
 11
27.8659192521446
 21
20.25480147807247
 31
0.0
 11
27.8664878815446
 21
20.26284556567247
 31
0.0
  0
SPLINE
  5
86C
330
1F
100
AcDbEntity
  8
0
  6
Continuous
 62
     7
100
AcDbSpline
210
0.0
220
0.0
230
1.0
 70
     8
 71
     3
 72
    29
 73
    25
 74
    23
 42
0.0000000001
 43
0.0000000001
 44
0.0000000001
 12
-0.8410803217299999
 22
-0.5409102443091271
 32
0.0
 13
0.8410800921579618
 23
-0.5409106012785796
 33
0.0
 40
0.0
 40
0.0
 40
0.0
 40
0.0
 40
0.002618803807227
 40
0.0050596033401376
 40
0.0073140796157871
 40
0.0093919617518399
 40
0.0113014854514746
 40
0.0130500735819636
 40
0.0146479273160893
 40
0.0160995171570969
 40
0.0174097039947806
 40
0.018574789489427
 40
0.0196209587034563
 40
0.0206705705428566
 40
0.0218379647226245
 40
0.0231508903500193
 40
0.0246086246487338
 40
0.0262151121362184
 40
0.0279732025215483
 40
0.0298914930568173
 40
0.0319779077187045
 40
0.0342429731142167
 40
0.0366983712608819
 40
0.0393558583871394
 40
0.0393558583871394
 40
0.0393558583871394
 40
0.0393558583871394
 10
27.6975508545446
 20
20.47100375777247
 30
0.0
 10
27.69681664642836
 20
20.47053157850342
 30
0.0
 10
27.69540027690205
 20
20.46961597519025
 30
0.0
 10
27.69336138837007
 20
20.46827918281737
 30
0.0
 10
27.69148413722293
 20
20.46702483240741
 30
0.0
 10
27.68976803397334
 20
20.46584827737595
 30
0.0
 10
27.68820930259685
 20
20.46474077931296
 30
0.0
 10
27.68680583899518
 20
20.46369166763788
 30
0.0
 10
27.68556002631968
 20
20.46268798010972
 30
0.0
 10
27.68448097435671
 20
20.46171268125945
 30
0.0
 10
27.68359626581236
 20
20.46074400919938
 30
0.0
 10
27.68295451092223
 20
20.45974951450915
 30
0.0
 10
27.68267473074486
 20
20.45866728097021
 30
0.0
 10
27.68290552160967
 20
20.45757032713375
 30
0.0
 10
27.68352883094024
 20
20.45655815521327
 30
0.0
 10
27.68440616872142
 20
20.45557767937697
 30
0.0
 10
27.68548475253507
 20
20.4545928604319
 30
0.0
 10
27.68673422105794
 20
20.45358080181024
 30
0.0
 10
27.68814339367237
 20
20.45252431130864
 30
0.0
 10
27.68970853198951
 20
20.45141040153704
 30
0.0
 10
27.69143177052023
 20
20.4502278081392
 30
0.0
 10
27.69331804382863
 20
20.44896672695501
 30
0.0
 10
27.69537455444432
 20
20.44761798104167
 30
0.0
 10
27.69680580937225
 20
20.44669268829226
 30
0.0
 10
27.6975508625446
 20
20.44621353397248
 30
0.0
 11
27.6975508545446
 21
20.47100375777247
 31
0.0
 11
27.6953520392446
 21
20.46958131457247
 31
0.0
 11
27.6933114808446
 21
20.46824205217248
 31
0.0
 11
27.6914378047446
 21
20.46698825747247
 31
0.0
 11
27.6897251985446
 21
20.46581157817247
 31
0.0
 11
27.6881702764446
 21
20.46470320187248
 31
0.0
 11
27.6867723252446
 21
20.46365282437248
 31
0.0
 11
27.6855322136446
 21
20.46264522337247
 31
0.0
 11
27.6844629235446
 21
20.46166352497248
 31
0.0
 11
27.6835934330446
 21
20.46068343527247
 31
0.0
 11
27.6829920427446
 21
20.45968556057248
 31
0.0
 11
27.6827567675446
 21
20.45866619037248
 31
0.0
 11
27.6829497920446
 21
20.45763447987248
 31
0.0
 11
27.6835285212446
 21
20.45662063487247
 31
0.0
 11
27.6843886077446
 21
20.45562865457247
 31
0.0
 11
27.6854568975446
 21
20.45463681477248
 31
0.0
 11
27.6867008025446
 21
20.45362020157247
 31
0.0
 11
27.6881047386446
 21
20.45256197417248
 31
0.0
 11
27.6896658616446
 21
20.45144719457248
 31
0.0
 11
27.6913849335446
 21
20.45026485877247
 31
0.0
 11
27.6932670658446
 21
20.44900466067247
 31
0.0
 11
27.6953196321446
 21
20.44765708817248
 31
0.0
 11
27.6975508625446
 21
20.44621353397248
 31
0.0
  0
SPLINE
  5
86D
330
1F
100
AcDbEntity
  8
0
  6
Continuous
 62
     7
100
AcDbSpline
210
0.0
220
0.0
230
1.0
 70
     8
 71
     3
 72
    31
 73
    27
 74
    25
 42
0.0000000001
 43
0.0000000001
 44
0.0000000001
 12
-0.8772954357880408
 22
-0.4799507457494689
 32
0.0
 13
0.8827722441758979
 23
-0.4698011972235163
 33
0.0
 40
0.0
 40
0.0
 40
0.0
 40
0.0
 40
0.0016099413479252
 40
0.0038103648838335
 40
0.005840539088846
 40
0.0077096667891663
 40
0.0094260408612815
 40
0.0110003768696831
 40
0.0124404976738883
 40
0.0137493823638919
 40
0.0149340438814159
 40
0.0159907395851064
 40
0.0169406331539567
 40
0.0178934307406049
 40
0.0189507848864082
 40
0.0201382281277011
 40
0.0214543487816665
 40
0.0229041254008789
 40
0.0244914453833942
 40
0.0262215889688162
 40
0.0281049350002655
 40
0.0301494093731632
 40
0.0323659178133141
 40
0.0347674093856016
 40
0.0373643485742954
 40
0.0401728148009922
 40
0.0401728148009922
 40
0.0401728148009922
 40
0.0401728148009922
 10
27.6925198411446
 20
20.44950183627248
 30
0.0
 10
27.69204904307913
 20
20.44924427208896
 30
0.0
 10
27.69093611516282
 20
20.44863221655103
 30
0.0
 10
27.68923631868724
 20
20.44768300458795
 30
0.0
 10
27.68747135201649
 20
20.44667347347147
 30
0.0
 10
27.68585937209459
 20
20.44572173987936
 30
0.0
 10
27.68439496367582
 20
20.44481941530459
 30
0.0
 10
27.68307465806817
 20
20.4439566416163
 30
0.0
 10
27.68189949572236
 20
20.44312162246142
 30
0.0
 10
27.68087666875524
 20
20.44229925147889
 30
0.0
 10
27.68002946643681
 20
20.44146886126946
 30
0.0
 10
27.67940007897003
 20
20.44060083426757
 30
0.0
 10
27.67909974194627
 20
20.43962769639162
 30
0.0
 10
27.67930683622998
 20
20.43862540049712
 30
0.0
 10
27.67990205605323
 20
20.43772547753553
 30
0.0
 10
27.68073391975457
 20
20.43687468674149
 30
0.0
 10
27.68175315492477
 20
20.43603679241596
 30
0.0
 10
27.68293140720818
 20
20.43518895329967
 30
0.0
 10
27.68425895737623
 20
20.43431499679611
 30
0.0
 10
27.68573318416527
 20
20.43340256425881
 30
0.0
 10
27.68735616216011
 20
20.43244171873579
 30
0.0
 10
27.68913329603842
 20
20.43142351014534
 30
0.0
 10
27.69107182493514
 20
20.43033985685589
 30
0.0
 10
27.69318038615728
 20
20.42918314200882
 30
0.0
 10
27.69546956158845
 20
20.42794552380474
 30
0.0
 10
27.69705862113339
 20
20.42709617020436
 30
0.0
 10
27.6978850331446
 20
20.42665636327248
 30
0.0
 11
27.6925198411446
 21
20.44950183627248
 31
0.0
 11
27.6911092934446
 21
20.44872577807247
 31
0.0
 11
27.6891886957446
 21
20.44765192137248
 31
0.0
 11
27.6874271859446
 21
20.44664261937247
 31
0.0
 11
27.6858186821446
 21
20.44569059317247
 31
0.0
 11
27.6843588807446
 21
20.44478786407248
 31
0.0
 11
27.6830431758446
 21
20.44392330957248
 31
0.0
 11
27.6818727252446
 21
20.44308426647248
 31
0.0
 11
27.6808590618446
 21
20.44225621717248
 31
0.0
 11
27.6800248581446
 21
20.44141507087247
 31
0.0
 11
27.6794322896446
 21
20.44054016037248
 31
0.0
 11
27.6791813417446
 21
20.43962401467247
 31
0.0
 11
27.6793519915446
 21
20.43868662367247
 31
0.0
 11
27.6799014790446
 21
20.43778326257247
 31
0.0
 11
27.6807174929446
 21
20.43692062547247
 31
0.0
 11
27.6817267413446
 21
20.43607588217247
 31
0.0
 11
27.6828995851446
 21
20.43522365587247
 31
0.0
 11
27.6842229727446
 21
20.43434716857247
 31
0.0
 11
27.6856925633446
 21
20.43343409667248
 31
0.0
 11
27.6873120948446
 21
20.43247279027248
 31
0.0
 11
27.6890852361446
 21
20.43145502537248
 31
0.0
 11
27.6910193710446
 21
20.43037242117247
 31
0.0
 11
27.6931243921446
 21
20.42921654577248
 31
0.0
 11
27.6954084739446
 21
20.42798080167248
 31
0.0
 11
27.6978850331446
 21
20.42665636327248
 31
0.0
  0
SPLINE
  5
86E
330
1F
100
AcDbEntity
  8
0
  6
Continuous
 62
     7
100
AcDbSpline
210
0.0
220
0.0
230
1.0
 70
     8
 71
     3
 72
    14
 73
    10
 74
     8
 42
0.0000000001
 43
0.0000000001
 44
0.0000000001
 12
0.9158675052691858
 22
-0.4014806505823136
 32
0.0
 13
0.5380811473398158
 23
0.8428930411846259
 33
0.0
 40
0.0
 40
0.0
 40
0.0
 40
0.0
 40
0.0012035341486407
 40
0.0030146689523325
 40
0.0048250072916021
 40
0.0066349020297207
 40
0.0084471503466875
 40
0.0102649771609825
 40
0.0118852295529843
 40
0.0118852295529843
 40
0.0118852295529843
 40
0.0118852295529843
 10
27.7011024557446
 20
20.42497738997248
 30
0.0
 10
27.70146988168401
 20
20.42481632474814
 30
0.0
 10
27.70242016524243
 20
20.42447840794681
 30
0.0
 10
27.70402122464465
 20
20.42422041364748
 30
0.0
 10
27.70584284997894
 20
20.42432805174482
 30
0.0
 10
27.70759830848256
 20
20.42482796115624
 30
0.0
 10
27.70920665491604
 20
20.42569589864689
 30
0.0
 10
27.7105435553379
 20
20.42684571836138
 30
0.0
 10
27.71125062645591
 20
20.42775727911708
 30
0.0
 10
27.7115412355446
 20
20.42821251227247
 30
0.0
 11
27.7011024557446
 21
20.42497738997248
 31
0.0
 11
27.7022366160446
 21
20.42457468057248
 31
0.0
 11
27.7040247175446
 21
20.42428675297248
 31
0.0
 11
27.7058319103446
 21
20.42439342577247
 31
0.0
 11
27.7075726892446
 21
20.42488881227248
 31
0.0
 11
27.7091678919446
 21
20.42574879617248
 31
0.0
 11
27.7105467938446
 21
20.42693333147248
 31
0.0
 11
27.7115412355446
 21
20.42821251227247
 31
0.0
  0
SPLINE
  5
86F
330
1F
100
AcDbEntity
  8
0
  6
Continuous
 62
     7
100
AcDbSpline
210
0.0
220
0.0
230
1.0
 70
     8
 71
     3
 72
    14
 73
    10
 74
     8
 42
0.0000000001
 43
0.0000000001
 44
0.0000000001
 12
0.8819393031399572
 22
-0.471362987067299
 32
0.0
 13
0.5524039921368728
 23
0.8335765288629747
 33
0.0
 40
0.0
 40
0.0
 40
0.0
 40
0.0
 40
0.0012670052747479
 40
0.0031756684087922
 40
0.0050836520211228
 40
0.0069911791428352
 40
0.0089010088961073
 40
0.01081606374464
 40
0.0123830253658013
 40
0.0123830253658013
 40
0.0123830253658013
 40
0.0123830253658013
 10
27.7005171649446
 20
20.44434615387247
 30
0.0
 10
27.70088963886096
 20
20.44414708074216
 30
0.0
 10
27.70186187088598
 20
20.44371768348058
 30
0.0
 10
27.70352910998883
 20
20.44333682363666
 30
0.0
 10
27.70545394766845
 20
20.44334830181284
 30
0.0
 10
27.70732581711867
 20
20.44379915128361
 30
0.0
 10
27.70904794491174
 20
20.44466489189269
 30
0.0
 10
27.71044221801818
 20
20.44582328730909
 30
0.0
 10
27.71117088879292
 20
20.44673579212947
 30
0.0
 10
27.7114594207446
 20
20.44717118627247
 30
0.0
 11
27.7005171649446
 21
20.44434615387247
 31
0.0
 11
27.7016764523446
 21
20.44383492487248
 31
0.0
 11
27.7035372588446
 21
20.44341019657247
 31
0.0
 11
27.7054452088446
 21
20.44342152187248
 31
0.0
 11
27.7072997807446
 21
20.44386786567248
 31
0.0
 11
27.7090064854446
 21
20.44472495887247
 31
0.0
 11
27.7104802824446
 21
20.44594780697248
 31
0.0
 11
27.7114594207446
 21
20.44717118627247
 31
0.0
  0
SPLINE
  5
870
330
1F
100
AcDbEntity
  8
0
  6
Continuous
 62
     7
100
AcDbSpline
210
0.0
220
0.0
230
1.0
 70
     8
 71
     3
 72
    14
 73
    10
 74
     8
 42
0.0000000001
 43
0.0000000001
 44
0.0000000001
 12
-0.5524041284273155
 22
0.8335764385444552
 32
0.0
 13
-0.8819377486263997
 23
-0.4713658956137975
 33
0.0
 40
0.0
 40
0.0
 40
0.0
 40
0.0
 40
0.0015740649264723
 40
0.0034978888962451
 40
0.0054135601026515
 40
0.0073209764155691
 40
0.0092229278269481
 40
0.0111228429821895
 40
0.0123830405704009
 40
0.0123830405704009
 40
0.0123830405704009
 40
0.0123830405704009
 10
27.7114594285446
 20
20.47004609807247
 30
0.0
 10
27.71116958855667
 20
20.47048346588429
 30
0.0
 10
27.71043718896736
 20
20.47139988812658
 30
0.0
 10
27.70903561146622
 20
20.4725611473321
 30
0.0
 10
27.70730707536785
 20
20.47342522934578
 30
0.0
 10
27.70543412857257
 20
20.47387114451919
 30
0.0
 10
27.70351438733335
 20
20.47387826257908
 30
0.0
 10
27.70185488366601
 20
20.47349680954267
 30
0.0
 10
27.70088762908586
 20
20.47306914459408
 30
0.0
 10
27.7005171571446
 20
20.47287113987247
 30
0.0
 11
27.7114594285446
 21
20.47004609807247
 31
0.0
 11
27.7104753473446
 21
20.47127461937248
 31
0.0
 11
27.7089931348446
 21
20.47250105517247
 31
0.0
 11
27.7072792764446
 21
20.47335690887248
 31
0.0
 11
27.7054236504446
 21
20.47379837137247
 31
0.0
 11
27.7035217119446
 21
20.47380537947248
 31
0.0
 11
27.7016700073446
 21
20.47338009407248
 31
0.0
 11
27.7005171571446
 21
20.47287113987247
 31
0.0
  0
LINE
  5
871
330
1F
100
AcDbEntity
  8
0
  6
Continuous
 62
     7
100
AcDbLine
 10
27.9802207107446
 20
19.32067570597247
 30
0.0
 11
27.9796489403446
 21
19.30451547537247
 31
0.0
  0
LINE
  5
872
330
1F
100
AcDbEntity
  8
0
  6
Continuous
 62
     7
100
AcDbLine
 10
28.0527074198446
 20
19.30451547537247
 30
0.0
 11
28.0521356494446
 21
19.32067570597247
 31
0.0
  0
SPLINE
  5
873
330
1F
100
AcDbEntity
  8
0
  6
Continuous
 62
     7
100
AcDbSpline
210
0.0
220
0.0
230
1.0
 70
     8
 71
     3
 72
    15
 73
    11
 74
     9
 42
0.0000000001
 43
0.0000000001
 44
0.0000000001
 12
-0.0353520546465494
 22
-0.999374920754102
 32
0.0
 13
-1.0
 23
0.0
 33
0.0
 40
0.0
 40
0.0
 40
0.0
 40
0.0
 40
0.0022669297457604
 40
0.0045428497996107
 40
0.0068189526720818
 40
0.0090949331229928
 40
0.0113701360895964
 40
0.0136457444448881
 40
0.0159239963702276
 40
0.0181995051300599
 40
0.0181995051300599
 40
0.0181995051300599
 40
0.0181995051300599
 10
27.9796489403446
 20
19.30451547537247
 30
0.0
 10
27.97962222680318
 20
19.3037603044608
 30
0.0
 10
27.97942046584533
 20
19.30224810625769
 30
0.0
 10
27.97868486448545
 20
19.30008294028895
 30
0.0
 10
27.97754412396829
 20
19.29809684592001
 30
0.0
 10
27.97604457542824
 20
19.29636643617756
 30
0.0
 10
27.97424363209035
 20
19.2949529244202
 30
0.0
 10
27.97220691889426
 20
19.2939055030909
 30
0.0
 10
27.97000977028273
 20
19.29326158167182
 30
0.0
 10
27.96848792536454
 20
19.29311665057247
 30
0.0
 10
27.9677294224446
 20
19.29311665057247
 30
0.0
 11
27.9796489403446
 21
19.30451547537247
 31
0.0
 11
27.9793490742446
 21
19.30226846607247
 31
0.0
 11
27.9786175288446
 21
19.30011332027247
 31
0.0
 11
27.9774842716446
 21
19.29813939717247
 31
0.0
 11
27.9759941370446
 21
19.29641905247247
 31
0.0
 11
27.9742045672446
 21
19.29501406547247
 31
0.0
 11
27.9721810087446
 21
19.29397310227247
 31
0.0
 11
27.9699946690446
 21
19.29333251617247
 31
0.0
 11
27.9677294224446
 21
19.29311665057247
 31
0.0
  0
SPLINE
  5
874
330
1F
100
AcDbEntity
  8
0
  6
Continuous
 62
     7
100
AcDbSpline
210
0.0
220
0.0
230
1.0
 70
     8
 71
     3
 72
    11
 73
     7
 74
     5
 42
0.0000000001
 43
0.0000000001
 44
0.0000000001
 12
-0.6520699469455343
 22
0.7581588120509109
 32
0.0
 13
-0.035352059777956
 23
0.9993749205725826
 33
0.0
 40
0.0
 40
0.0
 40
0.0
 40
0.0
 40
0.0019797854599301
 40
0.0039606972179682
 40
0.0059441380064301
 40
0.0079178045617398
 40
0.0079178045617398
 40
0.0079178045617398
 40
0.0079178045617398
 10
28.0555482588446
 20
19.29727538557247
 30
0.0
 10
28.05511793931133
 20
19.29777571616995
 30
0.0
 10
28.05433915378197
 20
19.29885078474219
 30
0.0
 10
28.05345771427657
 20
19.30063543937645
 30
0.0
 10
28.05288950814233
 20
19.30254106559155
 30
0.0
 10
28.05273067757062
 20
19.30385799775349
 30
0.0
 10
28.0527074198446
 20
19.30451547537247
 30
0.0
 11
28.0555482588446
 21
19.29727538557247
 31
0.0
 11
28.0543872142446
 21
19.29887898337247
 31
0.0
 11
28.0535101517446
 21
19.30065515137247
 31
0.0
 11
28.0529438004446
 21
19.30255601527247
 31
0.0
 11
28.0527074198446
 21
19.30451547537247
 31
0.0
  0
LINE
  5
875
330
1F
100
AcDbEntity
  8
0
  6
Continuous
 62
     7
100
AcDbLine
 10
28.2800325981446
 20
20.76910189407247
 30
0.0
 11
28.2796889434446
 21
20.77239345617247
 31
0.0
  0
SPLINE
  5
876
330
1F
100
AcDbEntity
  8
0
  6
Continuous
 62
     7
100
AcDbSpline
210
0.0
220
0.0
230
1.0
 70
     8
 71
     3
 72
    16
 73
    12
 74
    10
 42
0.0000000001
 43
0.0000000001
 44
0.0000000001
 12
-0.1043017952182428
 22
0.9945456930248363
 32
0.0
 13
-0.1224785381045937
 23
0.9924711621522117
 33
0.0
 40
0.0
 40
0.0
 40
0.0
 40
0.0
 40
0.0040185442582735
 40
0.0093502515710517
 40
0.0156664756180929
 40
0.0225241627145569
 40
0.02939383729761
 40
0.0357387869325101
 40
0.0411004704947072
 40
0.0451345798288339
 40
0.0477131400842466
 40
0.0477131400842466
 40
0.0477131400842466
 40
0.0477131400842466
 10
28.2796889434446
 20
20.77239345617247
 30
0.0
 10
28.27954922965117
 20
20.77372566480057
 30
0.0
 10
28.27922237761081
 20
20.7768252303195
 30
0.0
 10
28.27866750971995
 20
20.78201782940382
 30
0.0
 10
28.27800073954332
 20
20.78815023121812
 30
0.0
 10
28.27726355473991
 20
20.79479063918595
 30
0.0
 10
28.27650830638868
 20
20.80143865513541
 30
0.0
 10
28.27579289934813
 20
20.80758929894534
 30
0.0
 10
28.27517338377853
 20
20.81279951614968
 30
0.0
 10
28.27469345807964
 20
20.81676201188386
 30
0.0
 10
28.2744249024081
 20
20.81894981457468
 30
0.0
 10
28.2743196296446
 20
20.81980286347247
 30
0.0
 11
28.2796889434446
 21
20.77239345617247
 31
0.0
 11
28.2792674849446
 21
20.77638983837247
 31
0.0
 11
28.2787008824446
 21
20.78169135367247
 31
0.0
 11
28.2780179824446
 21
20.78797055217247
 31
0.0
 11
28.2772610929446
 21
20.79478634197247
 31
0.0
 11
28.2764854008446
 21
20.80161208227248
 31
0.0
 11
28.2757521238446
 21
20.80791451757248
 31
0.0
 11
28.2751189247446
 21
20.81323868037248
 31
0.0
 11
28.2746338091446
 21
20.81724351507248
 31
0.0
 11
28.2743196296446
 21
20.81980286347247
 31
0.0
  0
LINE
  5
877
330
1F
100
AcDbEntity
  8
0
  6
Continuous
 62
     7
100
AcDbLine
 10
28.2743196296446
 20
20.81980286347247
 30
0.0
 11
28.2742277251446
 21
20.82054643367248
 31
0.0
  0
LINE
  5
878
330
1F
100
AcDbEntity
  8
0
  6
Continuous
 62
     7
100
AcDbLine
 10
28.2699472518446
 20
20.39766439107248
 30
0.0
 11
28.2699864513446
 21
20.39789300187248
 31
0.0
  0
LINE
  5
879
330
1F
100
AcDbEntity
  8
0
  6
Continuous
 62
     7
100
AcDbLine
 10
28.2699864513446
 20
20.39789300187248
 30
0.0
 11
28.2703730105446
 21
20.40016180017248
 31
0.0
  0
LINE
  5
87A
330
1F
100
AcDbEntity
  8
0
  6
Continuous
 62
     7
100
AcDbLine
 10
28.2702561837446
 20
20.39947111657247
 30
0.0
 11
28.2700148283446
 21
20.39805650127247
 31
0.0
  0
LINE
  5
87B
330
1F
100
AcDbEntity
  8
0
  6
Continuous
 62
     7
100
AcDbLine
 10
28.2700148283446
 20
20.39805650127247
 30
0.0
 11
28.2699570626446
 21
20.39771943597248
 31
0.0
  0
LINE
  5
87C
330
1F
100
AcDbEntity
  8
0
  6
Continuous
 62
     7
100
AcDbLine
 10
28.2705775044446
 20
20.40139066617248
 30
0.0
 11
28.2703598686446
 21
20.40010167967247
 31
0.0
  0
LINE
  5
87D
330
1F
100
AcDbEntity
  8
0
  6
Continuous
 62
     7
100
AcDbLine
 10
28.2857950605446
 20
20.68805257317247
 30
0.0
 11
28.2857554378446
 21
20.68876992907247
 31
0.0
  0
LINE
  5
87E
330
1F
100
AcDbEntity
  8
0
  6
Continuous
 62
     7
100
AcDbLine
 10
28.2857554378446
 20
20.68876992907247
 30
0.0
 11
28.2856385315446
 21
20.69087438997248
 31
0.0
  0
LINE
  5
87F
330
1F
100
AcDbEntity
  8
0
  6
Continuous
 62
     7
100
AcDbLine
 10
28.2856385315446
 20
20.69087438997248
 30
0.0
 11
28.2826903421446
 21
20.73846619407247
 31
0.0
  0
LINE
  5
880
330
1F
100
AcDbEntity
  8
0
  6
Continuous
 62
     7
100
AcDbLine
 10
28.2826903421446
 20
20.73846619407247
 30
0.0
 11
28.2826514767446
 21
20.73902781247248
 31
0.0
  0
SPLINE
  5
881
330
1F
100
AcDbEntity
  8
0
  6
Continuous
 62
     7
100
AcDbSpline
210
0.0
220
0.0
230
1.0
 70
     8
 71
     3
 72
    13
 73
     9
 74
     7
 42
0.0000000001
 43
0.0000000001
 44
0.0000000001
 12
0.0
 22
1.0
 32
0.0
 13
0.9810313524694876
 23
0.1938491306967567
 33
0.0
 40
0.0
 40
0.0
 40
0.0
 40
0.0
 40
0.0039983568861038
 40
0.0081584053253454
 40
0.0126553833339535
 40
0.0176790257030663
 40
0.0233595050635541
 40
0.0291688976850795
 40
0.0291688976850795
 40
0.0291688976850795
 40
0.0291688976850795
 10
27.9601034080446
 20
19.23721131337248
 30
0.0
 10
27.9601034080446
 20
19.23854409900117
 30
0.0
 10
27.9604568776411
 20
19.24127580239476
 30
0.0
 10
27.96205647130954
 20
19.24522549499101
 30
0.0
 10
27.96478485845197
 20
19.24893661125298
 30
0.0
 10
27.96870455876394
 20
19.25221963166518
 30
0.0
 10
27.97364335266329
 20
19.25474389458541
 30
0.0
 10
27.97735038564443
 20
19.25579593056929
 30
0.0
 10
27.9792501177446
 20
19.25617131247247
 30
0.0
 11
27.9601034080446
 21
19.23721131337248
 31
0.0
 11
27.9606126535446
 21
19.24117710797247
 31
0.0
 11
27.9621598916446
 21
19.24503872127247
 31
0.0
 11
27.9648039196446
 21
19.24867629287247
 31
0.0
 11
27.9686323719446
 21
19.25192897417247
 31
0.0
 11
27.9736709601446
 21
19.25455204007247
 31
0.0
 11
27.9792501177446
 21
19.25617131247247
 31
0.0
  0
SPLINE
  5
882
330
1F
100
AcDbEntity
  8
0
  6
Continuous
 62
     7
100
AcDbSpline
210
0.0
220
0.0
230
1.0
 70
     8
 71
     3
 72
    14
 73
    10
 74
     8
 42
0.0000000001
 43
0.0000000001
 44
0.0000000001
 12
0.0
 22
1.0
 32
0.0
 13
1.0
 23
0.0
 33
0.0
 40
0.0
 40
0.0
 40
0.0
 40
0.0
 40
0.0039783599186266
 40
0.0079632488458111
 40
0.0119877287243289
 40
0.016143411168389
 40
0.0205788070235138
 40
0.0255321460428882
 40
0.0313227032582465
 40
0.0313227032582465
 40
0.0313227032582465
 40
0.0313227032582465
 10
27.8475287865446
 20
19.23721131337248
 30
0.0
 10
27.8475287865446
 20
19.23853743334535
 30
0.0
 10
27.84773944381198
 20
19.24119694803172
 30
0.0
 10
27.84871504800895
 20
19.24509222450334
 30
0.0
 10
27.8504401200383
 20
19.2487944589334
 30
0.0
 10
27.8530682867293
 20
19.25213445566759
 30
0.0
 10
27.85676424731678
 20
19.25483345896407
 30
0.0
 10
27.86158397812138
 20
19.25656522250249
 30
0.0
 10
27.86518611300615
 20
19.25689635267248
 30
0.0
 10
27.8671162987446
 20
19.25689635267248
 30
0.0
 11
27.8475287865446
 21
19.23721131337248
 31
0.0
 11
27.8478484469446
 21
19.24117681017247
 31
0.0
 11
27.8488316183446
 21
19.24503850847247
 31
0.0
 11
27.8505532257446
 21
19.24867615967247
 31
0.0
 11
27.8531397717446
 21
19.25192877037247
 31
0.0
 11
27.8567164556446
 21
19.25455175887247
 31
0.0
 11
27.8613586855446
 21
19.25627955197247
 31
0.0
 11
27.8671162987446
 21
19.25689635267248
 31
0.0
  0
SPLINE
  5
883
330
1F
100
AcDbEntity
  8
0
  6
Continuous
 62
     7
100
AcDbSpline
210
0.0
220
0.0
230
1.0
 70
     8
 71
     3
 72
    14
 73
    10
 74
     8
 42
0.0000000001
 43
0.0000000001
 44
0.0000000001
 12
0.0
 22
1.0
 32
0.0
 13
-1.0
 23
0.0
 33
0.0
 40
0.0
 40
0.0
 40
0.0
 40
0.0
 40
0.0039977590987841
 40
0.0081593162516369
 40
0.0126615513845045
 40
0.0176954751665171
 40
0.0233889279817858
 40
0.0297936942463642
 40
0.0369433825325056
 40
0.0369433825325056
 40
0.0369433825325056
 40
0.0369433825325056
 10
27.9247741887446
 20
19.23721131337248
 30
0.0
 10
27.9247741887446
 20
19.23854389973874
 30
0.0
 10
27.92442003920125
 20
19.24127594369251
 30
0.0
 10
27.92281696281895
 20
19.24522661033021
 30
0.0
 10
27.92008110422808
 20
19.24893956698738
 30
0.0
 10
27.91614998551612
 20
19.25222358622033
 30
0.0
 10
27.91102153371293
 20
19.25483594688671
 30
0.0
 10
27.90479296899892
 20
19.25653164680984
 30
0.0
 10
27.90026171847332
 20
19.25689635267248
 30
0.0
 10
27.8978784890446
 20
19.25689635267248
 30
0.0
 11
27.9247741887446
 21
19.23721131337248
 31
0.0
 11
27.9242641698446
 21
19.24117640587247
 31
0.0
 11
27.9227139297446
 21
19.24503844077247
 31
0.0
 11
27.9200631797446
 21
19.24867762277247
 31
0.0
 11
27.9162228467446
 21
19.25193219357247
 31
0.0
 11
27.9111694882446
 21
19.25455497317247
 31
0.0
 11
27.9050016328446
 21
19.25628083257247
 31
0.0
 11
27.8978784890446
 21
19.25689635267248
 31
0.0
  0
SPLINE
  5
884
330
1F
100
AcDbEntity
  8
0
  6
Continuous
 62
     7
100
AcDbSpline
210
0.0
220
0.0
230
1.0
 70
     8
 71
     3
 72
    14
 73
    10
 74
     8
 42
0.0000000001
 43
0.0000000001
 44
0.0000000001
 12
-0.0325201828070217
 22
0.9994710789763743
 32
0.0
 13
-0.8670680778936235
 23
0.4981896710067934
 33
0.0
 40
0.0
 40
0.0
 40
0.0
 40
0.0
 40
0.0026516161353834
 40
0.0065688438705691
 40
0.0103263767376976
 40
0.0138075070887629
 40
0.0168187104913081
 40
0.0191410935960897
 40
0.0197427066572295
 40
0.0197427066572295
 40
0.0197427066572295
 40
0.0197427066572295
 10
27.8212748178446
 20
19.23853419187247
 30
0.0
 10
27.82124607416412
 20
19.23941759641909
 30
0.0
 10
27.82110354361208
 20
19.24160416656171
 30
0.0
 10
27.82059691545501
 20
19.24501516038871
 30
0.0
 10
27.81966956656629
 20
19.24862305276058
 30
0.0
 10
27.81844121483672
 20
19.2518231131002
 30
0.0
 10
27.81701779718411
 20
19.25439955432383
 30
0.0
 10
27.81574129493419
 20
19.25595109120263
 30
0.0
 10
27.81494395727146
 20
19.25651959856814
 30
0.0
 10
27.8147700774446
 20
19.25661950437247
 30
0.0
 11
27.8212748178446
 21
19.23853419187247
 31
0.0
 11
27.8211017157446
 21
19.24118015177247
 31
0.0
 11
27.8205209724446
 21
19.24505409167247
 31
0.0
 11
27.8195749786446
 21
19.24869059397247
 31
0.0
 11
27.8183071730446
 21
19.25193265157247
 31
0.0
 11
27.8168154575446
 21
19.25454839827247
 31
0.0
 11
27.8152649305446
 21
19.25627736597247
 31
0.0
 11
27.8147700774446
 21
19.25661950437247
 31
0.0
  0
LINE
  5
885
330
1F
100
AcDbEntity
  8
0
  6
Continuous
 62
     7
100
AcDbLine
 10
27.8147700774446
 20
19.25661950437247
 30
0.0
 11
27.8138715283446
 21
19.25689627337247
 31
0.0
  0
SPLINE
  5
886
330
1F
100
AcDbEntity
  8
0
  6
Continuous
 62
     7
100
AcDbSpline
210
0.0
220
0.0
230
1.0
 70
     8
 71
     3
 72
    14
 73
    10
 74
     8
 42
0.0000000001
 43
0.0000000001
 44
0.0000000001
 12
0.0
 22
1.0
 32
0.0
 13
-1.0
 23
0.0
 33
0.0
 40
0.0
 40
0.0
 40
0.0
 40
0.0
 40
0.0039662796389432
 40
0.007867539821889
 40
0.0116205375310228
 40
0.015102302095567
 40
0.0180997830499754
 40
0.0203786677602211
 40
0.0218337226295777
 40
0.0218337226295777
 40
0.0218337226295777
 40
0.0218337226295777
 10
27.8299496174446
 20
19.23721131337248
 30
0.0
 10
27.8299496174446
 20
19.23853340658546
 30
0.0
 10
27.82982623375131
 20
19.2411577196078
 30
0.0
 10
27.82927595248261
 20
19.2449975097652
 30
0.0
 10
27.82837794503674
 20
19.24860792798071
 30
0.0
 10
27.82719407237298
 20
19.25180987291905
 30
0.0
 10
27.82579709258834
 20
19.25440583215938
 30
0.0
 10
27.82443260331104
 20
19.25615073453253
 30
0.0
 10
27.82328712223439
 20
19.25689635267248
 30
0.0
 10
27.8228021039446
 20
19.25689635267248
 30
0.0
 11
27.8299496174446
 21
19.23721131337248
 31
0.0
 11
27.8297618858446
 21
19.24117314767247
 31
0.0
 11
27.8292027459446
 21
19.24503413117247
 31
0.0
 11
27.8282878156446
 21
19.24867389687247
 31
0.0
 11
27.8270560787446
 21
19.25193050687247
 31
0.0
 11
27.8256089119446
 21
19.25455550217247
 31
0.0
 11
27.8241208631446
 21
19.25628148777247
 31
0.0
 11
27.8228021039446
 21
19.25689635267248
 31
0.0
  0
ELLIPSE
  5
887
330
1F
100
AcDbEntity
  8
0
  6
Continuous
 62
     7
100
AcDbEllipse
 10
27.9122183616446
 20
20.45847098127247
 30
0.0
 11
0.0
 21
0.0078740157
 31
0.0
210
0.0
220
0.0
230
1.0
 40
0.7971030561
 41
0.0
 42
1.5707963268
  0
ELLIPSE
  5
888
330
1F
100
AcDbEntity
  8
0
  6
Continuous
 62
     7
100
AcDbEllipse
 10
27.9122183616446
 20
20.64744735927248
 30
0.0
 11
0.0
 21
0.0078740157
 31
0.0
210
0.0
220
0.0
230
1.0
 40
0.7971030561
 41
0.0
 42
1.5707963268
  0
ELLIPSE
  5
889
330
1F
100
AcDbEntity
  8
0
  6
Continuous
 62
     7
100
AcDbEllipse
 10
27.9122183616446
 20
20.67106940647247
 30
0.0
 11
0.0
 21
0.0078740157
 31
0.0
210
0.0
220
0.0
230
1.0
 40
0.7971030561
 41
-4.7123889804
 42
-3.1415926536
  0
ELLIPSE
  5
88A
330
1F
100
AcDbEntity
  8
0
  6
Continuous
 62
     7
100
AcDbEllipse
 10
27.9122183616446
 20
20.48209302857247
 30
0.0
 11
0.0
 21
0.0078740157
 31
0.0
210
0.0
220
0.0
230
1.0
 40
0.7971030561
 41
-4.7123889804
 42
-3.1415926536
  0
ENDSEC
  0
SECTION
  2
OBJECTS
  0
DICTIONARY
  5
C
330
0
100
AcDbDictionary
281
     1
  3
ACAD_COLOR
350
C9
  3
ACAD_GROUP
350
D
  3
ACAD_LAYOUT
350
1A
  3
ACAD_MATERIAL
350
C8
  3
ACAD_MLEADERSTYLE
350
2EC
  3
ACAD_MLINESTYLE
350
17
  3
ACAD_PLOTSETTINGS
350
19
  3
ACAD_PLOTSTYLENAME
350
E
  3
ACAD_SCALELIST
350
2CA
  3
ACAD_TABLESTYLE
350
123
  3
ACAD_VISUALSTYLE
350
296
  3
ACDB_RECOMPOSE_DATA
350
30D
  3
AcDbVariableDictionary
350
9E
  3
AcmDictionary
350
63
  3
AMG
350
49
  3
AMGSNAPSETTINGS
350
60B
  0
DICTIONARY
  5
88B
330
10
100
AcDbDictionary
280
     1
281
     1
  3
ADSK_XREC_LAYER_RECONCILED
360
88C
  0
DICTIONARY
  5
88D
330
38C
100
AcDbDictionary
280
     1
281
     1
  3
ADSK_XREC_LAYER_RECONCILED
360
88E
  0
DICTIONARY
  5
88F
330
38D
100
AcDbDictionary
280
     1
281
     1
  3
ADSK_XREC_LAYER_RECONCILED
360
890
  0
DICTIONARY
  5
891
330
38E
100
AcDbDictionary
280
     1
281
     1
  3
ADSK_XREC_LAYER_RECONCILED
360
892
  0
DICTIONARY
  5
893
330
38F
100
AcDbDictionary
280
     1
281
     1
  3
ADSK_XREC_LAYER_RECONCILED
360
894
  0
DICTIONARY
  5
99
330
1F
100
AcDbDictionary
280
     1
281
     1
  0
DICTIONARY
  5
C9
102
{ACAD_REACTORS
330
C
102
}
330
C
100
AcDbDictionary
281
     1
  0
DICTIONARY
  5
D
102
{ACAD_REACTORS
330
C
102
}
330
C
100
AcDbDictionary
281
     1
  0
DICTIONARY
  5
1A
102
{ACAD_REACTORS
330
C
102
}
330
C
100
AcDbDictionary
281
     1
  3
Layout1
350
1E
  3
Layout2
350
26
  3
Model
350
22
  0
DICTIONARY
  5
C8
102
{ACAD_REACTORS
330
C
102
}
330
C
100
AcDbDictionary
281
     1
  3
ByBlock
350
294
  3
ByLayer
350
293
  3
Global
350
295
  0
DICTIONARY
  5
2EC
102
{ACAD_REACTORS
330
C
102
}
330
C
100
AcDbDictionary
281
     1
  3
Standard
350
2ED
  0
DICTIONARY
  5
17
102
{ACAD_REACTORS
330
C
102
}
330
C
100
AcDbDictionary
281
     1
  3
Standard
350
18
  0
DICTIONARY
  5
19
102
{ACAD_REACTORS
330
C
102
}
330
C
100
AcDbDictionary
281
     1
  0
ACDBDICTIONARYWDFLT
  5
E
102
{ACAD_REACTORS
330
C
102
}
330
C
100
AcDbDictionary
281
     1
  3
Normal
350
F
100
AcDbDictionaryWithDefault
340
F
  0
DICTIONARY
  5
2CA
102
{ACAD_REACTORS
330
C
102
}
330
C
100
AcDbDictionary
281
     1
  3
A0
350
2CB
  3
A1
350
2CC
  3
A2
350
2CD
  3
A3
350
2CE
  3
A4
350
2CF
  3
A5
350
2D0
  3
A6
350
2D1
  3
A7
350
2D2
  3
A8
350
2D3
  3
A9
350
2D4
  3
B0
350
2D5
  3
B1
350
2D6
  3
B2
350
2D7
  3
B3
350
2D8
  3
B4
350
2D9
  3
B5
350
2DA
  3
B6
350
2DB
  3
B7
350
2DC
  3
B8
350
2DD
  3
B9
350
2DE
  3
C0
350
2DF
  3
C1
350
2E0
  3
C2
350
2E1
  3
C3
350
2E2
  3
C4
350
2E3
  3
C5
350
2E4
  3
C6
350
2E5
  3
C7
350
2E6
  3
C8
350
2E7
  3
C9
350
2E8
  3
D0
350
2E9
  3
D1
350
2EA
  3
D2
350
2EB
  0
DICTIONARY
  5
123
102
{ACAD_REACTORS
330
C
102
}
330
C
100
AcDbDictionary
281
     1
  3
Standard
350
124
  0
DICTIONARY
  5
296
102
{ACAD_REACTORS
330
C
102
}
330
C
100
AcDbDictionary
281
     1
  3
2dWireframe
350
29C
  3
3D Hidden
350
29E
  3
3dWireframe
350
29D
  3
Basic
350
29B
  3
Brighten
350
2A2
  3
ColorChange
350
2A6
  3
Conceptual
350
29F
  3
Dim
350
2A1
  3
Facepattern
350
2A5
  3
Flat
350
297
  3
FlatWithEdges
350
298
  3
Gouraud
350
299
  3
GouraudWithEdges
350
29A
  3
Linepattern
350
2A4
  3
Realistic
350
2A0
  3
Thicken
350
2A3
  0
XRECORD
  5
30D
102
{ACAD_REACTORS
330
C
102
}
330
C
100
AcDbXrecord
280
     1
 90
        1
330
124
  0
DICTIONARY
  5
9E
102
{ACAD_REACTORS
330
C
102
}
330
C
100
AcDbDictionary
281
     1
  3
CANNOSCALE
350
310
  3
CMLEADERSTYLE
350
30E
  3
CTABLESTYLE
350
144
  3
DIMASSOC
350
A0
  3
INDEXCTL
350
9F
  3
LAYEREVAL
350
36B
  3
LAYERNOTIFY
350
36C
  3
LIGHTINGUNITS
350
311
  3
MSLTSCALE
350
30F
  0
DICTIONARY
  5
63
102
{ACAD_REACTORS
330
C
102
}
330
C
100
AcDbDictionary
281
     1
  3
AcmStdDictionary
350
69
  3
AMDTSECTSYM_ARROWCOLOR
350
12C
  0
DICTIONARY
  5
49
102
{ACAD_REACTORS
330
C
102
}
330
C
100
AcDbDictionary
281
     1
  0
DICTIONARY
  5
60B
102
{ACAD_REACTORS
330
C
102
}
330
C
100
AcDbDictionary
281
     1
  0
XRECORD
  5
88C
102
{ACAD_REACTORS
330
88B
102
}
330
88B
100
AcDbXrecord
280
     1
290
     1
  0
XRECORD
  5
88E
102
{ACAD_REACTORS
330
88D
102
}
330
88D
100
AcDbXrecord
280
     1
290
     1
  0
XRECORD
  5
890
102
{ACAD_REACTORS
330
88F
102
}
330
88F
100
AcDbXrecord
280
     1
290
     1
  0
XRECORD
  5
892
102
{ACAD_REACTORS
330
891
102
}
330
891
100
AcDbXrecord
280
     1
290
     1
  0
XRECORD
  5
894
102
{ACAD_REACTORS
330
893
102
}
330
893
100
AcDbXrecord
280
     1
290
     1
  0
LAYOUT
  5
1E
102
{ACAD_REACTORS
330
1A
102
}
330
1A
100
AcDbPlotSettings
  1

  2

  4

  6

 40
0.0
 41
0.0
 42
0.0
 43
0.0
 44
0.0
 45
0.0
 46
0.0
 47
0.0
 48
0.0
 49
0.0
140
0.0
141
0.0
142
1.0
143
1.0
 70
   688
 72
     0
 73
     0
 74
     5
  7

 75
    16
147
1.0
 76
     0
 77
     2
 78
   300
148
0.0
149
0.0
100
AcDbLayout
  1
Layout1
 70
     1
 71
     1
 10
0.0
 20
0.0
 11
12.0
 21
9.0
 12
0.0
 22
0.0
 32
0.0
 14
1.000000000000000E+20
 24
1.000000000000000E+20
 34
1.000000000000000E+20
 15
-1.000000000000000E+20
 25
-1.000000000000000E+20
 35
-1.000000000000000E+20
146
0.0
 13
0.0
 23
0.0
 33
0.0
 16
1.0
 26
0.0
 36
0.0
 17
0.0
 27
1.0
 37
0.0
 76
     0
330
1B
  0
LAYOUT
  5
26
102
{ACAD_REACTORS
330
1A
102
}
330
1A
100
AcDbPlotSettings
  1

  2

  4

  6

 40
0.0
 41
0.0
 42
0.0
 43
0.0
 44
0.0
 45
0.0
 46
0.0
 47
0.0
 48
0.0
 49
0.0
140
0.0
141
0.0
142
1.0
143
1.0
 70
   688
 72
     0
 73
     0
 74
     5
  7

 75
    16
147
1.0
 76
     0
 77
     2
 78
   300
148
0.0
149
0.0
100
AcDbLayout
  1
Layout2
 70
     1
 71
     2
 10
0.0
 20
0.0
 11
12.0
 21
9.0
 12
0.0
 22
0.0
 32
0.0
 14
0.0
 24
0.0
 34
0.0
 15
0.0
 25
0.0
 35
0.0
146
0.0
 13
0.0
 23
0.0
 33
0.0
 16
1.0
 26
0.0
 36
0.0
 17
0.0
 27
1.0
 37
0.0
 76
     0
330
23
  0
LAYOUT
  5
22
102
{ACAD_REACTORS
330
1A
102
}
330
1A
100
AcDbPlotSettings
  1

  2

  4

  6

 40
0.0
 41
0.0
 42
0.0
 43
0.0
 44
0.0
 45
0.0
 46
0.0
 47
0.0
 48
0.0
 49
0.0
140
0.0
141
0.0
142
1.0
143
1.0
 70
  1712
 72
     0
 73
     0
 74
     0
  7

 75
     0
147
1.0
 76
     0
 77
     2
 78
   300
148
0.0
149
0.0
100
AcDbLayout
  1
Model
 70
     1
 71
     0
 10
0.0
 20
0.0
 11
12.0
 21
9.0
 12
0.0
 22
0.0
 32
0.0
 14
0.0
 24
0.0
 34
0.0
 15
0.0
 25
0.0
 35
0.0
146
0.0
 13
0.0
 23
0.0
 33
0.0
 16
1.0
 26
0.0
 36
0.0
 17
0.0
 27
1.0
 37
0.0
 76
     0
330
1F
331
291
  0
MATERIAL
  5
294
102
{ACAD_REACTORS
330
C8
102
}
330
C8
100
AcDbMaterial
  1
ByBlock
 73
     1
 78
     1
172
     1
176
     1
270
     1
274
     1
 94
       63
  0
MATERIAL
  5
293
102
{ACAD_REACTORS
330
C8
102
}
330
C8
100
AcDbMaterial
  1
ByLayer
 73
     1
 78
     1
172
     1
176
     1
270
     1
274
     1
 94
       63
  0
MATERIAL
  5
295
102
{ACAD_REACTORS
330
C8
102
}
330
C8
100
AcDbMaterial
  1
Global
 73
     1
 78
     1
172
     1
176
     1
270
     1
274
     1
 94
       63
  0
MLEADERSTYLE
  5
2ED
102
{ACAD_REACTORS
330
2EC
102
}
330
2EC
100
AcDbMLeaderStyle
170
     2
171
     1
172
     0
 90
        2
 40
0.0
 41
0.0
173
     1
 91
-1056964608
340
14
 92
       -2
290
     1
 42
0.09
291
     1
 43
0.36
  3
Standard
 44
0.18
300

342
11
174
     1
178
     6
175
     1
176
     0
 93
-1056964608
 45
0.18
292
     0
297
     0
 46
0.18
 94
-1056964608
 47
1.0
 49
1.0
140
1.0
293
     1
141
0.0
294
     1
177
     0
142
1.0
295
     0
296
     0
143
0.125
1001
ACAD_MLEADERVER
1070
     2
  0
MLINESTYLE
  5
18
102
{ACAD_REACTORS
330
17
102
}
330
17
100
AcDbMlineStyle
  2
STANDARD
 70
     0
  3

 62
   256
 51
90.0
 52
90.0
 71
     2
 49
0.5
 62
   256
  6
BYLAYER
 49
-0.5
 62
   256
  6
BYLAYER
  0
ACDBPLACEHOLDER
  5
F
102
{ACAD_REACTORS
330
E
102
}
330
E
  0
SCALE
  5
2CB
102
{ACAD_REACTORS
330
2CA
102
}
330
2CA
100
AcDbScale
 70
     0
300
1:1
140
1.0
141
1.0
290
     1
  0
SCALE
  5
2CC
102
{ACAD_REACTORS
330
2CA
102
}
330
2CA
100
AcDbScale
 70
     0
300
1:2
140
1.0
141
2.0
290
     0
  0
SCALE
  5
2CD
102
{ACAD_REACTORS
330
2CA
102
}
330
2CA
100
AcDbScale
 70
     0
300
1:4
140
1.0
141
4.0
290
     0
  0
SCALE
  5
2CE
102
{ACAD_REACTORS
330
2CA
102
}
330
2CA
100
AcDbScale
 70
     0
300
1:5
140
1.0
141
5.0
290
     0
  0
SCALE
  5
2CF
102
{ACAD_REACTORS
330
2CA
102
}
330
2CA
100
AcDbScale
 70
     0
300
1:8
140
1.0
141
8.0
290
     0
  0
SCALE
  5
2D0
102
{ACAD_REACTORS
330
2CA
102
}
330
2CA
100
AcDbScale
 70
     0
300
1:10
140
1.0
141
10.0
290
     0
  0
SCALE
  5
2D1
102
{ACAD_REACTORS
330
2CA
102
}
330
2CA
100
AcDbScale
 70
     0
300
1:16
140
1.0
141
16.0
290
     0
  0
SCALE
  5
2D2
102
{ACAD_REACTORS
330
2CA
102
}
330
2CA
100
AcDbScale
 70
     0
300
1:20
140
1.0
141
20.0
290
     0
  0
SCALE
  5
2D3
102
{ACAD_REACTORS
330
2CA
102
}
330
2CA
100
AcDbScale
 70
     0
300
1:30
140
1.0
141
30.0
290
     0
  0
SCALE
  5
2D4
102
{ACAD_REACTORS
330
2CA
102
}
330
2CA
100
AcDbScale
 70
     0
300
1:40
140
1.0
141
40.0
290
     0
  0
SCALE
  5
2D5
102
{ACAD_REACTORS
330
2CA
102
}
330
2CA
100
AcDbScale
 70
     0
300
1:50
140
1.0
141
50.0
290
     0
  0
SCALE
  5
2D6
102
{ACAD_REACTORS
330
2CA
102
}
330
2CA
100
AcDbScale
 70
     0
300
1:100
140
1.0
141
100.0
290
     0
  0
SCALE
  5
2D7
102
{ACAD_REACTORS
330
2CA
102
}
330
2CA
100
AcDbScale
 70
     0
300
2:1
140
2.0
141
1.0
290
     0
  0
SCALE
  5
2D8
102
{ACAD_REACTORS
330
2CA
102
}
330
2CA
100
AcDbScale
 70
     0
300
4:1
140
4.0
141
1.0
290
     0
  0
SCALE
  5
2D9
102
{ACAD_REACTORS
330
2CA
102
}
330
2CA
100
AcDbScale
 70
     0
300
8:1
140
8.0
141
1.0
290
     0
  0
SCALE
  5
2DA
102
{ACAD_REACTORS
330
2CA
102
}
330
2CA
100
AcDbScale
 70
     0
300
10:1
140
10.0
141
1.0
290
     0
  0
SCALE
  5
2DB
102
{ACAD_REACTORS
330
2CA
102
}
330
2CA
100
AcDbScale
 70
     0
300
100:1
140
100.0
141
1.0
290
     0
  0
SCALE
  5
2DC
102
{ACAD_REACTORS
330
2CA
102
}
330
2CA
100
AcDbScale
 70
     0
300
1/128" = 1'-0"
140
0.0078125
141
12.0
290
     0
  0
SCALE
  5
2DD
102
{ACAD_REACTORS
330
2CA
102
}
330
2CA
100
AcDbScale
 70
     0
300
1/64" = 1'-0"
140
0.015625
141
12.0
290
     0
  0
SCALE
  5
2DE
102
{ACAD_REACTORS
330
2CA
102
}
330
2CA
100
AcDbScale
 70
     0
300
1/32" = 1'-0"
140
0.03125
141
12.0
290
     0
  0
SCALE
  5
2DF
102
{ACAD_REACTORS
330
2CA
102
}
330
2CA
100
AcDbScale
 70
     0
300
1/16" = 1'-0"
140
0.0625
141
12.0
290
     0
  0
SCALE
  5
2E0
102
{ACAD_REACTORS
330
2CA
102
}
330
2CA
100
AcDbScale
 70
     0
300
3/32" = 1'-0"
140
0.09375
141
12.0
290
     0
  0
SCALE
  5
2E1
102
{ACAD_REACTORS
330
2CA
102
}
330
2CA
100
AcDbScale
 70
     0
300
1/8" = 1'-0"
140
0.125
141
12.0
290
     0
  0
SCALE
  5
2E2
102
{ACAD_REACTORS
330
2CA
102
}
330
2CA
100
AcDbScale
 70
     0
300
3/16" = 1'-0"
140
0.1875
141
12.0
290
     0
  0
SCALE
  5
2E3
102
{ACAD_REACTORS
330
2CA
102
}
330
2CA
100
AcDbScale
 70
     0
300
1/4" = 1'-0"
140
0.25
141
12.0
290
     0
  0
SCALE
  5
2E4
102
{ACAD_REACTORS
330
2CA
102
}
330
2CA
100
AcDbScale
 70
     0
300
3/8" = 1'-0"
140
0.375
141
12.0
290
     0
  0
SCALE
  5
2E5
102
{ACAD_REACTORS
330
2CA
102
}
330
2CA
100
AcDbScale
 70
     0
300
1/2" = 1'-0"
140
0.5
141
12.0
290
     0
  0
SCALE
  5
2E6
102
{ACAD_REACTORS
330
2CA
102
}
330
2CA
100
AcDbScale
 70
     0
300
3/4" = 1'-0"
140
0.75
141
12.0
290
     0
  0
SCALE
  5
2E7
102
{ACAD_REACTORS
330
2CA
102
}
330
2CA
100
AcDbScale
 70
     0
300
1" = 1'-0"
140
1.0
141
12.0
290
     0
  0
SCALE
  5
2E8
102
{ACAD_REACTORS
330
2CA
102
}
330
2CA
100
AcDbScale
 70
     0
300
1-1/2" = 1'-0"
140
1.5
141
12.0
290
     0
  0
SCALE
  5
2E9
102
{ACAD_REACTORS
330
2CA
102
}
330
2CA
100
AcDbScale
 70
     0
300
3" = 1'-0"
140
3.0
141
12.0
290
     0
  0
SCALE
  5
2EA
102
{ACAD_REACTORS
330
2CA
102
}
330
2CA
100
AcDbScale
 70
     0
300
6" = 1'-0"
140
6.0
141
12.0
290
     0
  0
SCALE
  5
2EB
102
{ACAD_REACTORS
330
2CA
102
}
330
2CA
100
AcDbScale
 70
     0
300
1'-0" = 1'-0"
140
12.0
141
12.0
290
     0
  0
TABLESTYLE
  5
124
102
{ACAD_XDICTIONARY
360
30B
102
}
102
{ACAD_REACTORS
330
123
102
}
330
123
100
AcDbTableStyle
  3
Standard
 70
     0
 71
     0
 40
0.06
 41
0.06
280
     0
281
     0
  7
STANDARD
140
0.18
170
     2
 62
     0
 63
     7
283
     0
 90
      512
 91
        0
  1

274
    -2
284
     1
 64
     0
275
    -2
285
     1
 65
     0
276
    -2
286
     1
 66
     0
277
    -2
287
     1
 67
     0
278
    -2
288
     1
 68
     0
279
    -2
289
     1
 69
     0
  7
STANDARD
140
0.25
170
     5
 62
     0
 63
     7
283
     0
 90
      512
 91
        0
  1

274
    -2
284
     1
 64
     0
275
    -2
285
     1
 65
     0
276
    -2
286
     1
 66
     0
277
    -2
287
     1
 67
     0
278
    -2
288
     1
 68
     0
279
    -2
289
     1
 69
     0
  7
STANDARD
140
0.18
170
     5
 62
     0
 63
     7
283
     0
 90
      512
 91
        0
  1

274
    -2
284
     1
 64
     0
275
    -2
285
     1
 65
     0
276
    -2
286
     1
 66
     0
277
    -2
287
     1
 67
     0
278
    -2
288
     1
 68
     0
279
    -2
289
     1
 69
     0
  0
VISUALSTYLE
  5
29C
102
{ACAD_REACTORS
330
296
102
}
330
296
100
AcDbVisualStyle
  2
2dWireframe
 70
     4
 71
     0
 72
     2
 73
     0
 90
        0
 40
-0.6
 41
-30.0
 62
     5
 63
     7
421
 16777215
 74
     1
 91
        4
 64
     7
 65
   257
 75
     1
175
     1
 42
1.0
 92
        0
 66
   257
 43
1.0
 76
     1
 77
     6
 78
     2
 67
     7
 79
     5
170
     0
171
     0
290
     0
174
     0
 93
        1
 44
0.0
173
     0
291
     0
 45
0.0
  0
VISUALSTYLE
  5
29E
102
{ACAD_REACTORS
330
296
102
}
330
296
100
AcDbVisualStyle
  2
3D Hidden
 70
     6
 71
     1
 72
     2
 73
     2
 90
        0
 40
-0.6
 41
-30.0
 62
     5
 63
     7
421
 16777215
 74
     2
 91
        2
 64
     7
 65
   257
 75
     2
175
     1
 42
40.0
 92
        0
 66
   257
 43
1.0
 76
     1
 77
     6
 78
     2
 67
     7
 79
     3
170
     0
171
     0
290
     0
174
     0
 93
        1
 44
0.0
173
     0
291
     0
 45
0.0
  0
VISUALSTYLE
  5
29D
102
{ACAD_REACTORS
330
296
102
}
330
296
100
AcDbVisualStyle
  2
3dWireframe
 70
     5
 71
     0
 72
     2
 73
     0
 90
        0
 40
-0.6
 41
-30.0
 62
     5
 63
     7
421
 16777215
 74
     1
 91
        4
 64
     7
 65
   257
 75
     1
175
     1
 42
1.0
 92
        0
 66
   257
 43
1.0
 76
     1
 77
     6
 78
     2
 67
     7
 79
     5
170
     0
171
     0
290
     0
174
     0
 93
        1
 44
0.0
173
     0
291
     0
 45
0.0
  0
VISUALSTYLE
  5
29B
102
{ACAD_REACTORS
330
296
102
}
330
296
100
AcDbVisualStyle
  2
Basic
 70
     7
 71
     1
 72
     0
 73
     1
 90
        0
 40
-0.6
 41
-30.0
 62
     5
 63
     7
421
 16777215
 74
     0
 91
        4
 64
     7
 65
   257
 75
     1
175
     1
 42
1.0
 92
        8
 66
     7
 43
1.0
 76
     1
 77
     6
 78
     2
 67
     7
 79
     5
170
     0
171
     0
290
     0
174
     0
 93
        1
 44
0.0
173
     0
291
     1
 45
0.0
  0
VISUALSTYLE
  5
2A2
102
{ACAD_REACTORS
330
296
102
}
330
296
100
AcDbVisualStyle
  2
Brighten
 70
    12
 71
     2
 72
     2
 73
     0
 90
        0
 40
-0.6
 41
-30.0
 62
     5
 63
     7
421
 16777215
 74
     1
 91
        4
 64
     7
 65
   257
 75
     1
175
     1
 42
1.0
 92
        8
 66
     7
 43
1.0
 76
     1
 77
     6
 78
     2
 67
     7
 79
     5
170
     0
171
     0
290
     0
174
     0
 93
        1
 44
50.0
173
     0
291
     1
 45
0.0
  0
VISUALSTYLE
  5
2A6
102
{ACAD_REACTORS
330
296
102
}
330
296
100
AcDbVisualStyle
  2
ColorChange
 70
    16
 71
     2
 72
     2
 73
     3
 90
        0
 40
-0.6
 41
-30.0
 62
     5
 63
     8
421
  8421504
 74
     1
 91
        4
 64
     7
 65
   257
 75
     1
175
     1
 42
1.0
 92
        8
 66
     8
424
  8421504
 43
1.0
 76
     1
 77
     6
 78
     2
 67
     7
 79
     5
170
     0
171
     0
290
     0
174
     0
 93
        1
 44
0.0
173
     0
291
     1
 45
0.0
  0
VISUALSTYLE
  5
29F
102
{ACAD_REACTORS
330
296
102
}
330
296
100
AcDbVisualStyle
  2
Conceptual
 70
     9
 71
     3
 72
     2
 73
     0
 90
        0
 40
-0.6
 41
-30.0
 62
     5
 63
     7
421
 16777215
 74
     2
 91
        2
 64
     7
 65
   257
 75
     1
175
     1
 42
40.0
 92
        8
 66
     7
 43
1.0
 76
     1
 77
     6
 78
     2
 67
     7
 79
     3
170
     0
171
     0
290
     0
174
     0
 93
        1
 44
0.0
173
     0
291
     0
 45
0.0
  0
VISUALSTYLE
  5
2A1
102
{ACAD_REACTORS
330
296
102
}
330
296
100
AcDbVisualStyle
  2
Dim
 70
    11
 71
     2
 72
     2
 73
     0
 90
        0
 40
-0.6
 41
-30.0
 62
     5
 63
     7
421
 16777215
 74
     1
 91
        4
 64
     7
 65
   257
 75
     1
175
     1
 42
1.0
 92
        8
 66
     7
 43
1.0
 76
     1
 77
     6
 78
     2
 67
     7
 79
     5
170
     0
171
     0
290
     0
174
     0
 93
        1
 44
-50.0
173
     0
291
     1
 45
0.0
  0
VISUALSTYLE
  5
2A5
102
{ACAD_REACTORS
330
296
102
}
330
296
100
AcDbVisualStyle
  2
Facepattern
 70
    15
 71
     2
 72
     2
 73
     0
 90
        0
 40
-0.6
 41
-30.0
 62
     5
 63
     7
421
 16777215
 74
     1
 91
        4
 64
     7
 65
   257
 75
     1
175
     1
 42
1.0
 92
        8
 66
     7
 43
1.0
 76
     1
 77
     6
 78
     2
 67
     7
 79
     5
170
     0
171
     0
290
     0
174
     0
 93
        1
 44
0.0
173
     0
291
     1
 45
0.0
  0
VISUALSTYLE
  5
297
102
{ACAD_REACTORS
330
296
102
}
330
296
100
AcDbVisualStyle
  2
Flat
 70
     0
 71
     2
 72
     1
 73
     1
 90
        2
 40
-0.6
 41
30.0
 62
     5
 63
     7
421
 16777215
 74
     0
 91
        4
 64
     7
 65
   257
 75
     1
175
     1
 42
1.0
 92
        8
 66
     7
 43
1.0
 76
     1
 77
     6
 78
     2
 67
     7
 79
     5
170
     0
171
     0
290
     0
174
     0
 93
       13
 44
0.0
173
     0
291
     1
 45
0.0
  0
VISUALSTYLE
  5
298
102
{ACAD_REACTORS
330
296
102
}
330
296
100
AcDbVisualStyle
  2
FlatWithEdges
 70
     1
 71
     2
 72
     1
 73
     1
 90
        2
 40
-0.6
 41
30.0
 62
     5
 63
     7
421
 16777215
 74
     1
 91
        4
 64
     7
 65
   257
 75
     1
175
     1
 42
1.0
 92
        0
 66
   257
 43
1.0
 76
     1
 77
     6
 78
     2
 67
     7
 79
     5
170
     0
171
     0
290
     0
174
     0
 93
       13
 44
0.0
173
     0
291
     1
 45
0.0
  0
VISUALSTYLE
  5
299
102
{ACAD_REACTORS
330
296
102
}
330
296
100
AcDbVisualStyle
  2
Gouraud
 70
     2
 71
     2
 72
     2
 73
     1
 90
        2
 40
-0.6
 41
30.0
 62
     5
 63
     7
421
 16777215
 74
     0
 91
        4
 64
     7
 65
   257
 75
     1
175
     1
 42
1.0
 92
        0
 66
     7
 43
1.0
 76
     1
 77
     6
 78
     2
 67
     7
 79
     5
170
     0
171
     0
290
     0
174
     0
 93
       13
 44
0.0
173
     0
291
     1
 45
0.0
  0
VISUALSTYLE
  5
29A
102
{ACAD_REACTORS
330
296
102
}
330
296
100
AcDbVisualStyle
  2
GouraudWithEdges
 70
     3
 71
     2
 72
     2
 73
     1
 90
        2
 40
-0.6
 41
30.0
 62
     5
 63
     7
421
 16777215
 74
     1
 91
        4
 64
     7
 65
   257
 75
     1
175
     1
 42
1.0
 92
        0
 66
   257
 43
1.0
 76
     1
 77
     6
 78
     2
 67
     7
 79
     5
170
     0
171
     0
290
     0
174
     0
 93
       13
 44
0.0
173
     0
291
     1
 45
0.0
  0
VISUALSTYLE
  5
2A4
102
{ACAD_REACTORS
330
296
102
}
330
296
100
AcDbVisualStyle
  2
Linepattern
 70
    14
 71
     2
 72
     2
 73
     0
 90
        0
 40
-0.6
 41
-30.0
 62
     5
 63
     7
421
 16777215
 74
     1
 91
        4
 64
     7
 65
   257
 75
     7
175
     7
 42
1.0
 92
        8
 66
     7
 43
1.0
 76
     1
 77
     6
 78
     2
 67
     7
 79
     5
170
     0
171
     0
290
     0
174
     0
 93
        1
 44
0.0
173
     0
291
     1
 45
0.0
  0
VISUALSTYLE
  5
2A0
102
{ACAD_REACTORS
330
296
102
}
330
296
100
AcDbVisualStyle
  2
Realistic
 70
     8
 71
     2
 72
     2
 73
     0
 90
        0
 40
-0.6
 41
-30.0
 62
     5
 63
     7
421
 16777215
 74
     1
 91
        0
 64
     7
 65
   257
 75
     1
175
     1
 42
1.0
 92
        8
 66
     8
424
  7895160
 43
1.0
 76
     1
 77
     6
 78
     2
 67
     7
 79
     5
170
     0
171
     0
290
     0
174
     0
 93
       13
 44
0.0
173
     0
291
     0
 45
0.0
  0
VISUALSTYLE
  5
2A3
102
{ACAD_REACTORS
330
296
102
}
330
296
100
AcDbVisualStyle
  2
Thicken
 70
    13
 71
     2
 72
     2
 73
     0
 90
        0
 40
-0.6
 41
-30.0
 62
     5
 63
     7
421
 16777215
 74
     1
 91
        4
 64
     7
 65
   257
 75
     1
175
     1
 42
1.0
 92
       12
 66
     7
 43
1.0
 76
     1
 77
     6
 78
     2
 67
     7
 79
     5
170
     0
171
     0
290
     0
174
     0
 93
        1
 44
0.0
173
     0
291
     1
 45
0.0
  0
DICTIONARYVAR
  5
310
102
{ACAD_REACTORS
330
9E
102
}
330
9E
100
DictionaryVariables
280
     0
  1
1:1
  0
DICTIONARYVAR
  5
30E
102
{ACAD_REACTORS
330
9E
102
}
330
9E
100
DictionaryVariables
280
     0
  1
STANDARD
  0
DICTIONARYVAR
  5
144
102
{ACAD_REACTORS
330
9E
102
}
330
9E
100
DictionaryVariables
280
     0
  1
STANDARD
  0
DICTIONARYVAR
  5
A0
102
{ACAD_REACTORS
330
9E
102
}
330
9E
100
DictionaryVariables
280
     0
  1
2
  0
DICTIONARYVAR
  5
9F
102
{ACAD_REACTORS
330
9E
102
}
330
9E
100
DictionaryVariables
280
     0
  1
1
  0
DICTIONARYVAR
  5
36B
102
{ACAD_REACTORS
330
9E
102
}
330
9E
100
DictionaryVariables
280
     0
  1
1
  0
DICTIONARYVAR
  5
36C
102
{ACAD_REACTORS
330
9E
102
}
330
9E
100
DictionaryVariables
280
     0
  1
15
  0
DICTIONARYVAR
  5
311
102
{ACAD_REACTORS
330
9E
102
}
330
9E
100
DictionaryVariables
280
     0
  1
0
  0
DICTIONARYVAR
  5
30F
102
{ACAD_REACTORS
330
9E
102
}
330
9E
100
DictionaryVariables
280
     0
  1
0
  0
DICTIONARY
  5
69
102
{ACAD_REACTORS
330
63
102
}
330
63
100
AcDbDictionary
281
     1
  0
XRECORD
  5
12C
102
{ACAD_REACTORS
330
63
102
}
330
63
100
AcDbXrecord
280
     1
 90
-1023410169
  0
DICTIONARY
  5
30B
330
124
100
AcDbDictionary
280
     1
281
     1
  3
ACAD_ROUNDTRIP_2008_TABLESTYLE_CELLSTYLEMAP
360
895
  0
CELLSTYLEMAP
  5
895
102
{ACAD_REACTORS
330
30B
102
}
330
30B
100
AcDbCellStyleMap
 90
        3
300
CELLSTYLE
  1
TABLEFORMAT_BEGIN
 90
        5
170
     1
 91
        0
 92
    32768
 62
   257
 93
        1
300
CONTENTFORMAT
  1
CONTENTFORMAT_BEGIN
 90
        0
 91
        0
 92
      512
 93
        0
300

 40
0.0
140
1.0
 94
        5
 62
     0
340
11
144
0.25
309
CONTENTFORMAT_END
171
     0
 94
        6
 95
        1
302
GRIDFORMAT
  1
GRIDFORMAT_BEGIN
 90
        0
 91
        1
 62
     0
 92
       -2
340
0
 93
        0
 40
0.045
309
GRIDFORMAT_END
 95
        2
302
GRIDFORMAT
  1
GRIDFORMAT_BEGIN
 90
        0
 91
        1
 62
     0
 92
       -2
340
0
 93
        0
 40
0.045
309
GRIDFORMAT_END
 95
        4
302
GRIDFORMAT
  1
GRIDFORMAT_BEGIN
 90
        0
 91
        1
 62
     0
 92
       -2
340
0
 93
        0
 40
0.045
309
GRIDFORMAT_END
 95
        8
302
GRIDFORMAT
  1
GRIDFORMAT_BEGIN
 90
        0
 91
        1
 62
     0
 92
       -2
340
0
 93
        0
 40
0.045
309
GRIDFORMAT_END
 95
       16
302
GRIDFORMAT
  1
GRIDFORMAT_BEGIN
 90
        0
 91
        1
 62
     0
 92
       -2
340
0
 93
        0
 40
0.045
309
GRIDFORMAT_END
 95
       32
302
GRIDFORMAT
  1
GRIDFORMAT_BEGIN
 90
        0
 91
        1
 62
     0
 92
       -2
340
0
 93
        0
 40
0.045
309
GRIDFORMAT_END
309
TABLEFORMAT_END
  1
CELLSTYLE_BEGIN
 90
        1
 91
        1
300
_TITLE
309
CELLSTYLE_END
300
CELLSTYLE
  1
TABLEFORMAT_BEGIN
 90
        5
170
     1
 91
        0
 92
        0
 62
   257
 93
        1
300
CONTENTFORMAT
  1
CONTENTFORMAT_BEGIN
 90
        0
 91
        0
 92
      512
 93
        0
300

 40
0.0
140
1.0
 94
        5
 62
     0
340
11
144
0.18
309
CONTENTFORMAT_END
171
     0
 94
        6
 95
        1
302
GRIDFORMAT
  1
GRIDFORMAT_BEGIN
 90
        0
 91
        1
 62
     0
 92
       -2
340
0
 93
        0
 40
0.045
309
GRIDFORMAT_END
 95
        2
302
GRIDFORMAT
  1
GRIDFORMAT_BEGIN
 90
        0
 91
        1
 62
     0
 92
       -2
340
0
 93
        0
 40
0.045
309
GRIDFORMAT_END
 95
        4
302
GRIDFORMAT
  1
GRIDFORMAT_BEGIN
 90
        0
 91
        1
 62
     0
 92
       -2
340
0
 93
        0
 40
0.045
309
GRIDFORMAT_END
 95
        8
302
GRIDFORMAT
  1
GRIDFORMAT_BEGIN
 90
        0
 91
        1
 62
     0
 92
       -2
340
0
 93
        0
 40
0.045
309
GRIDFORMAT_END
 95
       16
302
GRIDFORMAT
  1
GRIDFORMAT_BEGIN
 90
        0
 91
        1
 62
     0
 92
       -2
340
0
 93
        0
 40
0.045
309
GRIDFORMAT_END
 95
       32
302
GRIDFORMAT
  1
GRIDFORMAT_BEGIN
 90
        0
 91
        1
 62
     0
 92
       -2
340
0
 93
        0
 40
0.045
309
GRIDFORMAT_END
309
TABLEFORMAT_END
  1
CELLSTYLE_BEGIN
 90
        2
 91
        1
300
_HEADER
309
CELLSTYLE_END
300
CELLSTYLE
  1
TABLEFORMAT_BEGIN
 90
        5
170
     1
 91
        0
 92
        0
 62
   257
 93
        1
300
CONTENTFORMAT
  1
CONTENTFORMAT_BEGIN
 90
        0
 91
        0
 92
      512
 93
        0
300

 40
0.0
140
1.0
 94
        2
 62
     0
340
11
144
0.18
309
CONTENTFORMAT_END
171
     0
 94
        6
 95
        1
302
GRIDFORMAT
  1
GRIDFORMAT_BEGIN
 90
        0
 91
        1
 62
     0
 92
       -2
340
0
 93
        0
 40
0.045
309
GRIDFORMAT_END
 95
        2
302
GRIDFORMAT
  1
GRIDFORMAT_BEGIN
 90
        0
 91
        1
 62
     0
 92
       -2
340
0
 93
        0
 40
0.045
309
GRIDFORMAT_END
 95
        4
302
GRIDFORMAT
  1
GRIDFORMAT_BEGIN
 90
        0
 91
        1
 62
     0
 92
       -2
340
0
 93
        0
 40
0.045
309
GRIDFORMAT_END
 95
        8
302
GRIDFORMAT
  1
GRIDFORMAT_BEGIN
 90
        0
 91
        1
 62
     0
 92
       -2
340
0
 93
        0
 40
0.045
309
GRIDFORMAT_END
 95
       16
302
GRIDFORMAT
  1
GRIDFORMAT_BEGIN
 90
        0
 91
        1
 62
     0
 92
       -2
340
0
 93
        0
 40
0.045
309
GRIDFORMAT_END
 95
       32
302
GRIDFORMAT
  1
GRIDFORMAT_BEGIN
 90
        0
 91
        1
 62
     0
 92
       -2
340
0
 93
        0
 40
0.045
309
GRIDFORMAT_END
309
TABLEFORMAT_END
  1
CELLSTYLE_BEGIN
 90
        3
 91
        2
300
_DATA
309
CELLSTYLE_END
  0
ENDSEC
  0
EOF
