  0
SECTION
  2
HEADER
  9
$ACADVER
  1
AC1021
  9
$ACADMAINTVER
 70
    50
  9
$DWGCODEPAGE
  3
ANSI_936
  9
$LASTSAVEDBY
  1
ko69185
  9
$CUSTOMPROPERTYTAG
  1
AmdtFileType
  9
$CUSTOMPROPERTY
  1
84
  9
$INSBASE
 10
0.0
 20
0.0
 30
0.0
  9
$EXTMIN
 10
135.6184413857355
 20
93.65214039172441
 30
0.0
  9
$EXTMAX
 10
181.7618650372131
 20
136.6676286606637
 30
0.0
  9
$LIMMIN
 10
0.0
 20
0.0
  9
$LIMMAX
 10
17.0
 20
11.0
  9
$ORTHOMODE
 70
     1
  9
$REGENMODE
 70
     1
  9
$FILLMODE
 70
     1
  9
$QTEXTMODE
 70
     0
  9
$MIRRTEXT
 70
     1
  9
$LTSCALE
 40
1.0
  9
$ATTMODE
 70
     1
  9
$TEXTSIZE
 40
0.2
  9
$TRACEWID
 40
0.05
  9
$TEXTSTYLE
  7
STANDARD
  9
$CLAYER
  8
0
  9
$CELTYPE
  6
ByLayer
  9
$CECOLOR
 62
   256
  9
$CELTSCALE
 40
1.0
  9
$DISPSILH
 70
     0
  9
$DIMSCALE
 40
1.0
  9
$DIMASZ
 40
0.12
  9
$DIMEXO
 40
0.05
  9
$DIMDLI
 40
0.5
  9
$DIMRND
 40
0.0
  9
$DIMDLE
 40
0.0
  9
$DIMEXE
 40
0.1
  9
$DIMTP
 40
0.1
  9
$DIMTM
 40
0.1
  9
$DIMTXT
 40
0.12
  9
$DIMCEN
 40
0.0
  9
$DIMTSZ
 40
0.0
  9
$DIMTOL
 70
     0
  9
$DIMLIM
 70
     0
  9
$DIMTIH
 70
     1
  9
$DIMTOH
 70
     1
  9
$DIMSE1
 70
     0
  9
$DIMSE2
 70
     0
  9
$DIMTAD
 70
     0
  9
$DIMZIN
 70
     7
  9
$DIMBLK
  1

  9
$DIMASO
 70
     1
  9
$DIMSHO
 70
     1
  9
$DIMPOST
  1

  9
$DIMAPOST
  1
mm
  9
$DIMALT
 70
     0
  9
$DIMALTD
 70
     2
  9
$DIMALTF
 40
25.4
  9
$DIMLFAC
 40
1.0
  9
$DIMTOFL
 70
     0
  9
$DIMTVP
 40
0.0
  9
$DIMTIX
 70
     0
  9
$DIMSOXD
 70
     0
  9
$DIMSAH
 70
     0
  9
$DIMBLK1
  1

  9
$DIMBLK2
  1

  9
$DIMSTYLE
  2
AM_ANSI
  9
$DIMCLRD
 70
   256
  9
$DIMCLRE
 70
   256
  9
$DIMCLRT
 70
   140
  9
$DIMTFAC
 40
0.71
  9
$DIMGAP
 40
0.06
  9
$DIMJUST
 70
     0
  9
$DIMSD1
 70
     0
  9
$DIMSD2
 70
     0
  9
$DIMTOLJ
 70
     1
  9
$DIMTZIN
 70
     7
  9
$DIMALTZ
 70
     0
  9
$DIMALTTZ
 70
     0
  9
$DIMUPT
 70
     0
  9
$DIMDEC
 70
     4
  9
$DIMTDEC
 70
     4
  9
$DIMALTU
 70
     2
  9
$DIMALTTD
 70
     4
  9
$DIMTXSTY
  7
STANDARD
  9
$DIMAUNIT
 70
     0
  9
$DIMADEC
 70
     0
  9
$DIMALTRND
 40
0.0
  9
$DIMAZIN
 70
     2
  9
$DIMDSEP
 70
    46
  9
$DIMATFIT
 70
     3
  9
$DIMFRAC
 70
     0
  9
$DIMLDRBLK
  1

  9
$DIMLUNIT
 70
     2
  9
$DIMLWD
 70
    -1
  9
$DIMLWE
 70
    -1
  9
$DIMTMOVE
 70
     0
  9
$DIMFXL
 40
1.0
  9
$DIMFXLON
 70
     0
  9
$DIMJOGANG
 40
0.7853981633974483
  9
$DIMTFILL
 70
     0
  9
$DIMTFILLCLR
 70
     0
  9
$DIMARCSYM
 70
     1
  9
$DIMLTYPE
  6
ByBlock
  9
$DIMLTEX1
  6
ByBlock
  9
$DIMLTEX2
  6
ByBlock
  9
$LUNITS
 70
     2
  9
$LUPREC
 70
     4
  9
$SKETCHINC
 40
0.1
  9
$FILLETRAD
 40
0.125
  9
$AUNITS
 70
     0
  9
$AUPREC
 70
     0
  9
$MENU
  1
.
  9
$ELEVATION
 40
0.0
  9
$PELEVATION
 40
0.0
  9
$THICKNESS
 40
0.0
  9
$LIMCHECK
 70
     0
  9
$CHAMFERA
 40
0.125
  9
$CHAMFERB
 40
0.125
  9
$CHAMFERC
 40
1.0
  9
$CHAMFERD
 40
0.0
  9
$SKPOLY
 70
     0
  9
$TDCREATE
 40
2455295.578477546
  9
$TDUCREATE
 40
2455295.245144213
  9
$TDUPDATE
 40
2455309.636168472
  9
$TDUUPDATE
 40
2455309.302835139
  9
$TDINDWG
 40
0.0179993981
  9
$TDUSRTIMER
 40
0.0179993981
  9
$USRTIMER
 70
     1
  9
$ANGBASE
 50
0.0
  9
$ANGDIR
 70
     0
  9
$PDMODE
 70
     0
  9
$PDSIZE
 40
0.0
  9
$PLINEWID
 40
0.0
  9
$SPLFRAME
 70
     0
  9
$SPLINETYPE
 70
     6
  9
$SPLINESEGS
 70
     8
  9
$HANDSEED
  5
129D
  9
$SURFTAB1
 70
     6
  9
$SURFTAB2
 70
     6
  9
$SURFTYPE
 70
     6
  9
$SURFU
 70
     6
  9
$SURFV
 70
     6
  9
$UCSBASE
  2

  9
$UCSNAME
  2

  9
$UCSORG
 10
0.0
 20
0.0
 30
0.0
  9
$UCSXDIR
 10
1.0
 20
0.0
 30
0.0
  9
$UCSYDIR
 10
0.0
 20
1.0
 30
0.0
  9
$UCSORTHOREF
  2

  9
$UCSORTHOVIEW
 70
     0
  9
$UCSORGTOP
 10
0.0
 20
0.0
 30
0.0
  9
$UCSORGBOTTOM
 10
0.0
 20
0.0
 30
0.0
  9
$UCSORGLEFT
 10
0.0
 20
0.0
 30
0.0
  9
$UCSORGRIGHT
 10
0.0
 20
0.0
 30
0.0
  9
$UCSORGFRONT
 10
0.0
 20
0.0
 30
0.0
  9
$UCSORGBACK
 10
0.0
 20
0.0
 30
0.0
  9
$PUCSBASE
  2

  9
$PUCSNAME
  2

  9
$PUCSORG
 10
0.0
 20
0.0
 30
0.0
  9
$PUCSXDIR
 10
1.0
 20
0.0
 30
0.0
  9
$PUCSYDIR
 10
0.0
 20
1.0
 30
0.0
  9
$PUCSORTHOREF
  2

  9
$PUCSORTHOVIEW
 70
     0
  9
$PUCSORGTOP
 10
0.0
 20
0.0
 30
0.0
  9
$PUCSORGBOTTOM
 10
0.0
 20
0.0
 30
0.0
  9
$PUCSORGLEFT
 10
0.0
 20
0.0
 30
0.0
  9
$PUCSORGRIGHT
 10
0.0
 20
0.0
 30
0.0
  9
$PUCSORGFRONT
 10
0.0
 20
0.0
 30
0.0
  9
$PUCSORGBACK
 10
0.0
 20
0.0
 30
0.0
  9
$USERI1
 70
     0
  9
$USERI2
 70
     0
  9
$USERI3
 70
     0
  9
$USERI4
 70
     0
  9
$USERI5
 70
     0
  9
$USERR1
 40
0.0
  9
$USERR2
 40
0.0
  9
$USERR3
 40
0.0
  9
$USERR4
 40
0.0
  9
$USERR5
 40
0.0
  9
$WORLDVIEW
 70
     1
  9
$SHADEDGE
 70
     3
  9
$SHADEDIF
 70
    70
  9
$TILEMODE
 70
     1
  9
$MAXACTVP
 70
    64
  9
$PINSBASE
 10
0.0
 20
0.0
 30
0.0
  9
$PLIMCHECK
 70
     0
  9
$PEXTMIN
 10
1.000000000000000E+20
 20
1.000000000000000E+20
 30
1.000000000000000E+20
  9
$PEXTMAX
 10
-1.000000000000000E+20
 20
-1.000000000000000E+20
 30
-1.000000000000000E+20
  9
$PLIMMIN
 10
0.0
 20
0.0
  9
$PLIMMAX
 10
12.0
 20
9.0
  9
$UNITMODE
 70
     0
  9
$VISRETAIN
 70
     1
  9
$PLINEGEN
 70
     0
  9
$PSLTSCALE
 70
     1
  9
$TREEDEPTH
 70
  3020
  9
$CMLSTYLE
  2
Standard
  9
$CMLJUST
 70
     0
  9
$CMLSCALE
 40
1.0
  9
$PROXYGRAPHICS
 70
     1
  9
$MEASUREMENT
 70
     0
  9
$CELWEIGHT
370
    -1
  9
$ENDCAPS
280
     0
  9
$JOINSTYLE
280
     0
  9
$LWDISPLAY
290
     0
  9
$INSUNITS
 70
     1
  9
$HYPERLINKBASE
  1

  9
$STYLESHEET
  1

  9
$XEDIT
290
     1
  9
$CEPSNTYPE
380
     0
  9
$PSTYLEMODE
290
     1
  9
$FINGERPRINTGUID
  2
{EEC28332-9206-429F-89A2-E932082E2C59}
  9
$VERSIONGUID
  2
{18EDAE5B-EFEA-446D-98A2-6E8763125122}
  9
$EXTNAMES
290
     1
  9
$PSVPSCALE
 40
0.0
  9
$OLESTARTUP
290
     0
  9
$SORTENTS
280
   127
  9
$INDEXCTL
280
     0
  9
$HIDETEXT
280
     0
  9
$XCLIPFRAME
290
     0
  9
$HALOGAP
280
     0
  9
$OBSCOLOR
 70
   257
  9
$OBSLTYPE
280
     0
  9
$INTERSECTIONDISPLAY
280
     0
  9
$INTERSECTIONCOLOR
 70
   257
  9
$DIMASSOC
280
     2
  9
$PROJECTNAME
  1

  9
$CAMERADISPLAY
290
     0
  9
$LENSLENGTH
 40
50.0
  9
$CAMERAHEIGHT
 40
0.0
  9
$STEPSPERSEC
 40
2.0
  9
$STEPSIZE
 40
6.0
  9
$3DDWFPREC
 40
2.0
  9
$PSOLWIDTH
 40
0.25
  9
$PSOLHEIGHT
 40
4.0
  9
$LOFTANG1
 40
1.570796326794896
  9
$LOFTANG2
 40
1.570796326794896
  9
$LOFTMAG1
 40
0.0
  9
$LOFTMAG2
 40
0.0
  9
$LOFTPARAM
 70
     7
  9
$LOFTNORMALS
280
     1
  9
$LATITUDE
 40
37.795
  9
$LONGITUDE
 40
-122.394
  9
$NORTHDIRECTION
 40
0.0
  9
$TIMEZONE
 70
 -8000
  9
$LIGHTGLYPHDISPLAY
280
     1
  9
$TILEMODELIGHTSYNCH
280
     1
  9
$CMATERIAL
347
293
  9
$SOLIDHIST
280
     1
  9
$SHOWHIST
280
     1
  9
$DWFFRAME
280
     2
  9
$DGNFRAME
280
     0
  9
$REALWORLDSCALE
290
     1
  9
$INTERFERECOLOR
 62
     1
  9
$INTERFEREOBJVS
345
2A0
  9
$INTERFEREVPVS
346
29D
  9
$CSHADOW
280
     0
  9
$SHADOWPLANELOCATION
 40
0.0
  0
ENDSEC
  0
SECTION
  2
CLASSES
  0
CLASS
  1
ACDBDICTIONARYWDFLT
  2
AcDbDictionaryWithDefault
  3
ObjectDBX Classes
 90
        0
 91
        1
280
     0
281
     0
  0
CLASS
  1
ACME_DOCUMENT
  2
AcMeDbDoc
  3
AcMeServices
 90
     1024
 91
        2
280
     0
281
     0
  0
CLASS
  1
AMGSETTINGSOBJ
  2
AmgSettingsObj
  3
"AcadM|Product Description: AutoCAD Mechanical|Company: Autodesk, Inc."
 90
     1024
 91
        4
280
     0
281
     0
  0
CLASS
  1
ACMESCOPE
  2
AcMeScope
  3
AcMeServices
 90
     1024
 91
        1
280
     0
281
     0
  0
CLASS
  1
ACMECOMMANDHISTORY
  2
AcMeCommandHistory
  3
AcMeServices
 90
     1024
 91
        1
280
     0
281
     0
  0
CLASS
  1
ACIMSYSVARMAN
  2
AcImSysVarManager
  3
AcMeServices
 90
     1024
 91
        5
280
     0
281
     0
  0
CLASS
  1
ACIMREALSYSVAR
  2
AcImRealSysVar
  3
AcMeServices
 90
     1024
 91
        4
280
     0
281
     0
  0
CLASS
  1
ACIMINTSYSVAR
  2
AcImIntSysVar
  3
AcMeServices
 90
     1024
 91
       52
280
     0
281
     0
  0
CLASS
  1
ACMEDRAWINGMAN
  2
AcMeDrawingMan
  3
AcMeServices
 90
     1024
 91
        1
280
     0
281
     0
  0
CLASS
  1
ACMEVIEW
  2
AcMeView
  3
AcMeServices
 90
     1024
 91
        1
280
     0
281
     0
  0
CLASS
  1
ACDBENTITYCACHE
  2
AcMeEntityCache
  3
AcMeServices
 90
     1024
 91
        1
280
     0
281
     0
  0
CLASS
  1
GSMANAGER
  2
AcMeGSManager
  3
AcMeServices
 90
     1024
 91
        1
280
     0
281
     0
  0
CLASS
  1
AMDTINTERNALREACTOR
  2
AmdtInternalReactor
  3
AcMeServices
 90
     1024
 91
        2
280
     0
281
     0
  0
CLASS
  1
ACMESTATEMGR
  2
AcMeStateMgr
  3
AcMeServices
 90
     1024
 91
        1
280
     0
281
     0
  0
CLASS
  1
ACGREFMASTER
  2
AcGrefMaster
  3
AcAttribServices
 90
     1024
 91
        1
280
     0
281
     0
  0
CLASS
  1
ACME_DATABASE
  2
AcMeDbDatabase
  3
AcMeServices
 90
     1024
 91
        2
280
     0
281
     0
  0
CLASS
  1
ACRFINSADJUSTERMGR
  2
AcRfInsAdjusterMgr
  3
AcMeServices
 90
     1024
 91
        1
280
     0
281
     0
  0
CLASS
  1
ACGREFACADMASTER
  2
AcGrefacadMaster
  3
AcGrefServices
 90
     1024
 91
        1
280
     0
281
     0
  0
CLASS
  1
AMIMASTER
  2
AmiMaster
  3
AmiServices
 90
     1024
 91
        1
280
     0
281
     0
  0
CLASS
  1
ACMDATADICTIONARY
  2
AcmDataDictionary
  3
"AcmSymBB|Product Description: AutoCAD Mechanical|Company: Autodesk, Inc."
 90
     1024
 91
        1
280
     0
281
     0
  0
CLASS
  1
ACMDATAENTRYBLOCK
  2
AcmDataEntryBlock
  3
AcmSymBB|Product Description: AutoCAD Mechanical|Company: Autodesk, Inc.
 90
     1024
 91
        1
280
     0
281
     0
  0
CLASS
  1
ACIMSTRSYSVAR
  2
AcImStrSysVar
  3
AcMeServices
 90
     1024
 91
        5
280
     0
281
     0
  0
CLASS
  1
ACMSTANDARDANSI
  2
AcmStandardANSI
  3
"Amdt_StdImp|Product Description: AutoCAD Mechanical|Company: Autodesk, Inc."
 90
     1024
 91
        1
280
     0
281
     0
  0
CLASS
  1
AMGOBJPROPCFG
  2
AmgObjPropCfg
  3
"AmgLay|Product Description: AutoCAD Mechanical|Company: Autodesk, Inc."
 90
     1025
 91
        1
280
     0
281
     0
  0
CLASS
  1
ACMSURFSTANDARDANSI
  2
AcmSurfTextStdANSI
  3
"Amdt_StdImp|Product Description: AutoCAD Mechanical|Company: Autodesk, Inc."
 90
     1024
 91
        1
280
     0
281
     0
  0
CLASS
  1
ACMFCFSTANDARDANSI
  2
AcmFCFStdANSI
  3
"Amdt_StdImp|Product Description: AutoCAD Mechanical|Company: Autodesk, Inc."
 90
     1024
 91
        1
280
     0
281
     0
  0
CLASS
  1
ACMWELDSTANDARDANSI
  2
AcmWeldingStdANSI
  3
"Amdt_StdImp|Product Description: AutoCAD Mechanical|Company: Autodesk, Inc."
 90
     1024
 91
        1
280
     0
281
     0
  0
CLASS
  1
ACMIDSTANDARDANSI
  2
AcmIdStdANSI
  3
"Amdt_StdImp|Product Description: AutoCAD Mechanical|Company: Autodesk, Inc."
 90
     1024
 91
        1
280
     0
281
     0
  0
CLASS
  1
ACMDATUMSTANDARDANSI
  2
AcmDatumStdANSI
  3
"Amdt_StdImp|Product Description: AutoCAD Mechanical|Company: Autodesk, Inc."
 90
     1024
 91
        1
280
     0
281
     0
  0
CLASS
  1
ACMBOMSTANDARDANSI
  2
AcmBOMStdANSI
  3
"Amdt_StdImp|Product Description: AutoCAD Mechanical|Company: Autodesk, Inc."
 90
     1024
 91
        1
280
     0
281
     0
  0
CLASS
  1
ACMDETAILSTANDARDANSI
  2
AmdtDetailSymStdANSI
  3
"Amdt_StdImp|Product Description: AutoCAD Mechanical|Company: Autodesk, Inc."
 90
     1024
 91
        1
280
     0
281
     0
  0
CLASS
  1
ACMSECTIONSTANDARDANSI
  2
AmdtSectionSymStdANSI
  3
"Amdt_StdImp|Product Description: AutoCAD Mechanical|Company: Autodesk, Inc."
 90
     1024
 91
        1
280
     0
281
     0
  0
CLASS
  1
ACMCENTERLINESTANDARDANSI
  2
AmdtCenterLineStdANSI
  3
"Amdt_StdImp|Product Description: AutoCAD Mechanical|Company: Autodesk, Inc."
 90
     1024
 91
        1
280
     0
281
     0
  0
CLASS
  1
ACMNOTESTANDARDANSI
  2
AmdtNoteStdANSI
  3
"Amdt_StdImp|Product Description: AutoCAD Mechanical|Company: Autodesk, Inc."
 90
     1024
 91
        1
280
     0
281
     0
  0
CLASS
  1
ACAMGLAYSTD
  2
AcAmgLayStd
  3
"AmgLay|Product Description: AutoCAD Mechanical|Company: Autodesk, Inc."
 90
     1024
 91
        1
280
     0
281
     0
  0
CLASS
  1
ACAMGDIMSTD
  2
AcAmgDimStd
  3
"AmgDim|Product Description: AutoCAD Mechanical|Company: Autodesk, Inc."
 90
     1024
 91
        1
280
     0
281
     0
  0
CLASS
  1
ACAMGHOLECHARTSTDANSI
  2
AcAmgHoleChartStdANSI
  3
AmgDim|Product Description: AutoCAD Mechanical|Company: Autodesk, Inc.
 90
     1024
 91
        1
280
     0
281
     0
  0
CLASS
  1
ACAMGTITLESTD
  2
AcAmgTitleStd
  3
"AmgTitle|Product Description: AutoCAD Mechanical|Company: Autodesk, Inc."
 90
     4095
 91
        1
280
     0
281
     0
  0
CLASS
  1
LAYER_INDEX
  2
AcDbLayerIndex
  3
ObjectDBX Classes
 90
        0
 91
        0
280
     0
281
     0
  0
CLASS
  1
IDBUFFER
  2
AcDbIdBuffer
  3
ObjectDBX Classes
 90
        0
 91
        0
280
     0
281
     0
  0
CLASS
  1
DICTIONARYVAR
  2
AcDbDictionaryVar
  3
ObjectDBX Classes
 90
        0
 91
        9
280
     0
281
     0
  0
CLASS
  1
AM_DRAWING_MGR
  2
AcDmDwgMgr
  3
AcMechDwgViewMgmt
 90
     1024
 91
        1
280
     0
281
     0
  0
CLASS
  1
AM_DWG_DOCUMENT
  2
AcDmDwgDocument
  3
AcMechDwgViewMgmt
 90
     1024
 91
        1
280
     0
281
     0
  0
CLASS
  1
AM_DWG_SHEET
  2
AcDmSheet
  3
AcMechDwgViewMgmt
 90
     1024
 91
        2
280
     0
281
     0
  0
CLASS
  1
AM_VIEWDIMPARMAP
  2
AcDmViewDimParMap
  3
AcMechDwgViewMgmt
 90
     1024
 91
        2
280
     0
281
     0
  0
CLASS
  1
AM_DWGMGR_NAME
  2
AcDmDwgMgrName
  3
AcMechDwgViewMgmt
 90
     1024
 91
        1
280
     0
281
     0
  0
CLASS
  1
AMDTMENUSTATEMGR
  2
AmdtMenuStateMgr
  3
McadcomServices
 90
     1024
 91
        1
280
     0
281
     0
  0
CLASS
  1
AMDTMCOMMENUSTATE
  2
AmdtMcomMenuState
  3
McadcomServices
 90
     1024
 91
        1
280
     0
281
     0
  0
CLASS
  1
MAPIAMMOUDLE
  2
MApiAmModule
  3
MApiAmServices
 90
     1024
 91
        1
280
     0
281
     0
  0
CLASS
  1
AMDTADMENUSTATE
  2
AmdtAdMenuState
  3
DesignerServices
 90
     1024
 91
        1
280
     0
281
     0
  0
CLASS
  1
ADAPPL
  2
AcAdAppl
  3
DesignerServices
 90
     1024
 91
        1
280
     0
281
     0
  0
CLASS
  1
DEPMGR
  2
AcAdDepMgr
  3
DesignerServices
 90
     1024
 91
        1
280
     0
281
     0
  0
CLASS
  1
PARAMMGR
  2
AcAdParamMgr
  3
DesignerServices
 90
     1024
 91
        1
280
     0
281
     0
  0
CLASS
  1
PARAMSCOPE
  2
AcAdParamScope
  3
DesignerServices
 90
     1024
 91
        1
280
     0
281
     0
  0
CLASS
  1
NAMEDAPPL
  2
AcAdNamedAppl
  3
DesignerServices
 90
     1024
 91
        1
280
     0
281
     0
  0
CLASS
  1
AMDTDMMENUSTATE
  2
AmdtDmMenuState
  3
AcMechDwgViewMgmt
 90
     1024
 91
        1
280
     0
281
     0
  0
CLASS
  1
AMDTAMMENUSTATE
  2
AmdtAmMenuState
  3
DesignerAssemblies
 90
     1024
 91
        1
280
     0
281
     0
  0
CLASS
  1
ACAMPROJECT
  2
AcAmProject
  3
DesignerAssemblies
 90
     1024
 91
        1
280
     0
281
     0
  0
CLASS
  1
ACAMGRCOMPDEF
  2
AcAmGrCompDef
  3
DesignerAssemblies
 90
     1024
 91
        1
280
     0
281
     0
  0
CLASS
  1
ACCMCONTEXT
  2
AcCmContext
  3
DesignerAssemblies
 90
     1024
 91
        1
280
     0
281
     0
  0
CLASS
  1
ACAMCOMPDEF
  2
AcAmCompDef
  3
DesignerAssemblies
 90
     1024
 91
        1
280
     0
281
     0
  0
CLASS
  1
ACAMCOMPDEFMGR
  2
AcAmCompDefMgr
  3
DesignerAssemblies
 90
     1024
 91
        1
280
     0
281
     0
  0
CLASS
  1
AMCONTEXTMGR
  2
AcAmContextMgr
  3
DesignerAssemblies
 90
     1024
 91
        1
280
     0
281
     0
  0
CLASS
  1
ACAMCONTEXTMODELER
  2
AcAmContextModeler
  3
DesignerAssemblies
 90
     1024
 91
        1
280
     0
281
     0
  0
CLASS
  1
ACMTHREADLINESTANDARDANSI
  2
AmdtThreadLineStdANSI
  3
"Amdt_StdImp|Product Description: AutoCAD Mechanical|Company: Autodesk, Inc."
 90
     1024
 91
        1
280
     0
281
     0
  0
CLASS
  1
CATALOGSTATE
  2
AcAmCatalogState
  3
DesignerAssemblies
 90
     1024
 91
        1
280
     0
281
     0
  0
CLASS
  1
ACAMGRCOMPDEFSET
  2
AcAmGrCompDefSet
  3
DesignerAssemblies
 90
     1024
 91
        1
280
     0
281
     0
  0
CLASS
  1
AMDTBROWSERDBTAB
  2
AmdtBrowserDbTab
  3
McadcomServices
 90
     1024
 91
        1
280
     0
281
     0
  0
CLASS
  1
CBROWSERAPPOBJECT
  2
CBrowserAppObject
  3
McadcomServices
 90
     1024
 91
        3
280
     0
281
     0
  0
CLASS
  1
DM_PLACEHOLDER
  2
AcDmSelsetPlaceholder
  3
AcMechDwgViewMgmt
 90
     1024
 91
        1
280
     0
281
     0
  0
CLASS
  1
TABLESTYLE
  2
AcDbTableStyle
  3
ObjectDBX Classes
 90
     4095
 91
        1
280
     0
281
     0
  0
CLASS
  1
AMDTNOTETEMPLATEDB
  2
AmdtNoteTemplateDB
  3
AcmSymBB|Product Description: AutoCAD Mechanical|Company: Autodesk, Inc.
 90
     1024
 91
        6
280
     0
281
     0
  0
CLASS
  1
MATERIAL
  2
AcDbMaterial
  3
ObjectDBX Classes
 90
     1153
 91
        3
280
     0
281
     0
  0
CLASS
  1
VISUALSTYLE
  2
AcDbVisualStyle
  3
ObjectDBX Classes
 90
     4095
 91
       16
280
     0
281
     0
  0
CLASS
  1
ACRFATTGENMGR
  2
AcRfAttGeneralMgr
  3
AcAttribServices
 90
     1024
 91
        1
280
     0
281
     0
  0
CLASS
  1
ACRFOBJATTMGR
  2
AcRfObjAttGroupMgr
  3
AcAttribServices
 90
     1024
 91
        1
280
     0
281
     0
  0
CLASS
  1
ACRFMCADAPIATTHOLDER
  2
AcRfMCADAPIAttHolder
  3
AcAttribServices
 90
     1024
 91
        1
280
     0
281
     0
  0
CLASS
  1
AMDTSYSATTR
  2
AmdtSystemAttribute
  3
AcAttribServices
 90
     1024
 91
        2
280
     0
281
     0
  0
CLASS
  1
ACMTAPERSTANDARDANSI
  2
AcmTaperStdANSI
  3
"Amdt_StdImp|Product Description: AutoCAD Mechanical|Company: Autodesk, Inc."
 90
     1024
 91
        1
280
     0
281
     0
  0
CLASS
  1
CAMSSTRUCTBTNSTATE
  2
StructBtnState
  3
DesignerAssemblies
 90
     1024
 91
        1
280
     0
281
     0
  0
CLASS
  1
SCALE
  2
AcDbScale
  3
ObjectDBX Classes
 90
     1153
 91
       33
280
     0
281
     0
  0
CLASS
  1
MLEADERSTYLE
  2
AcDbMLeaderStyle
  3
ACDB_MLEADERSTYLE_CLASS
 90
     4095
 91
        1
280
     0
281
     0
  0
CLASS
  1
ACMANOOTATIONVIEWSTANDARDANSI
  2
AmdtAnViewStdANSI
  3
"Amdt_StdImp|Product Description: AutoCAD Mechanical|Company: Autodesk, Inc."
 90
     1024
 91
        1
280
     0
281
     0
  0
CLASS
  1
CELLSTYLEMAP
  2
AcDbCellStyleMap
  3
ObjectDBX Classes
 90
     1152
 91
        3
280
     0
281
     0
  0
CLASS
  1
EXACXREFPANELOBJECT
  2
ExAcXREFPanelObject
  3
EXAC_ESW
 90
     1025
 91
        1
280
     0
281
     0
  0
CLASS
  1
NPOCOLLECTION
  2
AcDbImpNonPersistentObjectsCollection
  3
ObjectDBX Classes
 90
     1153
 91
        1
280
     0
281
     0
  0
CLASS
  1
SORTENTSTABLE
  2
AcDbSortentsTable
  3
ObjectDBX Classes
 90
        0
 91
        0
280
     0
281
     0
  0
CLASS
  1
ACAMGFILTERDAT
  2
AcAmgFilterDat
  3
"AcadM|Product Description: AutoCAD Mechanical|Company: Autodesk, Inc."
 90
     1024
 91
        6
280
     0
281
     0
  0
ENDSEC
  0
SECTION
  2
TABLES
  0
TABLE
  2
VPORT
  5
8
102
{ACAD_XDICTIONARY
360
105E
102
}
330
0
100
AcDbSymbolTable
 70
     1
  0
VPORT
  5
291
330
8
100
AcDbSymbolTableRecord
100
AcDbViewportTableRecord
  2
*Active
 70
     0
 10
0.0
 20
0.0
 11
1.0
 21
1.0
 12
150.5685469120911
 22
108.7217959505621
 13
0.0
 23
0.0
 14
0.125
 24
0.125
 15
1.0
 25
1.0
 16
0.0
 26
0.0
 36
1.0
 17
0.0
 27
0.0
 37
0.0
 40
43.28999104642263
 41
1.442643391521196
 42
50.0
 43
0.0
 44
0.0
 50
0.0
 51
0.0
 71
     0
 72
   100
 73
     1
 74
     3
 75
     0
 76
     0
 77
     0
 78
     0
281
     0
 65
     1
110
0.0
120
0.0
130
0.0
111
1.0
121
0.0
131
0.0
112
0.0
122
1.0
132
0.0
 79
     0
146
0.0
348
29C
 60
     3
 61
     5
292
     1
282
     0
141
0.0
142
0.0
 63
   250
421
  3355443
  0
ENDTAB
  0
TABLE
  2
LTYPE
  5
5
330
0
100
AcDbSymbolTable
 70
    16
  0
LTYPE
  5
14
330
5
100
AcDbSymbolTableRecord
100
AcDbLinetypeTableRecord
  2
ByBlock
 70
     0
  3

 72
    65
 73
     0
 40
0.0
  0
LTYPE
  5
15
330
5
100
AcDbSymbolTableRecord
100
AcDbLinetypeTableRecord
  2
ByLayer
 70
     0
  3

 72
    65
 73
     0
 40
0.0
  0
LTYPE
  5
16
330
5
100
AcDbSymbolTableRecord
100
AcDbLinetypeTableRecord
  2
Continuous
 70
     0
  3
Solid line
 72
    65
 73
     0
 40
0.0
  0
LTYPE
  5
6C
330
5
100
AcDbSymbolTableRecord
100
AcDbLinetypeTableRecord
  2
AM_ISO02W050
 70
     0
  3
__ __ __ __ __ __ __ __ __ __ __ __ __ __ __
 72
    65
 73
     2
 40
7.5
 49
6.0
 74
     0
 49
-1.5
 74
     0
  0
LTYPE
  5
6D
330
5
100
AcDbSymbolTableRecord
100
AcDbLinetypeTableRecord
  2
AM_ISO08W050
 70
     0
  3
____ . ____ . ____ . ____ . ____ . ____ . ____
 72
    65
 73
     4
 40
18.0
 49
12.0
 74
     0
 49
-1.5
 74
     0
 49
3.0
 74
     0
 49
-1.5
 74
     0
  0
LTYPE
  5
6E
330
5
100
AcDbSymbolTableRecord
100
AcDbLinetypeTableRecord
  2
AM_ISO09W050
 70
     0
  3
_____ . . _____ . . _____ . . ____ .. ____
 72
    65
 73
     6
 40
22.5
 49
12.0
 74
     0
 49
-1.5
 74
     0
 49
3.0
 74
     0
 49
-1.5
 74
     0
 49
3.0
 74
     0
 49
-1.5
 74
     0
  0
LTYPE
  5
6F
330
5
100
AcDbSymbolTableRecord
100
AcDbLinetypeTableRecord
  2
Amconstr
 70
     0
  3
_______________________
 72
    65
 73
     2
 40
9999.0
 49
9999.0
 74
     0
 49
0.0
 74
     0
  0
LTYPE
  5
70
330
5
100
AcDbSymbolTableRecord
100
AcDbLinetypeTableRecord
  2
AM_ISO08W050x2
 70
     0
  3
__ . __ . __ . __ . __ . __
 72
    65
 73
     4
 40
9.0
 49
6.0
 74
     0
 49
-0.75
 74
     0
 49
1.5
 74
     0
 49
-0.75
 74
     0
  0
LTYPE
  5
71
330
5
100
AcDbSymbolTableRecord
100
AcDbLinetypeTableRecord
  2
AM_ISO02W050x2
 70
     0
  3
 _ _ _ _ _ _ _ _ _ _ _ _
 72
    65
 73
     2
 40
3.75
 49
3.0
 74
     0
 49
-0.75
 74
     0
  0
LTYPE
  5
74
330
5
100
AcDbSymbolTableRecord
100
AcDbLinetypeTableRecord
  2
Amzigzag
 70
     0
  3
/\/-/\/-/\/-/\/-/\/-/\/
 72
    65
 73
     2
 40
11.0001
 49
0.0001
 74
     4
 75
   136
340
254
 46
0.04
 50
0.0
 44
0.0
 45
0.0
 49
-11.0
 74
     0
  0
LTYPE
  5
75
330
5
100
AcDbSymbolTableRecord
100
AcDbLinetypeTableRecord
  2
HIDDEN
 70
     0
  3
Hidden __ __ __ __ __ __ __ __ __ __ __ __ __ _
 72
    65
 73
     2
 40
0.375
 49
0.25
 74
     0
 49
-0.125
 74
     0
  0
LTYPE
  5
76
330
5
100
AcDbSymbolTableRecord
100
AcDbLinetypeTableRecord
  2
CENTER
 70
     0
  3
Center ____ _ ____ _ ____ _ ____ _ ____ _ ____
 72
    65
 73
     4
 40
2.0
 49
1.25
 74
     0
 49
-0.25
 74
     0
 49
0.25
 74
     0
 49
-0.25
 74
     0
  0
LTYPE
  5
77
330
5
100
AcDbSymbolTableRecord
100
AcDbLinetypeTableRecord
  2
PHANTOM2
 70
     0
  3
Phantom (.5x) ___ _ _ ___ _ _ ___ _ _ ___ _ _
 72
    65
 73
     6
 40
1.25
 49
0.625
 74
     0
 49
-0.125
 74
     0
 49
0.125
 74
     0
 49
-0.125
 74
     0
 49
0.125
 74
     0
 49
-0.125
 74
     0
  0
LTYPE
  5
78
330
5
100
AcDbSymbolTableRecord
100
AcDbLinetypeTableRecord
  2
CENTER2
 70
     0
  3
Center (.5x) ___ _ ___ _ ___ _ ___ _ ___ _ ___
 72
    65
 73
     4
 40
1.125
 49
0.75
 74
     0
 49
-0.125
 74
     0
 49
0.125
 74
     0
 49
-0.125
 74
     0
  0
LTYPE
  5
79
330
5
100
AcDbSymbolTableRecord
100
AcDbLinetypeTableRecord
  2
HIDDEN2
 70
     0
  3
Hidden (.5x) _ _ _ _ _ _ _ _ _ _ _ _ _ _ _ _ _
 72
    65
 73
     2
 40
0.1875
 49
0.125
 74
     0
 49
-0.0625
 74
     0
  0
LTYPE
  5
7A
330
5
100
AcDbSymbolTableRecord
100
AcDbLinetypeTableRecord
  2
Amzigzag2
 70
     0
  3
/\/-/\/-/\/-/\/-/\/-/\/
 72
    65
 73
     2
 40
0.4401
 49
0.0001
 74
     4
 75
   136
340
254
 46
0.0016
 50
0.0
 44
0.0
 45
0.0
 49
-0.4400000000000001
 74
     0
  0
LTYPE
  5
87
330
5
100
AcDbSymbolTableRecord
100
AcDbLinetypeTableRecord
  2
ACANSTGB
 70
     0
  3
__ . . __ . .
 72
    65
 73
     6
 40
0.35433070866
 49
0.15748031496
 74
     0
 49
-0.03937007874
 74
     0
 49
0.03937007874
 74
     0
 49
-0.03937007874
 74
     0
 49
0.03937007874
 74
     0
 49
-0.03937007874
 74
     0
  0
LTYPE
  5
88
330
5
100
AcDbSymbolTableRecord
100
AcDbLinetypeTableRecord
  2
ACANSTGL
 70
     0
  3
_ _ _ _ _
 72
    65
 73
     2
 40
0.11811023622
 49
0.07874015748
 74
     0
 49
-0.03937007874
 74
     0
  0
ENDTAB
  0
TABLE
  2
LAYER
  5
2
330
0
100
AcDbSymbolTable
 70
     3
  0
LAYER
  5
10
102
{ACAD_XDICTIONARY
360
B0B
102
}
330
2
100
AcDbSymbolTableRecord
100
AcDbLayerTableRecord
  2
0
 70
     0
 62
     7
  6
Continuous
370
    -3
390
F
347
295
  0
LAYER
  5
38C
102
{ACAD_XDICTIONARY
360
B0D
102
}
330
2
100
AcDbSymbolTableRecord
100
AcDbLayerTableRecord
  2
SURFACE
 70
     0
 62
     7
  6
Continuous
370
    -3
390
F
347
295
  0
LAYER
  5
78F
102
{ACAD_XDICTIONARY
360
790
102
}
330
2
100
AcDbSymbolTableRecord
100
AcDbLayerTableRecord
  2
DRAFT_ENT
 70
     0
 62
     7
  6
Continuous
370
    -3
390
F
347
295
  0
ENDTAB
  0
TABLE
  2
STYLE
  5
3
330
0
100
AcDbSymbolTable
 70
     8
  0
STYLE
  5
11
330
3
100
AcDbSymbolTableRecord
100
AcDbTextStyleTableRecord
  2
STANDARD
 70
     0
 40
0.0
 41
1.0
 50
0.0
 71
     0
 42
0.2
  3
ROMANS.SHX
  4

  0
STYLE
  5
73
330
3
100
AcDbSymbolTableRecord
100
AcDbTextStyleTableRecord
  2

 70
     1
 40
0.0
 41
1.0
 50
0.0
 71
     0
 42
0.2
  3
ltypeshp.shx
  4

  0
STYLE
  5
7B
330
3
100
AcDbSymbolTableRecord
100
AcDbTextStyleTableRecord
  2
ACANSTS
 70
     0
 40
1.0
 41
1.0
 50
0.0
 71
     0
 42
0.2
  3
romans.shx
  4

  0
STYLE
  5
86
330
3
100
AcDbSymbolTableRecord
100
AcDbTextStyleTableRecord
  2
ACANSGDT
 70
     0
 40
0.0
 41
1.0
 50
0.0
 71
     0
 42
0.2
  3
amgdt.shx
  4

  0
STYLE
  5
13F
330
3
100
AcDbSymbolTableRecord
100
AcDbTextStyleTableRecord
  2
USER1
 70
     0
 40
0.0
 41
1.0
 50
0.0
 71
     0
 42
0.2
  3
TXT.SHX
  4

  0
STYLE
  5
140
330
3
100
AcDbSymbolTableRecord
100
AcDbTextStyleTableRecord
  2
USER2
 70
     0
 40
0.0
 41
1.0
 50
0.0
 71
     0
 42
0.2
  3
SIMPLEX.SHX
  4

  0
STYLE
  5
141
330
3
100
AcDbSymbolTableRecord
100
AcDbTextStyleTableRecord
  2
USER3
 70
     0
 40
0.0
 41
1.0
 50
0.0
 71
     0
 42
0.2
  3
ITALIC.SHX
  4

  0
STYLE
  5
254
330
3
100
AcDbSymbolTableRecord
100
AcDbTextStyleTableRecord
  2

 70
     1
 40
0.0
 41
1.0
 50
0.0
 71
     0
 42
0.2
  3
genltshp.shx
  4

  0
ENDTAB
  0
TABLE
  2
VIEW
  5
6
330
0
100
AcDbSymbolTable
 70
     0
  0
ENDTAB
  0
TABLE
  2
UCS
  5
7
330
0
100
AcDbSymbolTable
 70
     0
  0
ENDTAB
  0
TABLE
  2
APPID
  5
9
330
0
100
AcDbSymbolTable
 70
    15
  0
APPID
  5
12
330
9
100
AcDbSymbolTableRecord
100
AcDbRegAppTableRecord
  2
ACAD
 70
     0
  0
APPID
  5
4E
330
9
100
AcDbSymbolTableRecord
100
AcDbRegAppTableRecord
  2
MCAD_NO_VIS
 70
     0
  0
APPID
  5
4F
330
9
100
AcDbSymbolTableRecord
100
AcDbRegAppTableRecord
  2
ACAD_TEMP_GRAPHIC
 70
     0
  0
APPID
  5
60
330
9
100
AcDbSymbolTableRecord
100
AcDbRegAppTableRecord
  2
ACATTRIBSERVICES
 70
     0
  0
APPID
  5
F7
330
9
100
AcDbSymbolTableRecord
100
AcDbRegAppTableRecord
  2
AD_DRAW
 70
     0
  0
APPID
  5
115
330
9
100
AcDbSymbolTableRecord
100
AcDbRegAppTableRecord
  2
DESIGNERASSEMBLIES
 70
     0
  0
APPID
  5
11A
330
9
100
AcDbSymbolTableRecord
100
AcDbRegAppTableRecord
  2
ACADM_DIM_EDIT
 70
     0
  0
APPID
  5
11B
330
9
100
AcDbSymbolTableRecord
100
AcDbRegAppTableRecord
  2
AMDT_DM_ADJ
 70
     0
  0
APPID
  5
1D3
330
9
100
AcDbSymbolTableRecord
100
AcDbRegAppTableRecord
  2
ACAD_DSTYLE_DIMARC_LENGTH_SYMBOL
 70
     0
  0
APPID
  5
1D4
330
9
100
AcDbSymbolTableRecord
100
AcDbRegAppTableRecord
  2
ACAD_DSTYLE_DIMJOGGED_JOGANGLE_SYMBOL
 70
     0
  0
APPID
  5
2EE
330
9
100
AcDbSymbolTableRecord
100
AcDbRegAppTableRecord
  2
ACAD_MLEADERVER
 70
     0
  0
APPID
  5
1061
330
9
100
AcDbSymbolTableRecord
100
AcDbRegAppTableRecord
  2
ACAD_DSTYLE_DIM_LINETYPE
 70
     0
  0
APPID
  5
1062
330
9
100
AcDbSymbolTableRecord
100
AcDbRegAppTableRecord
  2
ACAD_DSTYLE_DIM_EXT1_LINETYPE
 70
     0
  0
APPID
  5
1063
330
9
100
AcDbSymbolTableRecord
100
AcDbRegAppTableRecord
  2
ACAD_DSTYLE_DIM_EXT2_LINETYPE
 70
     0
  0
APPID
  5
10B0
330
9
100
AcDbSymbolTableRecord
100
AcDbRegAppTableRecord
  2
ACAD_PSEXT
 70
     0
  0
ENDTAB
  0
TABLE
  2
DIMSTYLE
  5
A
330
0
100
AcDbSymbolTable
 70
     7
100
AcDbDimStyleTable
 71
     1
340
8C
  0
DIMSTYLE
105
27
330
A
100
AcDbSymbolTableRecord
100
AcDbDimStyleTableRecord
  2
Standard
 70
     0
340
11
  0
DIMSTYLE
105
8C
102
{ACAD_REACTORS
330
6A
102
}
330
A
100
AcDbSymbolTableRecord
100
AcDbDimStyleTableRecord
  2
AM_ANSI
 70
     0
  4
mm
 41
0.12
 42
0.05
 43
0.5
 44
0.1
 47
0.1
 48
0.1
 78
     7
 79
     2
 90
     1
140
0.12
141
0.0
146
0.71
147
0.06
176
   256
177
   256
178
   140
274
     4
284
     7
340
11
345
14
346
14
347
14
371
    -1
372
    -1
1001
ACAD_DSTYLE_DIMJOGGED_JOGANGLE_SYMBOL
1070
   384
1040
0.7853981633974483
  0
DIMSTYLE
105
8D
330
A
100
AcDbSymbolTableRecord
100
AcDbDimStyleTableRecord
  2
AM_ANSI$3
 70
     0
  4
mm
 41
0.12
 42
0.05
 43
0.5
 44
0.1
 47
0.1
 48
0.1
 78
     7
 79
     2
 90
     1
140
0.12
141
0.0
146
0.71
147
0.06
176
   256
177
   256
178
   140
274
     4
284
     7
288
     1
289
     0
340
11
345
14
346
14
347
14
371
    -1
372
    -1
1001
ACAD_DSTYLE_DIMJOGGED_JOGANGLE_SYMBOL
1070
   384
1040
0.7853981633974483
  0
DIMSTYLE
105
8E
330
A
100
AcDbSymbolTableRecord
100
AcDbDimStyleTableRecord
  2
AM_ANSI$4
 70
     0
  4
mm
 41
0.12
 42
0.05
 43
0.5
 44
0.1
 47
0.1
 48
0.1
 78
     7
 79
     2
 90
     1
140
0.12
141
0.0
146
0.71
147
0.06
176
   256
177
   256
178
   140
274
     4
284
     7
340
11
345
14
346
14
347
14
371
    -1
372
    -1
1001
ACAD_DSTYLE_DIMJOGGED_JOGANGLE_SYMBOL
1070
   384
1040
0.7853981633974483
  0
DIMSTYLE
105
8F
330
A
100
AcDbSymbolTableRecord
100
AcDbDimStyleTableRecord
  2
AM_ANSI$7
 70
     0
  4
mm
 41
0.12
 42
0.05
 43
0.5
 44
0.1
 47
0.1
 48
0.1
 78
     7
 79
     2
 90
     1
140
0.12
141
0.0
146
0.71
147
0.06
176
   256
177
   256
178
   140
274
     4
284
     7
340
11
345
14
346
14
347
14
371
    -1
372
    -1
1001
ACAD_DSTYLE_DIMJOGGED_JOGANGLE_SYMBOL
1070
   384
1040
0.7853981633974483
  0
DIMSTYLE
105
90
330
A
100
AcDbSymbolTableRecord
100
AcDbDimStyleTableRecord
  2
AM_ANSI$SF
 70
     0
  4
mm
 41
0.12
 42
0.05
 43
0.5
 44
0.1
 47
0.1
 48
0.1
 75
     1
 76
     1
 78
     7
 79
     2
 90
     1
140
0.12
141
0.0
146
0.71
147
0.06
176
   256
177
   256
178
   140
274
     4
284
     7
340
11
345
14
346
14
347
14
371
    -1
372
    -1
1001
ACAD_DSTYLE_DIMJOGGED_JOGANGLE_SYMBOL
1070
   384
1040
0.7853981633974483
  0
DIMSTYLE
105
95
330
A
100
AcDbSymbolTableRecord
100
AcDbDimStyleTableRecord
  2
AM_ANSI$SH
 70
     0
  4
mm
 41
0.12
 42
0.05
 43
0.5
 44
0.1
 47
0.1
 48
0.1
 75
     1
 76
     1
 78
     7
 79
     2
 90
     1
140
0.12
141
0.0
146
0.71
147
0.06
173
     1
176
   256
177
   256
178
   140
274
     4
284
     7
340
11
343
91
345
14
346
14
347
14
371
    -1
372
    -1
1001
ACAD_DSTYLE_DIMJOGGED_JOGANGLE_SYMBOL
1070
   384
1040
0.7853981633974483
  0
ENDTAB
  0
TABLE
  2
BLOCK_RECORD
  5
1
330
0
100
AcDbSymbolTable
 70
     4
  0
BLOCK_RECORD
  5
1F
102
{ACAD_XDICTIONARY
360
99
102
}
330
1
100
AcDbSymbolTableRecord
100
AcDbBlockTableRecord
  2
*Model_Space
340
22
 70
     0
280
     1
281
     0
  0
BLOCK_RECORD
  5
1B
330
1
100
AcDbSymbolTableRecord
100
AcDbBlockTableRecord
  2
*Paper_Space
340
1E
 70
     0
280
     1
281
     0
  0
BLOCK_RECORD
  5
23
330
1
100
AcDbSymbolTableRecord
100
AcDbBlockTableRecord
  2
*Paper_Space0
340
26
 70
     0
280
     1
281
     0
  0
BLOCK_RECORD
  5
91
330
1
100
AcDbSymbolTableRecord
100
AcDbBlockTableRecord
  2
GENAXEH
340
0
 70
     0
280
     1
281
     0
  0
ENDTAB
  0
ENDSEC
  0
SECTION
  2
BLOCKS
  0
BLOCK
  5
20
330
1F
100
AcDbEntity
  8
0
100
AcDbBlockBegin
  2
*Model_Space
 70
     0
 10
0.0
 20
0.0
 30
0.0
  3
*Model_Space
  1

  0
ENDBLK
  5
21
330
1F
100
AcDbEntity
  8
0
100
AcDbBlockEnd
  0
BLOCK
  5
1C
330
1B
100
AcDbEntity
 67
     1
  8
0
100
AcDbBlockBegin
  2
*Paper_Space
 70
     0
 10
0.0
 20
0.0
 30
0.0
  3
*Paper_Space
  1

  0
ENDBLK
  5
1D
330
1B
100
AcDbEntity
 67
     1
  8
0
100
AcDbBlockEnd
  0
BLOCK
  5
24
330
23
100
AcDbEntity
 67
     1
  8
0
100
AcDbBlockBegin
  2
*Paper_Space0
 70
     0
 10
0.0
 20
0.0
 30
0.0
  3
*Paper_Space0
  1

  0
ENDBLK
  5
25
330
23
100
AcDbEntity
 67
     1
  8
0
100
AcDbBlockEnd
  0
BLOCK
  5
93
330
91
100
AcDbEntity
  8
0
100
AcDbBlockBegin
  2
GENAXEH
 70
     0
 10
0.0
 20
0.0
 30
0.0
  3
GENAXEH
  1

  0
LINE
  5
92
330
91
100
AcDbEntity
  8
0
100
AcDbLine
 10
-1.0
 20
0.0
 30
0.0
 11
1.0
 21
0.0
 31
0.0
  0
ENDBLK
  5
94
330
91
100
AcDbEntity
  8
0
100
AcDbBlockEnd
  0
ENDSEC
  0
SECTION
  2
ENTITIES
  0
LINE
  5
F41
330
1F
100
AcDbEntity
  8
DRAFT_ENT
  6
Continuous
 62
     7
100
AcDbLine
 10
136.4122345302745
 20
107.7845330606544
 30
0.0
 11
136.4564044198495
 21
108.0477884025144
 31
0.0
  0
LINE
  5
F42
330
1F
100
AcDbEntity
  8
DRAFT_ENT
  6
Continuous
 62
     7
100
AcDbLine
 10
137.909461787197
 20
105.4633268636844
 30
0.0
 11
137.736472219672
 21
107.5996945227519
 31
0.0
  0
LINE
  5
F43
330
1F
100
AcDbEntity
  8
DRAFT_ENT
  6
Continuous
 62
     7
100
AcDbLine
 10
137.909461787197
 20
105.4633268636844
 30
0.0
 11
137.935805721337
 21
104.8743263361894
 31
0.0
  0
LINE
  5
F44
330
1F
100
AcDbEntity
  8
DRAFT_ENT
  6
Continuous
 62
     7
100
AcDbLine
 10
140.4521404304845
 20
95.45365188793441
 30
0.0
 11
140.9759851208695
 21
94.72831970126941
 31
0.0
  0
LINE
  5
F45
330
1F
100
AcDbEntity
  8
DRAFT_ENT
  6
Continuous
 62
     7
100
AcDbLine
 10
140.7247237490245
 20
93.65214039172441
 30
0.0
 11
140.8496294367595
 21
94.31830072631942
 31
0.0
  0
LINE
  5
F46
330
1F
100
AcDbEntity
  8
DRAFT_ENT
  6
Continuous
 62
     7
100
AcDbLine
 10
140.6156820216295
 20
100.8605503706544
 30
0.0
 11
141.916709769052
 21
99.01836997611692
 31
0.0
  0
LINE
  5
F47
330
1F
100
AcDbEntity
  8
DRAFT_ENT
  6
Continuous
 62
     7
100
AcDbLine
 10
139.018861013692
 20
98.12662520548443
 30
0.0
 11
139.5691006380895
 21
97.71391323726692
 31
0.0
  0
LINE
  5
F48
330
1F
100
AcDbEntity
  8
DRAFT_ENT
  6
Continuous
 62
     7
100
AcDbLine
 10
146.0630544031645
 20
105.5981365266594
 30
0.0
 11
146.0715943818145
 21
105.4430799143019
 31
0.0
  0
LINE
  5
F49
330
1F
100
AcDbEntity
  8
DRAFT_ENT
  6
Continuous
 62
     7
100
AcDbLine
 10
146.0630544031645
 20
105.5981365266594
 30
0.0
 11
145.9799266109845
 21
107.4756638328294
 31
0.0
  0
LINE
  5
F4A
330
1F
100
AcDbEntity
  8
DRAFT_ENT
  6
Continuous
 62
     7
100
AcDbLine
 10
140.426563494427
 20
104.3253057087444
 30
0.0
 11
140.860026410767
 21
104.6111939940219
 31
0.0
  0
LINE
  5
F4B
330
1F
100
AcDbEntity
  8
DRAFT_ENT
  6
Continuous
 62
     7
100
AcDbLine
 10
140.860026410767
 20
104.6111939940219
 30
0.0
 11
141.8013230575195
 21
105.2303934460194
 31
0.0
  0
LINE
  5
F4C
330
1F
100
AcDbEntity
  8
DRAFT_ENT
  6
Continuous
 62
     7
100
AcDbLine
 10
140.041736456497
 20
104.1321701915844
 30
0.0
 11
140.426563494427
 21
104.3253057087444
 31
0.0
  0
LINE
  5
F4D
330
1F
100
AcDbEntity
  8
DRAFT_ENT
  6
Continuous
 62
     7
100
AcDbLine
 10
141.8713048825646
 20
102.1339511871444
 30
0.0
 11
145.203275552617
 21
98.75250764077442
 31
0.0
  0
LINE
  5
F4E
330
1F
100
AcDbEntity
  8
DRAFT_ENT
  6
Continuous
 62
     7
100
AcDbLine
 10
140.7247237490245
 20
93.65214039172441
 30
0.0
 11
162.5996690615245
 21
93.65214039172441
 31
0.0
  0
LINE
  5
F4F
330
1F
100
AcDbEntity
  8
DRAFT_ENT
  6
Continuous
 62
     7
100
AcDbLine
 10
141.379055113192
 20
94.6521368917269
 30
0.0
 11
151.0848454718555
 21
94.6521368917269
 31
0.0
  0
LINE
  5
F50
330
1F
100
AcDbEntity
  8
DRAFT_ENT
  6
Continuous
 62
     7
100
AcDbLine
 10
143.746155195427
 20
104.3162207314569
 30
0.0
 11
147.2592854125795
 21
101.2002625213719
 31
0.0
  0
LINE
  5
F51
330
1F
100
AcDbEntity
  8
DRAFT_ENT
  6
Continuous
 62
     7
100
AcDbLine
 10
152.4166885190395
 20
101.8748998347744
 30
0.0
 11
152.0834360781727
 21
95.59910797469328
 31
0.0
  0
LINE
  5
F52
330
1F
100
AcDbEntity
  8
DRAFT_ENT
  6
Continuous
 62
     7
100
AcDbLine
 10
152.247041943157
 20
101.9045147607369
 30
0.0
 11
151.959966660847
 21
99.58409056181192
 31
0.0
  0
LINE
  5
F53
330
1F
100
AcDbEntity
  8
DRAFT_ENT
  6
Continuous
 62
     7
100
AcDbLine
 10
145.5195659406521
 20
96.96463125548262
 30
0.0
 11
142.568892129792
 21
96.96463212887437
 31
0.0
  0
LINE
  5
F54
330
1F
100
AcDbEntity
  8
0
  6
Continuous
 62
     7
100
AcDbLine
 10
147.4899295511677
 20
97.83530433018842
 30
0.0
 11
147.4862314041465
 21
97.83316920405958
 31
0.0
  0
LINE
  5
F55
330
1F
100
AcDbEntity
  8
DRAFT_ENT
  6
Continuous
 62
     7
100
AcDbLine
 10
152.1023413049095
 20
105.9621096167244
 30
0.0
 11
164.573837126092
 21
105.9621096167244
 31
0.0
  0
LINE
  5
F56
330
1F
100
AcDbEntity
  8
DRAFT_ENT
  6
Continuous
 62
     7
100
AcDbLine
 10
161.247055443067
 20
101.3939590371294
 30
0.0
 11
162.5996690615245
 21
93.65214039172441
 31
0.0
  0
LINE
  5
F57
330
1F
100
AcDbEntity
  8
DRAFT_ENT
  6
Continuous
 62
     7
100
AcDbLine
 10
139.2596454117295
 20
103.9610356194219
 30
0.0
 11
139.696059320692
 21
104.0402314214319
 31
0.0
  0
LINE
  5
F58
330
1F
100
AcDbEntity
  8
DRAFT_ENT
  6
Continuous
 62
     7
100
AcDbLine
 10
138.271418882302
 20
103.7968560298719
 30
0.0
 11
139.2596454117295
 21
103.9610356194219
 31
0.0
  0
LINE
  5
F59
330
1F
100
AcDbEntity
  8
DRAFT_ENT
  6
Continuous
 62
     7
100
AcDbLine
 10
145.730172235372
 20
107.7146052354744
 30
0.0
 11
136.471407382342
 21
107.7146052354744
 31
0.0
  0
LINE
  5
F5A
330
1F
100
AcDbEntity
  8
DRAFT_ENT
  6
Continuous
 62
     7
100
AcDbLine
 10
139.696059320692
 20
104.0402314214319
 30
0.0
 11
140.041736456497
 21
104.1321701915844
 31
0.0
  0
LINE
  5
F5B
330
1F
100
AcDbEntity
  8
DRAFT_ENT
  6
Continuous
 62
     7
100
AcDbLine
 10
163.7648841484795
 20
108.1521041417244
 30
0.0
 11
136.579681111657
 21
108.1521041417244
 31
0.0
  0
ARC
  5
F5C
330
1F
100
AcDbEntity
  8
DRAFT_ENT
  6
Continuous
 62
     7
100
AcDbCircle
 10
145.091227832737
 20
101.4713128437444
 30
0.0
 40
19.99995
100
AcDbArc
 50
13.14302800000018
 51
19.00256800000068
  0
ARC
  5
F5D
330
1F
100
AcDbEntity
  8
DRAFT_ENT
  6
Continuous
 62
     7
100
AcDbCircle
 10
145.440042960697
 20
96.71463273547443
 30
0.0
 40
10.9999725
100
AcDbArc
 50
60.52479199999936
 51
90.0
  0
ARC
  5
F5E
330
1F
100
AcDbEntity
  8
DRAFT_ENT
  6
Continuous
 62
     7
100
AcDbCircle
 10
141.381605106817
 20
101.2767043302669
 30
0.0
 40
3.937710155699999
100
AcDbArc
 50
143.3410359999995
 51
233.1279420000005
  0
ARC
  5
F5F
330
1F
100
AcDbEntity
  8
DRAFT_ENT
  6
Continuous
 62
     7
100
AcDbCircle
 10
141.3798701111545
 20
101.6483204012244
 30
0.0
 40
3.566090084752499
100
AcDbArc
 50
48.42869199999952
 51
81.84042099999896
  0
ARC
  5
F60
330
1F
100
AcDbEntity
  8
DRAFT_ENT
  6
Continuous
 62
     7
100
AcDbCircle
 10
139.0083810398921
 20
96.96438211109942
 30
0.0
 40
3.5605110987
100
AcDbArc
 50
0.9920439999998071
 51
35.23140300000004
  0
ARC
  5
F61
330
1F
100
AcDbEntity
  8
DRAFT_ENT
  6
Continuous
 62
     7
100
AcDbCircle
 10
142.630863983662
 20
97.02715695416191
 30
0.0
 40
2.687519281184999
100
AcDbArc
 50
180.993695
 51
215.8373570000003
  0
ARC
  5
F62
330
1F
100
AcDbEntity
  8
DRAFT_ENT
  6
Continuous
 62
     7
100
AcDbCircle
 10
146.562862153642
 20
100.4641233617244
 30
0.0
 40
1.562496093749999
100
AcDbArc
 50
25.78740299999994
 51
46.15619400000007
  0
ARC
  5
F63
330
1F
100
AcDbEntity
  8
DRAFT_ENT
  6
Continuous
 62
     7
100
AcDbCircle
 10
141.381585106867
 20
101.4014650183644
 30
0.0
 40
0.9376546558574998
100
AcDbArc
 50
90.11082700000043
 51
215.2314029999994
  0
ARC
  5
F64
330
1F
100
AcDbEntity
  8
DRAFT_ENT
  6
Continuous
 62
     7
100
AcDbCircle
 10
139.0068460437295
 20
96.96429911130692
 30
0.0
 40
0.9370446573824999
100
AcDbArc
 50
0.9936950000000246
 51
53.12794200000051
  0
ARC
  5
F65
330
1F
100
AcDbEntity
  8
DRAFT_ENT
  6
Continuous
 62
     7
100
AcDbCircle
 10
141.3811021080745
 20
101.6509203947244
 30
0.0
 40
0.6881982794999999
100
AcDbArc
 50
44.57778799999964
 51
90.11082700000043
  0
ARC
  5
F66
330
1F
100
AcDbEntity
  8
DRAFT_ENT
  6
Continuous
 62
     7
100
AcDbCircle
 10
141.379055113192
 20
94.08963829797691
 30
0.0
 40
0.56249859375
100
AcDbArc
 50
90.0
 51
169.3803449999997
  0
ARC
  5
F67
330
1F
100
AcDbEntity
  8
DRAFT_ENT
  6
Continuous
 62
     7
100
AcDbCircle
 10
140.874650374207
 20
94.65513388423442
 30
0.0
 40
0.1249996875
100
AcDbArc
 50
320.1543470000006
 51
35.83735700000026
  0
ARC
  5
F68
330
1F
100
AcDbEntity
  8
DRAFT_ENT
  6
Continuous
 62
     7
100
AcDbCircle
 10
142.6308269837545
 20
97.02710895428191
 30
0.0
 40
0.062477843805
100
AcDbArc
 50
180.9920439999998
 51
270.0
  0
ARC
  5
F69
330
1F
100
AcDbEntity
  8
DRAFT_ENT
  6
Continuous
 62
     7
100
AcDbCircle
 10
139.9338037263295
 20
104.9636921127744
 30
0.0
 40
1.999994999999999
100
AcDbArc
 50
182.5609869999996
 51
211.8319120000001
  0
ARC
  5
F6A
330
1F
100
AcDbEntity
  8
DRAFT_ENT
  6
Continuous
 62
     7
100
AcDbCircle
 10
138.0222105053245
 20
103.7769790795644
 30
0.0
 40
0.249999375
100
AcDbArc
 50
323.3410359999995
 51
31.83191200000005
  0
ARC
  5
F6B
330
1F
100
AcDbEntity
  8
DRAFT_ENT
  6
Continuous
 62
     7
100
AcDbCircle
 10
145.730172235372
 20
107.4646058604744
 30
0.0
 40
0.249999375
100
AcDbArc
 50
2.535118000000227
 51
90.0
  0
ARC
  5
F6C
330
1F
100
AcDbEntity
  8
DRAFT_ENT
  6
Continuous
 62
     7
100
AcDbCircle
 10
141.9037488014545
 20
105.3020432668944
 30
0.0
 40
0.1249996875
100
AcDbArc
 50
214.973910531325
 51
261.8404210000006
  0
ARC
  5
F6D
330
1F
100
AcDbEntity
  8
DRAFT_ENT
  6
Continuous
 62
     7
100
AcDbCircle
 10
137.611880531152
 20
107.5896055479744
 30
0.0
 40
0.1249996875
100
AcDbArc
 50
4.629346999999863
 51
90.0
  0
ARC
  5
F6E
330
1F
100
AcDbEntity
  8
DRAFT_ENT
  6
Continuous
 62
     7
100
AcDbCircle
 10
136.579681111657
 20
108.0271044542244
 30
0.0
 40
0.1249996875
100
AcDbArc
 50
90.0
 51
170.4753669999995
  0
ARC
  5
F6F
330
1F
100
AcDbEntity
  8
DRAFT_ENT
  6
Continuous
 62
     7
100
AcDbCircle
 10
136.471407382342
 20
107.7746050854744
 30
0.0
 40
0.05999985
100
AcDbArc
 50
170.4753669999995
 51
270.0
  0
ARC
  5
F70
330
1F
100
AcDbEntity
  8
DRAFT_ENT
  6
Continuous
 62
     7
100
AcDbCircle
 10
147.3855870968245
 20
100.9028902648044
 30
0.0
 40
3.063761340577499
100
AcDbArc
 50
224.5777880000014
 51
266.9017237416004
  0
ARC
  5
F71
330
1F
100
AcDbEntity
  8
DRAFT_ENT
  6
Continuous
 62
     7
100
AcDbCircle
 10
148.982672104102
 20
99.95243164095692
 30
0.0
 40
2.999992499999999
100
AcDbArc
 50
324.2744229999993
 51
352.9473869999999
  0
ARC
  5
F72
330
1F
100
AcDbEntity
  8
DRAFT_ENT
  6
Continuous
 62
     7
100
AcDbCircle
 10
145.517577391842
 20
94.65213789172441
 30
0.0
 40
2.312494218749999
100
AcDbArc
 50
359.999975223446
 51
90.0
  0
ARC
  5
F73
330
1F
100
AcDbEntity
  8
DRAFT_ENT
  6
Continuous
 62
     7
100
AcDbCircle
 10
151.0848454718555
 20
95.65213439172692
 30
0.0
 40
0.9999974999999999
100
AcDbArc
 50
270.0
 51
356.9603768876994
  0
ARC
  5
F74
330
1F
100
AcDbEntity
  8
DRAFT_ENT
  6
Continuous
 62
     7
100
AcDbCircle
 10
147.8813998572895
 20
101.9016737678394
 30
0.0
 40
0.9375526561124999
100
AcDbArc
 50
228.4286919999996
 51
270.0373030000002
  0
ARC
  5
F75
330
1F
100
AcDbEntity
  8
DRAFT_ENT
  6
Continuous
 62
     7
100
AcDbCircle
 10
152.9159832707995
 20
101.8483869010569
 30
0.0
 40
0.49999875
100
AcDbArc
 50
90.32139899999984
 51
176.9603739999995
  0
ARC
  5
F76
330
1F
100
AcDbEntity
  8
DRAFT_ENT
  6
Continuous
 62
     7
100
AcDbCircle
 10
152.7432577026145
 20
101.8431249142119
 30
0.0
 40
0.49999875
100
AcDbArc
 50
91.64925899999966
 51
172.9473870000006
  0
ARC
  5
F77
330
1F
100
AcDbEntity
  8
DRAFT_ENT
  6
Continuous
 62
     7
100
AcDbCircle
 10
151.339860211117
 20
98.10326726387941
 30
0.0
 40
0.1249996875
100
AcDbArc
 50
51.22978467773839
 51
108.5495409999996
  0
ARC
  5
F78
330
1F
100
AcDbEntity
  8
DRAFT_ENT
  6
Continuous
 62
     7
100
AcDbCircle
 10
147.857204917777
 20
101.0894817983244
 30
0.0
 40
0.1249996875
100
AcDbArc
 50
268.2936479999995
 51
25.78740299999994
  0
ARC
  5
F79
330
1F
100
AcDbEntity
  8
DRAFT_ENT
  6
Continuous
 62
     7
100
AcDbCircle
 10
147.979678611592
 20
108.1170092294619
 30
0.0
 40
10.43747390625
100
AcDbArc
 50
277.5409299999999
 51
288.5495409999997
  0
ARC
  5
F7A
330
1F
100
AcDbEntity
  8
DRAFT_ENT
  6
Continuous
 62
     7
100
AcDbCircle
 10
156.491321332432
 20
106.0514823932919
 30
0.0
 40
10.43747390625
100
AcDbArc
 50
183.3416759999993
 51
189.4114020000003
  0
ARC
  5
F7B
330
1F
100
AcDbEntity
  8
DRAFT_ENT
  6
Continuous
 62
     7
100
AcDbCircle
 10
158.035211472697
 20
109.9139927369919
 30
0.0
 40
7.999979999999998
100
AcDbArc
 50
299.5793409999997
 51
309.5332590000008
  0
ARC
  5
F7C
330
1F
100
AcDbEntity
  8
DRAFT_ENT
  6
Continuous
 62
     7
100
AcDbCircle
 10
148.5046142992495
 20
104.1516141429744
 30
0.0
 40
6.437483906249999
100
AcDbArc
 50
258.4891744113999
 51
277.5409299999999
  0
ARC
  5
F7D
330
1F
100
AcDbEntity
  8
DRAFT_ENT
  6
Continuous
 62
     7
100
AcDbCircle
 10
151.0653668973521
 20
105.1521116417244
 30
0.0
 40
4.93748765625
100
AcDbArc
 50
189.4114020000003
 51
226.156194
  0
ARC
  5
F7E
330
1F
100
AcDbEntity
  8
DRAFT_ENT
  6
Continuous
 62
     7
100
AcDbCircle
 10
152.1023413049095
 20
108.5021032667244
 30
0.0
 40
2.539993649999999
100
AcDbArc
 50
240.5247919999994
 51
270.0
  0
ARC
  5
F7F
330
1F
100
AcDbEntity
  8
DRAFT_ENT
  6
Continuous
 62
     7
100
AcDbCircle
 10
148.031090483062
 20
243.2869423037844
 30
0.0
 40
141.0222944433825
100
AcDbArc
 50
271.9090069999999
 51
275.6782940000004
  0
ARC
  5
F80
330
1F
100
AcDbEntity
  8
DRAFT_ENT
  6
Continuous
 62
     7
100
AcDbCircle
 10
160.2630469030945
 20
107.2146064854744
 30
0.0
 40
4.499988749999999
100
AcDbArc
 50
309.5332590000008
 51
342.8396049999998
  0
ARC
  5
F81
330
1F
100
AcDbEntity
  8
DRAFT_ENT
  6
Continuous
 62
     7
100
AcDbCircle
 10
162.7246687490245
 20
101.6521203917244
 30
0.0
 40
1.499996249999999
100
AcDbArc
 50
119.5793409999996
 51
189.9104139999994
  0
ARC
  5
F82
330
1F
100
AcDbEntity
  8
DRAFT_ENT
  6
Continuous
 62
     7
100
AcDbCircle
 10
163.7648841484795
 20
107.9021047667244
 30
0.0
 40
0.249999375
100
AcDbArc
 50
19.00256800000068
 51
90.0
  0
ARC
  5
F83
330
1F
100
AcDbEntity
  8
DRAFT_ENT
  6
Continuous
 62
     7
100
AcDbCircle
 10
164.323837751092
 20
105.9606566203569
 30
0.0
 40
0.249999375
100
AcDbArc
 50
342.8396049999998
 51
13.12959599999993
  0
ARC
  5
F9C
330
1F
100
AcDbEntity
  8
0
100
AcDbCircle
 10
141.6010679097338
 20
94.12105997646653
 30
0.0
 40
0.7768936169568922
100
AcDbArc
 50
144.2423604781929
 51
165.2925413481602
  0
LINE
  5
FB3
330
1F
100
AcDbEntity
  8
SURFACE
  6
Continuous
 62
     7
100
AcDbLine
 10
136.3947852663355
 20
108.2496656054956
 30
0.0
 11
137.1810501789355
 21
108.2496656054956
 31
0.0
  0
LINE
  5
FB4
330
1F
100
AcDbEntity
  8
0
  6
Continuous
 62
     7
100
AcDbLine
 10
136.0534876966355
 20
108.2496656054956
 30
0.0
 11
139.3656558630355
 21
108.2496656054956
 31
0.0
  0
LINE
  5
FB5
330
1F
100
AcDbEntity
  8
SURFACE
  6
Continuous
 62
     7
100
AcDbLine
 10
139.3656558630355
 20
108.2496656054956
 30
0.0
 11
142.5695286618355
 21
108.2496656054956
 31
0.0
  0
LINE
  5
FB6
330
1F
100
AcDbEntity
  8
SURFACE
  6
Continuous
 62
     7
100
AcDbLine
 10
135.6607734023355
 20
117.4493496669956
 30
0.0
 11
135.8029896098355
 21
109.3017885965956
 31
0.0
  0
LINE
  5
FB7
330
1F
100
AcDbEntity
  8
0
  6
Continuous
 62
     7
100
AcDbLine
 10
135.6227341244355
 20
119.6286184367956
 30
0.0
 11
135.8173032017355
 21
108.4817634622956
 31
0.0
  0
LINE
  5
FB8
330
1F
100
AcDbEntity
  8
0
  6
Continuous
 62
     7
100
AcDbLine
 10
135.6490940155355
 20
121.6371184510956
 30
0.0
 11
135.6184596156355
 21
119.8820748548956
 31
0.0
  0
LINE
  5
FB9
330
1F
100
AcDbEntity
  8
0
  6
Continuous
 62
     7
100
AcDbLine
 10
143.4245997620355
 20
119.6284876318956
 30
0.0
 11
143.3818149350355
 21
117.4496656054956
 31
0.0
  0
LINE
  5
FBA
330
1F
100
AcDbEntity
  8
SURFACE
  6
Continuous
 62
     7
100
AcDbLine
 10
143.0759601997355
 20
109.0646656033956
 30
0.0
 11
143.0759589297355
 21
109.0646418341956
 31
0.0
  0
LWPOLYLINE
  5
FBB
330
1F
100
AcDbEntity
  8
0
  6
Continuous
 62
     7
100
AcDbPolyline
 90
       16
 70
     0
 43
0.0
 10
142.8355052511355
 20
108.7496656101956
 10
142.8357206083355
 20
108.7515560084956
 10
142.8377738695355
 20
108.7635122746956
 10
142.8411169016355
 20
108.7756371304956
 10
142.8457466280355
 20
108.7876790282956
 10
142.8517893475355
 20
108.7998385028956
 10
142.8590493819355
 20
108.8117217044956
 10
142.8674123942355
 20
108.8232957286956
 10
142.8768377022355
 20
108.8346537671956
 10
142.8870727280355
 20
108.8456585236956
 10
142.8979741715355
 20
108.8563438270956
 10
142.9094323440355
 20
108.8667756924956
 10
142.9211878721355
 20
108.8768884968956
 10
142.9330806633355
 20
108.8867109468956
 10
142.9450167015355
 20
108.8963153414956
 10
142.9683700590355
 20
108.9148802265956
  0
LINE
  5
FBC
330
1F
100
AcDbEntity
  8
0
  6
Continuous
 62
     7
100
AcDbLine
 10
143.1016899634355
 20
119.6896656054956
 30
0.0
 11
143.1850367472355
 21
119.6973638508956
 31
0.0
  0
LINE
  5
FBD
330
1F
100
AcDbEntity
  8
0
  6
Continuous
 62
     7
100
AcDbLine
 10
143.3646113266355
 20
119.6896656054956
 30
0.0
 11
135.6837436212355
 21
119.6896656054956
 31
0.0
  0
LINE
  5
FBE
330
1F
100
AcDbEntity
  8
0
  6
Continuous
 62
     7
100
AcDbLine
 10
135.8653769063355
 20
119.7002835318956
 30
0.0
 11
135.9972176077355
 21
119.6896656054956
 31
0.0
  0
LWPOLYLINE
  5
FBF
330
1F
100
AcDbEntity
  8
0
  6
Continuous
 62
     7
100
AcDbPolyline
 90
       18
 70
     0
 43
0.0
 10
142.9683700590355
 20
108.9148802265956
 10
142.9795931608355
 20
108.9239183682956
 10
142.9905059429355
 20
108.9329242545956
 10
143.0010351350355
 20
108.9419339827956
 10
143.0111017748355
 20
108.9509721169956
 10
143.0207010041355
 20
108.9601279126956
 10
143.0298096563355
 20
108.9694842161956
 10
143.0382994666355
 20
108.9790182967956
 10
143.0460226896355
 20
108.9886554998956
 10
143.0529765854355
 20
108.9984773243956
 10
143.0590710348355
 20
109.0084401718956
 10
143.0641262534355
 20
109.0182441258956
 10
143.0682123165355
 20
109.0279230251956
 10
143.0713631857355
 20
109.0374061500956
 10
143.0735440605355
 20
109.0461607939956
 10
143.0749147786355
 20
109.0539451198956
 10
143.0756981431355
 20
109.0608586826956
 10
143.0759589297355
 20
109.0646418341956
  0
LWPOLYLINE
  5
FC0
330
1F
100
AcDbEntity
  8
0
  6
Continuous
 62
     7
100
AcDbPolyline
 90
       10
 70
     0
 43
0.0
 10
143.0006943915355
 20
121.8780793880956
 10
142.2335923140355
 20
121.9434233368956
 10
141.4352337072355
 20
121.9947838772956
 10
140.6363385668355
 20
122.0291835278956
 10
139.8365466910355
 20
122.0465920402956
 10
139.0362182814355
 20
122.0469557778956
 10
138.2364339432355
 20
122.0302744906956
 10
137.4375538782355
 20
121.9966019686956
 10
136.6392178844355
 20
121.9459692685956
 10
135.8755609224355
 20
121.8816488870956
  0
ARC
  5
FE0
330
1F
100
AcDbEntity
  8
SURFACE
  6
Continuous
 62
     7
100
AcDbCircle
 10
-105.9283527340644
 20
122.3455283662956
 30
0.0
 40
249.3582346252
100
AcDbArc
 50
356.9469723045993
 51
358.8749908372999
  0
ARC
  5
FE1
330
1F
100
AcDbEntity
  8
SURFACE
  6
Continuous
 62
     7
100
AcDbCircle
 10
42.30972969463553
 20
119.4234005772956
 30
0.0
 40
101.090851067
100
AcDbArc
 50
353.7741246822998
 51
353.9390952990001
  0
ARC
  5
FE2
330
1F
100
AcDbEntity
  8
SURFACE
  6
Continuous
 62
     7
100
AcDbCircle
 10
142.5695287457355
 20
108.4858860779956
 30
0.0
 40
0.2362204724
100
AcDbArc
 50
269.9999796444989
 51
353.7741187793999
  0
ARC
  5
FE3
330
1F
100
AcDbEntity
  8
0
  6
Continuous
 62
     7
100
AcDbCircle
 10
136.0534904824355
 20
108.4858860779956
 30
0.0
 40
0.2362204724
100
AcDbArc
 50
180.9999882077998
 51
269.9993243126
  0
ARC
  5
FE4
330
1F
100
AcDbEntity
  8
SURFACE
  6
Continuous
 62
     7
100
AcDbCircle
 10
136.0534904824355
 20
108.4858860779956
 30
0.0
 40
0.2362204724
100
AcDbArc
 50
180.9999882077998
 51
269.9993243126
  0
ARC
  5
FE5
330
1F
100
AcDbEntity
  8
0
  6
Continuous
 62
     7
100
AcDbCircle
 10
131.4384803772355
 20
119.4097092055956
 30
0.0
 40
12.0
100
AcDbArc
 50
2.268653711999508
 51
10.88822485859993
  0
ARC
  5
FE6
330
1F
100
AcDbEntity
  8
0
  6
Continuous
 62
     7
100
AcDbCircle
 10
135.7384413857355
 20
119.8799805661956
 30
0.0
 40
0.12
100
AcDbArc
 50
179.0000003892003
 51
269.9999776980003
  0
ARC
  5
FE7
330
1F
100
AcDbEntity
  8
0
  6
Continuous
 62
     7
100
AcDbCircle
 10
143.3091696379355
 20
119.8799805661956
 30
0.0
 40
0.12
100
AcDbArc
 50
269.9996244173994
 51
2.268668579599688
  0
ARC
  5
FE8
330
1F
100
AcDbEntity
  8
0
  6
Continuous
 62
     7
100
AcDbCircle
 10
135.6837432717355
 20
119.6239510365956
 30
0.0
 40
0.0657145689
100
AcDbArc
 50
89.99969525790017
 51
91.94977352879966
  0
ARC
  5
FE9
330
1F
100
AcDbEntity
  8
0
  6
Continuous
 62
     7
100
AcDbCircle
 10
135.6837270687355
 20
119.6243351825956
 30
0.0
 40
0.0653300942
100
AcDbArc
 50
91.94703408749935
 51
95.7977271538993
  0
ARC
  5
FEA
330
1F
100
AcDbEntity
  8
0
  6
Continuous
 62
     7
100
AcDbCircle
 10
135.6835798410355
 20
119.6256596796956
 30
0.0
 40
0.063997501
100
AcDbArc
 50
95.78637667589914
 51
101.8644500409989
  0
ARC
  5
FEB
330
1F
100
AcDbEntity
  8
0
  6
Continuous
 62
     7
100
AcDbCircle
 10
135.6832423179355
 20
119.6273399501956
 30
0.0
 40
0.0622837347
100
AcDbArc
 50
101.8783831809003
 51
107.0726416292002
  0
ARC
  5
FEC
330
1F
100
AcDbEntity
  8
0
  6
Continuous
 62
     7
100
AcDbCircle
 10
135.6830060069355
 20
119.6281456221956
 30
0.0
 40
0.0614441897
100
AcDbArc
 50
107.0825583881998
 51
109.1736146278008
  0
ARC
  5
FED
330
1F
100
AcDbEntity
  8
0
  6
Continuous
 62
     7
100
AcDbCircle
 10
135.6826993323355
 20
119.6289995587956
 30
0.0
 40
0.060536902
100
AcDbArc
 50
109.1649044875001
 51
114.5855277269007
  0
ARC
  5
FEE
330
1F
100
AcDbEntity
  8
0
  6
Continuous
 62
     7
100
AcDbCircle
 10
135.6827249857355
 20
119.6296656054956
 30
0.0
 40
0.06
100
AcDbArc
 50
131.9170931344996
 51
137.6444998037005
  0
ARC
  5
FEF
330
1F
100
AcDbEntity
  8
0
  6
Continuous
 62
     7
100
AcDbCircle
 10
135.6827249857355
 20
119.6296656054956
 30
0.0
 40
0.06
100
AcDbArc
 50
152.6744329133002
 51
180.9999999995001
  0
ARC
  5
FF0
330
1F
100
AcDbEntity
  8
0
  6
Continuous
 62
     7
100
AcDbCircle
 10
143.3646111413355
 20
119.6296656054956
 30
0.0
 40
0.06
100
AcDbArc
 50
358.8750492693999
 51
89.99982299989978
  0
ARC
  5
FF1
330
1F
100
AcDbEntity
  8
0
  6
Continuous
 62
     7
100
AcDbCircle
 10
135.6822714272355
 20
119.6299679040956
 30
0.0
 40
0.0594785931
100
AcDbArc
 50
118.3155794613988
 51
121.2623236545997
  0
ARC
  5
FF2
330
1F
100
AcDbEntity
  8
0
  6
Continuous
 62
     7
100
AcDbCircle
 10
135.6822213842355
 20
119.6300589202956
 30
0.0
 40
0.0593747304
100
AcDbArc
 50
114.5914437606998
 51
118.3147266978995
  0
ARC
  5
FF3
330
1F
100
AcDbEntity
  8
0
  6
Continuous
 62
     7
100
AcDbCircle
 10
135.6821628901355
 20
119.6301380311956
 30
0.0
 40
0.0592768425
100
AcDbArc
 50
121.2579848415
 51
126.8575854864989
  0
ARC
  5
FF4
330
1F
100
AcDbEntity
  8
0
  6
Continuous
 62
     7
100
AcDbCircle
 10
135.6817335747355
 20
119.6307179102956
 30
0.0
 40
0.0585553492
100
AcDbArc
 50
126.8618126375004
 51
129.3124517948994
  0
ARC
  5
FF5
330
1F
100
AcDbEntity
  8
0
  6
Continuous
 62
     7
100
AcDbCircle
 10
135.6812823004355
 20
119.6312677574956
 30
0.0
 40
0.0578440267
100
AcDbArc
 50
129.3116624200995
 51
131.9139285108996
  0
ARC
  5
FF6
330
1F
100
AcDbEntity
  8
0
  6
Continuous
 62
     7
100
AcDbCircle
 10
135.6808566427355
 20
119.6313735168956
 30
0.0
 40
0.0574686658
100
AcDbArc
 50
137.6478438832002
 51
144.4596072018995
  0
ARC
  5
FF7
330
1F
100
AcDbEntity
  8
0
  6
Continuous
 62
     7
100
AcDbCircle
 10
135.6804847406355
 20
119.6316330482956
 30
0.0
 40
0.0570151875
100
AcDbArc
 50
144.454586753401
 51
149.4563771946995
  0
ARC
  5
FF8
330
1F
100
AcDbEntity
  8
0
  6
Continuous
 62
     7
100
AcDbCircle
 10
135.6795711007355
 20
119.6321725937956
 30
0.0
 40
0.0559541281
100
AcDbArc
 50
149.4567591638
 51
153.4704697721002
  0
ARC
  5
FF9
330
1F
100
AcDbEntity
  8
0
  6
Continuous
 62
     7
100
AcDbCircle
 10
135.8678816814355
 20
119.7313828261956
 30
0.0
 40
0.0312
100
AcDbArc
 50
182.3889953543994
 51
265.3952676186993
  0
ARC
  5
FFA
330
1F
100
AcDbEntity
  8
0
  6
Continuous
 62
     7
100
AcDbCircle
 10
143.1821671741355
 20
119.7284316108956
 30
0.0
 40
0.0312
100
AcDbArc
 50
275.2771506487
 51
0.3204080685999548
  0
ARC
  5
FFB
330
1F
100
AcDbEntity
  8
0
  6
Continuous
 62
     7
100
AcDbCircle
 10
143.2445671078355
 20
119.7287805661956
 30
0.0
 40
0.0311999996
100
AcDbArc
 50
89.99982435619985
 51
180.3204086344996
  0
ARC
  5
FFC
330
1F
100
AcDbEntity
  8
0
  6
Continuous
 62
     7
100
AcDbCircle
 10
135.8055080672355
 20
119.7287805661956
 30
0.0
 40
0.0311999955
100
AcDbArc
 50
2.389053877100504
 51
90.00054056310025
  0
ARC
  5
FFD
330
1F
100
AcDbEntity
  8
0
  6
Continuous
 62
     7
100
AcDbCircle
 10
135.8990559393355
 20
121.6327553494956
 30
0.0
 40
0.25
100
AcDbArc
 50
95.39261895630005
 51
178.9999999999998
  0
ARC
  5
FFE
330
1F
100
AcDbEntity
  8
0
  6
Continuous
 62
     7
100
AcDbCircle
 10
142.9769523915355
 20
121.6292093105956
 30
0.0
 40
0.2499999976
100
AcDbArc
 50
10.88827292520054
 51
84.5506610071
  0
LINE
  5
103B
330
1F
100
AcDbEntity
  8
0
  6
Continuous
 62
     7
100
AcDbLine
 10
139.3226122741355
 20
119.6973638767956
 30
0.0
 11
139.3656574688355
 21
119.6973638526956
 31
0.0
  0
LINE
  5
103C
330
1F
100
AcDbEntity
  8
0
  6
Continuous
 62
     7
100
AcDbLine
 10
139.3656574688355
 20
119.6973638715956
 30
0.0
 11
139.4013608676355
 21
119.6973639360956
 31
0.0
  0
SPLINE
  5
103D
330
1F
100
AcDbEntity
  8
SURFACE
  6
Continuous
 62
     7
100
AcDbSpline
210
0.0
220
0.0
230
1.0
 70
     8
 71
     3
 72
    23
 73
    19
 74
    17
 42
0.0000000001
 43
0.0000000001
 44
0.0000000001
 12
-0.1056805346276441
 22
-0.9944001330454533
 32
0.0
 13
-0.3861260632231773
 23
0.9224460218895039
 33
0.0
 40
0.0
 40
0.0
 40
0.0
 40
0.0
 40
0.0272382549748957
 40
0.1203887347402827
 40
0.3042310463845697
 40
0.611568145768503
 40
1.06251124057458
 40
1.647012756121008
 40
2.353998062980773
 40
3.17702412062111
 40
4.106051830606207
 40
5.067251557079072
 40
5.967342830790318
 40
6.78547885651542
 40
7.53037567790405
 40
8.202240301880969
 40
8.810856967843212
 40
9.368137209164199
 40
9.368137209164199
 40
9.368137209164199
 40
9.368137209164199
 10
142.8355051452355
 20
108.7496646106956
 30
0.0
 10
142.8345456274528
 20
108.7406360359053
 30
0.0
 10
142.8168335779499
 20
108.8252733827783
 30
0.0
 10
142.7897972856671
 20
108.8698131010616
 30
0.0
 10
142.7226747912008
 20
109.0898096654674
 30
0.0
 10
142.6206904553149
 20
109.366456835732
 30
0.0
 10
142.4672857930908
 20
109.7963676035151
 30
0.0
 10
142.2648699066359
 20
110.3370393155632
 30
0.0
 10
142.0127041309569
 20
110.9965723181312
 30
0.0
 10
141.7134289955753
 20
111.7592205151265
 30
0.0
 10
141.3781690337373
 20
112.5993520272076
 30
0.0
 10
141.0290125698576
 20
113.4613980240239
 30
0.0
 10
140.6904234402023
 20
114.2878852788812
 30
0.0
 10
140.3764661947738
 20
115.0465276704944
 30
0.0
 10
140.0896447828662
 20
115.7340668855224
 30
0.0
 10
139.8277523661178
 20
116.3563273718451
 30
0.0
 10
139.5898660080105
 20
116.9208384498348
 30
0.0
 10
139.437384361
 20
117.2783119582675
 30
0.0
 10
139.3656575524355
 20
117.4496656054956
 30
0.0
 11
142.8355051452355
 21
108.7496646106956
 31
0.0
 11
142.8268898524355
 21
108.7755044880956
 31
0.0
 11
142.7970422818355
 21
108.8637435633956
 31
0.0
 11
142.7373163610355
 21
109.0376136583956
 31
0.0
 11
142.6354890418355
 21
109.3275917432956
 31
0.0
 11
142.4821660217355
 21
109.7516692435956
 31
0.0
 11
142.2782823309355
 21
110.2994588585956
 31
0.0
 11
142.0257423965355
 21
110.9598010468956
 31
0.0
 11
141.7256108341355
 21
111.7261514476956
 31
0.0
 11
141.3814285647355
 21
112.5890715200956
 31
0.0
 11
141.0207530299355
 21
113.4800362066956
 31
0.0
 11
140.6795499194355
 21
114.3129496105956
 31
0.0
 11
140.3667563725355
 21
115.0689302674956
 31
0.0
 11
140.0798929568355
 21
115.7563752872956
 31
0.0
 11
139.8195253786355
 21
116.3757385063956
 31
0.0
 11
139.5827946965355
 21
116.9364281087956
 31
0.0
 11
139.3656575524355
 21
117.4496656054956
 31
0.0
  0
SPLINE
  5
103E
330
1F
100
AcDbEntity
  8
SURFACE
  6
Continuous
 62
     7
100
AcDbSpline
210
0.0
220
0.0
230
1.0
 70
     8
 71
     3
 72
    25
 73
    21
 74
    19
 42
0.0000000001
 43
0.0000000001
 44
0.0000000001
 12
-0.0532706817670053
 22
-0.998580109187079
 32
0.0
 13
-0.4071629838470345
 23
0.9133555192720848
 33
0.0
 40
0.0
 40
0.0
 40
0.0
 40
0.0
 40
0.0195692728168059
 40
0.0870251340514153
 40
0.215650726784963
 40
0.4286470109854692
 40
0.7498540210448672
 40
1.180362673707862
 40
1.715136491497567
 40
2.343453030469542
 40
3.062791629678868
 40
3.86257161602266
 40
4.697983176407109
 40
5.508707548072716
 40
6.257171706807524
 40
6.94342443297398
 40
7.574459379186815
 40
8.150857535477609
 40
8.679531733040484
 40
9.169624067076714
 40
9.169624067076714
 40
9.169624067076714
 40
9.169624067076714
 10
143.0759601997355
 20
109.0646656033956
 30
0.0
 10
143.075612710234
 20
109.0581517745336
 30
0.0
 10
143.0589751810325
 20
109.118294416849
 30
0.0
 10
143.0387636150341
 20
109.1487892946846
 30
0.0
 10
142.9824725183196
 20
109.2993924584382
 30
0.0
 10
142.9008462613786
 20
109.4903325516917
 30
0.0
 10
142.7754147117735
 20
109.7932935561128
 30
0.0
 10
142.6076930679573
 20
110.1851290598757
 30
0.0
 10
142.3967692074616
 20
110.6737121088115
 30
0.0
 10
142.1450239583472
 20
111.2481147029522
 30
0.0
 10
141.8553592161727
 20
111.902818534947
 30
0.0
 10
141.5363555713854
 20
112.6198702346336
 30
0.0
 10
141.2040953130809
 20
113.3644116212041
 30
0.0
 10
140.8783093577134
 20
114.093097314242
 30
0.0
 10
140.572272751222
 20
114.7761534345524
 30
0.0
 10
140.2898539710855
 20
115.4041563654862
 30
0.0
 10
140.0305339315415
 20
115.9796580519069
 30
0.0
 10
139.7928285746617
 20
116.5072888226485
 30
0.0
 10
139.5725137125431
 20
116.991218613729
 30
0.0
 10
139.4321733714644
 20
117.3004560927473
 30
0.0
 10
139.3656575524355
 20
117.4496656054956
 30
0.0
 11
143.0759601997355
 21
109.0646656033956
 31
0.0
 11
143.0685590369355
 21
109.0827813210956
 31
0.0
 11
143.0434783486355
 21
109.1454012243956
 31
0.0
 11
142.9947824614355
 21
109.2644526992956
 31
0.0
 11
142.9135886746355
 21
109.4613663505956
 31
0.0
 11
142.7895777828355
 21
109.7576689695956
 31
0.0
 11
142.6209050842355
 21
110.1537588845956
 31
0.0
 11
142.4088115708355
 21
110.6446757591956
 31
0.0
 11
142.1568585447355
 21
111.2202635854956
 31
0.0
 11
141.8660067197355
 21
111.8781794130956
 31
0.0
 11
141.5410431449355
 21
112.6089644030956
 31
0.0
 11
141.2006538123355
 21
113.3718848297956
 31
0.0
 11
140.8697367589355
 21
114.1119982741956
 31
0.0
 11
140.5636288928355
 21
114.7950038167956
 31
0.0
 11
140.2822246072355
 21
115.4209067103956
 31
0.0
 11
140.0230588431355
 21
115.9962659112956
 31
0.0
 11
139.7859348281355
 21
116.5216296291956
 31
0.0
 11
139.5672835078355
 21
117.0029694335956
 31
0.0
 11
139.3656575524355
 21
117.4496656054956
 31
0.0
  0
LINE
  5
1043
330
1F
100
AcDbEntity
  8
0
100
AcDbLine
 10
135.7384413390263
 20
119.7599805661956
 30
0.0
 11
135.8055077728758
 21
119.7599805616942
 31
0.0
  0
LINE
  5
1044
330
1F
100
AcDbEntity
  8
0
100
AcDbLine
 10
143.3091696379355
 20
119.7599805661956
 30
0.0
 11
143.2445672034811
 21
119.7599805657954
 31
0.0
  0
LINE
  5
11AA
330
1F
100
AcDbEntity
  8
0
  6
Continuous
100
AcDbLine
 10
163.2309927582664
 20
109.8999013548488
 30
0.0
 11
163.1722407278664
 21
110.1558333644488
 31
0.0
  0
LINE
  5
11AB
330
1F
100
AcDbEntity
  8
0
  6
Continuous
100
AcDbLine
 10
163.2692711350664
 20
109.4043962256488
 30
0.0
 11
163.4579499194665
 21
108.5847970888488
 31
0.0
  0
LINE
  5
11AC
330
1F
100
AcDbEntity
  8
0
  6
Continuous
100
AcDbLine
 10
161.5368662274665
 20
109.6757923360488
 30
0.0
 11
161.5231572142664
 21
109.4841415324488
 31
0.0
  0
LINE
  5
11AD
330
1F
100
AcDbEntity
  8
0
  6
Continuous
100
AcDbLine
 10
161.4154047646665
 20
109.6973264844488
 30
0.0
 11
161.4149207990665
 21
109.6846827952488
 31
0.0
  0
LINE
  5
11AE
330
1F
100
AcDbEntity
  8
0
  6
Continuous
100
AcDbLine
 10
160.0494569718664
 20
108.4686275896488
 30
0.0
 11
160.0483306198665
 21
108.4557283360488
 31
0.0
  0
LINE
  5
11AF
330
1F
100
AcDbEntity
  8
0
  6
Continuous
100
AcDbLine
 10
160.3973103682665
 20
109.6837321620488
 30
0.0
 11
160.3963508494664
 21
109.6973264844488
 31
0.0
  0
LINE
  5
11B0
330
1F
100
AcDbEntity
  8
0
  6
Continuous
100
AcDbLine
 10
160.3995525766664
 20
109.6753569440488
 30
0.0
 11
160.4176519050664
 21
109.5239734284488
 31
0.0
  0
LINE
  5
11B1
330
1F
100
AcDbEntity
  8
0
  6
Continuous
100
AcDbLine
 10
160.0483289326664
 20
108.4557294116488
 30
0.0
 11
160.0467506294665
 21
108.4433107920488
 31
0.0
  0
LWPOLYLINE
  5
11B2
330
1F
100
AcDbEntity
  8
0
  6
Continuous
100
AcDbPolyline
 90
        4
 70
     0
 43
0.0
 10
160.0685307718664
 20
108.5260294908488
 10
160.0637523482664
 20
108.5176530172488
 10
160.0575644058665
 20
108.5038453168488
 10
160.0541958742665
 20
108.4938383900488
  0
LWPOLYLINE
  5
11B3
330
1F
100
AcDbEntity
  8
0
  6
Continuous
100
AcDbPolyline
 90
        8
 70
     0
 43
0.0
 10
160.0398140470664
 20
108.4165852992488
 10
160.0283164806665
 20
108.3914821892488
 10
160.0126113790665
 20
108.3687730948488
 10
159.9931815414664
 20
108.3491560976488
 10
159.9706242442664
 20
108.3332342072488
 10
159.9456329450664
 20
108.3214968728488
 10
159.9189759234665
 20
108.3143048836488
 10
159.8914726186665
 20
108.3118792796488
  0
LINE
  5
11B4
330
1F
100
AcDbEntity
  8
0
  6
Continuous
100
AcDbLine
 10
160.0542121082665
 20
108.4938943264488
 30
0.0
 11
160.0542556830664
 21
108.4940422668488
 31
0.0
  0
LWPOLYLINE
  5
11B5
330
1F
100
AcDbEntity
  8
0
  6
Continuous
100
AcDbPolyline
 90
        4
 70
     0
 43
0.0
 10
160.0542556830664
 20
108.4940422668488
 10
160.0525886130665
 20
108.4878173816488
 10
160.0500266066665
 20
108.4738945128488
 10
160.0494570250664
 20
108.4686281960488
  0
LINE
  5
11B6
330
1F
100
AcDbEntity
  8
0
  6
Continuous
100
AcDbLine
 10
160.0467506294665
 20
108.4433107920488
 30
0.0
 11
160.0398140470664
 21
108.4165852992488
 31
0.0
  0
LINE
  5
11B7
330
1F
100
AcDbEntity
  8
0
  6
Continuous
100
AcDbLine
 10
158.8725260102665
 20
108.4572908828488
 30
0.0
 11
158.8721087522665
 21
108.4612479548488
 31
0.0
  0
LINE
  5
11B8
330
1F
100
AcDbEntity
  8
0
  6
Continuous
100
AcDbLine
 10
158.8724360318665
 20
108.4582281980488
 30
0.0
 11
158.8720741722664
 21
108.4614951428488
 31
0.0
  0
LINE
  5
11B9
330
1F
100
AcDbEntity
  8
0
  6
Continuous
100
AcDbLine
 10
158.8721087522665
 20
108.4612479548488
 30
0.0
 11
158.8720778794664
 21
108.4615013208488
 31
0.0
  0
LINE
  5
11BA
330
1F
100
AcDbEntity
  8
0
  6
Continuous
100
AcDbLine
 10
158.8720741722664
 20
108.4614951428488
 30
0.0
 11
158.8664760490664
 21
108.4868897512488
 31
0.0
  0
LINE
  5
11BB
330
1F
100
AcDbEntity
  8
0
  6
Continuous
100
AcDbLine
 10
160.0685307718664
 20
108.5260294908488
 30
0.0
 11
160.0685463838665
 21
108.5260545188488
 31
0.0
  0
LINE
  5
11BC
330
1F
100
AcDbEntity
  8
0
  6
Continuous
100
AcDbLine
 10
158.8664760490664
 20
108.4868897512488
 30
0.0
 11
158.8566137778665
 21
108.5096381632488
 31
0.0
  0
LWPOLYLINE
  5
11BD
330
1F
100
AcDbEntity
  8
0
  6
Continuous
100
AcDbPolyline
 90
        5
 70
     0
 43
0.0
 10
158.8566137778665
 20
108.5096381632488
 10
158.8455319702665
 20
108.5260666852488
 10
158.8357626634665
 20
108.5363540428488
 10
158.8297278714665
 20
108.5410873040488
 10
158.8285604494665
 20
108.5418265852488
  0
LWPOLYLINE
  5
11BE
330
1F
100
AcDbEntity
  8
0
  6
Continuous
100
AcDbPolyline
 90
        7
 70
     0
 43
0.0
 10
160.1393284798664
 20
108.5847970888488
 10
160.1328266026664
 20
108.5824777360488
 10
160.1207093298665
 20
108.5766798440488
 10
160.1065106954664
 20
108.5677117292488
 10
160.0916855350665
 20
108.5554089172488
 10
160.0774753870664
 20
108.5397743100488
 10
160.0680919114664
 20
108.5262946588488
  0
LINE
  5
11BF
330
1F
100
AcDbEntity
  8
0
  6
Continuous
100
AcDbLine
 10
145.3551039538147
 20
108.6273347594573
 30
0.0
 11
145.3258617190664
 21
108.6301945804488
 31
0.0
  0
LINE
  5
11C0
330
1F
100
AcDbEntity
  8
0
  6
Continuous
100
AcDbLine
 10
159.8914413778665
 20
108.3118792772488
 30
0.0
 11
159.0295583382665
 21
108.3118792772488
 31
0.0
  0
LINE
  5
11C1
330
1F
100
AcDbEntity
  8
0
  6
Continuous
100
AcDbLine
 10
161.8899597362665
 20
109.4795300132488
 30
0.0
 11
161.9124285986664
 21
109.4826041472488
 31
0.0
  0
LINE
  5
11C2
330
1F
100
AcDbEntity
  8
0
  6
Continuous
100
AcDbLine
 10
161.9124285986664
 20
109.4826041472488
 30
0.0
 11
161.9308553398665
 21
109.4851908920488
 31
0.0
  0
LINE
  5
11C3
330
1F
100
AcDbEntity
  8
0
  6
Continuous
100
AcDbLine
 10
161.9308553398665
 20
109.4851908920488
 30
0.0
 11
161.9612002798665
 21
109.4895411380488
 31
0.0
  0
LINE
  5
11C4
330
1F
100
AcDbEntity
  8
0
  6
Continuous
100
AcDbLine
 10
161.9612002798665
 20
109.4895411380488
 30
0.0
 11
162.0048274374664
 21
109.4959147160488
 31
0.0
  0
LINE
  5
11C5
330
1F
100
AcDbEntity
  8
0
  6
Continuous
100
AcDbLine
 10
162.0048274374664
 20
109.4959147160488
 30
0.0
 11
162.1043550142665
 21
109.5106199364488
 31
0.0
  0
LINE
  5
11C6
330
1F
100
AcDbEntity
  8
0
  6
Continuous
100
AcDbLine
 10
162.0937513214665
 20
109.5090490788488
 30
0.0
 11
162.1835913594665
 21
109.5223921812488
 31
0.0
  0
LINE
  5
11C7
330
1F
100
AcDbEntity
  8
0
  6
Continuous
100
AcDbLine
 10
162.1835913594665
 20
109.5223921812488
 30
0.0
 11
162.2266672670664
 21
109.5288486608488
 31
0.0
  0
LINE
  5
11C8
330
1F
100
AcDbEntity
  8
0
  6
Continuous
100
AcDbLine
 10
162.2266672670664
 20
109.5288486608488
 30
0.0
 11
162.2572708514665
 21
109.5334966748488
 31
0.0
  0
LINE
  5
11C9
330
1F
100
AcDbEntity
  8
0
  6
Continuous
100
AcDbLine
 10
162.2572708514665
 20
109.5334966748488
 30
0.0
 11
162.2849779326665
 21
109.5377728524488
 31
0.0
  0
LINE
  5
11CA
330
1F
100
AcDbEntity
  8
0
  6
Continuous
100
AcDbLine
 10
162.2849779326665
 20
109.5377728524488
 30
0.0
 11
162.3169376570664
 21
109.5427884328488
 31
0.0
  0
LINE
  5
11CB
330
1F
100
AcDbEntity
  8
0
  6
Continuous
100
AcDbLine
 10
162.3169376570664
 20
109.5427884328488
 30
0.0
 11
162.3455165962665
 21
109.5473423104488
 31
0.0
  0
LINE
  5
11CC
330
1F
100
AcDbEntity
  8
0
  6
Continuous
100
AcDbLine
 10
162.3455165962665
 20
109.5473423104488
 30
0.0
 11
162.3904101934664
 21
109.5546142028488
 31
0.0
  0
LINE
  5
11CD
330
1F
100
AcDbEntity
  8
0
  6
Continuous
100
AcDbLine
 10
162.3857071122664
 20
109.5538485488488
 30
0.0
 11
162.3950578494665
 21
109.5553708724488
 31
0.0
  0
LINE
  5
11CE
330
1F
100
AcDbEntity
  8
0
  6
Continuous
100
AcDbLine
 10
162.3950578494665
 20
109.5553708724488
 30
0.0
 11
162.4512095250665
 21
109.5644330752488
 31
0.0
  0
LINE
  5
11CF
330
1F
100
AcDbEntity
  8
0
  6
Continuous
100
AcDbLine
 10
162.4512095250665
 20
109.5644330752488
 30
0.0
 11
162.4535431598665
 21
109.5648138036488
 31
0.0
  0
LWPOLYLINE
  5
11D0
330
1F
100
AcDbEntity
  8
0
  6
Continuous
100
AcDbPolyline
 90
        4
 70
     0
 43
0.0
 10
151.5586374394664
 20
109.5774551376488
 10
151.5446317834664
 20
109.5830662476488
 10
151.5320139602664
 20
109.5909710884488
 10
151.5209385702665
 20
109.6005258528488
  0
LINE
  5
11D1
330
1F
100
AcDbEntity
  8
0
  6
Continuous
100
AcDbLine
 10
150.9102652502664
 20
108.4460597284488
 30
0.0
 11
151.4165681266664
 21
108.4460597284488
 31
0.0
  0
LINE
  5
11D2
330
1F
100
AcDbEntity
  8
0
  6
Continuous
100
AcDbLine
 10
163.4579499194665
 20
108.5847970888488
 30
0.0
 11
146.6580879982665
 21
108.5847970888488
 31
0.0
  0
LINE
  5
11D3
330
1F
100
AcDbEntity
  8
0
  6
Continuous
100
AcDbLine
 10
146.1623810574665
 20
108.6952712040488
 30
0.0
 11
145.4190786306665
 21
108.6952712040488
 31
0.0
  0
LINE
  5
11D4
330
1F
100
AcDbEntity
  8
0
  6
Continuous
100
AcDbLine
 10
145.3140816694665
 20
108.6304607980488
 30
0.0
 11
144.1419505366665
 21
108.5691056736488
 31
0.0
  0
LINE
  5
11D5
330
1F
100
AcDbEntity
  8
0
  6
Continuous
100
AcDbLine
 10
152.6947580550664
 20
109.6973264844488
 30
0.0
 11
152.6920545542665
 21
109.6500034668488
 31
0.0
  0
LWPOLYLINE
  5
11D6
330
1F
100
AcDbEntity
  8
0
  6
Continuous
100
AcDbPolyline
 90
        6
 70
     0
 43
0.0
 10
151.5209385702665
 20
109.6005258528488
 10
151.5115433222664
 20
109.6113207176488
 10
151.5041028038664
 20
109.6229584400488
 10
151.4988337430665
 20
109.6352374324488
 10
151.4961481090664
 20
109.6475390044488
 10
151.4959074966665
 20
109.6504461004488
  0
LINE
  5
11D7
330
1F
100
AcDbEntity
  8
0
  6
Continuous
100
AcDbLine
 10
151.5733897194665
 20
109.5751134000488
 30
0.0
 11
151.5586374394664
 21
109.5774551376488
 31
0.0
  0
LWPOLYLINE
  5
11D8
330
1F
100
AcDbEntity
  8
0
  6
Continuous
100
AcDbPolyline
 90
        7
 70
     0
 43
0.0
 10
146.9089358922665
 20
109.5094145704488
 10
147.0378100598665
 20
109.5040578356488
 10
147.1983063038665
 20
109.4988023392488
 10
147.3581235158665
 20
109.4951024784488
 10
147.5171683302665
 20
109.4929134292488
 10
147.6753548546664
 20
109.4921897208488
 10
147.7940086442664
 20
109.4925850760488
  0
LINE
  5
11D9
330
1F
100
AcDbEntity
  8
0
  6
Continuous
100
AcDbLine
 10
161.3670062186664
 20
109.4886766836488
 30
0.0
 11
161.5780514870664
 21
109.4825472176488
 31
0.0
  0
LINE
  5
11DA
330
1F
100
AcDbEntity
  8
0
  6
Continuous
100
AcDbLine
 10
152.6051448398665
 20
109.5750955704488
 30
0.0
 11
152.6050892026665
 21
109.5750969100488
 31
0.0
  0
LINE
  5
11DB
330
1F
100
AcDbEntity
  8
0
  6
Continuous
100
AcDbLine
 10
160.1977811958664
 20
109.5281086408488
 30
0.0
 11
160.5206853094664
 21
109.5220356308488
 31
0.0
  0
LWPOLYLINE
  5
11DC
330
1F
100
AcDbEntity
  8
0
  6
Continuous
100
AcDbPolyline
 90
        4
 70
     0
 43
0.0
 10
161.5780542602665
 20
109.4825471564488
 10
161.6517621450665
 20
109.4812449960488
 10
161.7503406042665
 20
109.4800492556488
 10
161.8455568482665
 20
109.4795018060488
  0
LINE
  5
11DD
330
1F
100
AcDbEntity
  8
0
  6
Continuous
100
AcDbLine
 10
145.7451367426664
 20
109.5295246348488
 30
0.0
 11
145.7448602158665
 21
109.5295290468488
 31
0.0
  0
LINE
  5
11DE
330
1F
100
AcDbEntity
  8
0
  6
Continuous
100
AcDbLine
 10
151.5734215922665
 20
109.5751129516488
 30
0.0
 11
151.5747507978665
 21
109.5750956068488
 31
0.0
  0
LINE
  5
11DF
330
1F
100
AcDbEntity
  8
0
  6
Continuous
100
AcDbLine
 10
159.8900377374665
 20
109.5296906896488
 30
0.0
 11
160.1977811958664
 21
109.5281086408488
 31
0.0
  0
LWPOLYLINE
  5
11E0
330
1F
100
AcDbEntity
  8
0
  6
Continuous
100
AcDbPolyline
 90
        7
 70
     0
 43
0.0
 10
146.0680184322665
 20
109.5297799032488
 10
146.1636399018665
 20
109.5294146648488
 10
146.3024223138665
 20
109.5279460632488
 10
146.4493053486665
 20
109.5252193352488
 10
146.6044780594665
 20
109.5210767308488
 10
146.7682621202665
 20
109.5153629508488
 10
146.9089358922665
 20
109.5094145704488
  0
LINE
  5
11E1
330
1F
100
AcDbEntity
  8
0
  6
Continuous
100
AcDbLine
 10
145.9380196698664
 20
109.5299267956488
 30
0.0
 11
146.0668990062664
 21
109.5297923360488
 31
0.0
  0
LINE
  5
11E2
330
1F
100
AcDbEntity
  8
0
  6
Continuous
100
AcDbLine
 10
145.7451229790665
 20
109.5295248564488
 30
0.0
 11
145.7468020754664
 21
109.5295242384488
 31
0.0
  0
LINE
  5
11E3
330
1F
100
AcDbEntity
  8
0
  6
Continuous
100
AcDbLine
 10
160.3972794498664
 20
109.6855154608488
 30
0.0
 11
160.3358865482664
 21
109.6855154608488
 31
0.0
  0
LINE
  5
11E4
330
1F
100
AcDbEntity
  8
0
  6
Continuous
100
AcDbLine
 10
160.3983071150665
 20
109.6855154608488
 30
0.0
 11
161.5375444894665
 21
109.6855154608488
 31
0.0
  0
LINE
  5
11E5
330
1F
100
AcDbEntity
  8
0
  6
Continuous
100
AcDbLine
 10
145.7003715654665
 20
109.6971462660488
 30
0.0
 11
146.2435730142665
 21
109.6971462660488
 31
0.0
  0
LINE
  5
11E6
330
1F
100
AcDbEntity
  8
0
  6
Continuous
100
AcDbLine
 10
162.8955901450665
 20
109.6973264844488
 30
0.0
 11
146.2533062130665
 21
109.6973264844488
 31
0.0
  0
LWPOLYLINE
  5
11E7
330
1F
100
AcDbEntity
  8
0
  6
Continuous
100
AcDbPolyline
 90
        4
 70
     0
 43
0.0
 10
154.4682369186664
 20
109.5276179652488
 10
155.6295890086665
 20
109.5279465128488
 10
156.1912938166665
 20
109.5281924464488
 10
156.5755709190665
 20
109.5284761460488
  0
LINE
  5
11E8
330
1F
100
AcDbEntity
  8
0
  6
Continuous
100
AcDbLine
 10
152.6132320638664
 20
109.5750958532488
 30
0.0
 11
151.5747509926665
 21
109.5750956068488
 31
0.0
  0
LWPOLYLINE
  5
11E9
330
1F
100
AcDbEntity
  8
0
  6
Continuous
100
AcDbPolyline
 90
        6
 70
     0
 43
0.0
 10
156.5755666830665
 20
109.5284761404488
 10
157.0649029174665
 20
109.5291365188488
 10
157.6102094922664
 20
109.5296680260488
 10
158.1795918306664
 20
109.5291489792488
 10
158.7468838174665
 20
109.5288877832488
 10
159.3192143610665
 20
109.5292020520488
  0
LINE
  5
11EA
330
1F
100
AcDbEntity
  8
0
  6
Continuous
100
AcDbLine
 10
159.8900377374665
 20
109.5296906896488
 30
0.0
 11
159.3192143610665
 21
109.5292020520488
 31
0.0
  0
LWPOLYLINE
  5
11EB
330
1F
100
AcDbEntity
  8
0
  6
Continuous
100
AcDbPolyline
 90
        4
 70
     0
 43
0.0
 10
145.7912818070665
 20
109.5297829048488
 10
145.8295128454665
 20
109.5299095048488
 10
145.8714373942665
 20
109.5299722900488
 10
145.9376551918665
 20
109.5299256368488
  0
LWPOLYLINE
  5
11EC
330
1F
100
AcDbEntity
  8
0
  6
Continuous
100
AcDbPolyline
 90
        7
 70
     0
 43
0.0
 10
150.7523168826665
 20
109.5270532628488
 10
151.3176828926665
 20
109.5290602584488
 10
151.9328447198664
 20
109.5278600488488
 10
152.5835341306665
 20
109.5273692708488
 10
153.2709192542664
 20
109.5273320656488
 10
153.9321911558664
 20
109.5275260240488
 10
154.4682369186664
 20
109.5276179652488
  0
LINE
  5
11ED
330
1F
100
AcDbEntity
  8
0
  6
Continuous
100
AcDbLine
 10
161.8455568482665
 20
109.4795018060488
 30
0.0
 11
161.9374683598664
 21
109.4795604524488
 31
0.0
  0
LINE
  5
11EE
330
1F
100
AcDbEntity
  8
0
  6
Continuous
100
AcDbLine
 10
145.7454948832463
 20
109.5295189206966
 30
0.0
 11
145.8348992702035
 21
109.5300343809924
 31
0.0
  0
LWPOLYLINE
  5
11EF
330
1F
100
AcDbEntity
  8
0
  6
Continuous
100
AcDbPolyline
 90
        6
 70
     0
 43
0.0
 10
147.7940279186665
 20
109.4925851960488
 10
148.2902837394665
 20
109.4964572020488
 10
148.8317261850665
 20
109.5016392156488
 10
149.3493860874665
 20
109.5075708492488
 10
149.8405489070665
 20
109.5141089016488
 10
150.3184957554665
 20
109.5206992216488
  0
LINE
  5
11F0
330
1F
100
AcDbEntity
  8
0
  6
Continuous
100
AcDbLine
 10
150.3184957554665
 20
109.5206992216488
 30
0.0
 11
150.7523168826665
 21
109.5270532628488
 31
0.0
  0
LWPOLYLINE
  5
11F1
330
1F
100
AcDbEntity
  8
0
  6
Continuous
100
AcDbPolyline
 90
        4
 70
     0
 43
0.0
 10
152.6508779194664
 20
109.5875299228488
 10
152.6396063110665
 20
109.5813181276488
 10
152.6273198626664
 20
109.5769507400488
 10
152.6144342514665
 20
109.5751134744488
  0
LWPOLYLINE
  5
11F2
330
1F
100
AcDbEntity
  8
0
  6
Continuous
100
AcDbPolyline
 90
        3
 70
     0
 43
0.0
 10
152.6698802186664
 20
109.6035643668488
 10
152.6610046134665
 20
109.5950729380488
 10
152.6508779194664
 20
109.5875299228488
  0
LWPOLYLINE
  5
11F3
330
1F
100
AcDbEntity
  8
0
  6
Continuous
100
AcDbPolyline
 90
        4
 70
     0
 43
0.0
 10
152.6880387498664
 20
109.6321389380488
 10
152.6834732278664
 20
109.6222850732488
 10
152.6773920006665
 20
109.6127014484488
 10
152.6698802186664
 20
109.6035643668488
  0
LWPOLYLINE
  5
11F4
330
1F
100
AcDbEntity
  8
0
  6
Continuous
100
AcDbPolyline
 90
        3
 70
     0
 43
0.0
 10
152.6920120046665
 20
109.6500494564488
 10
152.6909711406665
 20
109.6421483400488
 10
152.6880387498664
 20
109.6321389380488
  0
LINE
  5
11F5
330
1F
100
AcDbEntity
  8
0
  6
Continuous
100
AcDbLine
 10
151.4959074810665
 20
109.6504461200488
 30
0.0
 11
151.4939886074664
 21
109.6868049600488
 31
0.0
  0
LINE
  5
11F6
330
1F
100
AcDbEntity
  8
0
  6
Continuous
100
AcDbLine
 10
151.4939886074664
 20
109.6868049600488
 30
0.0
 11
151.4933337422665
 21
109.6987823512488
 31
0.0
  0
LWPOLYLINE
  5
11F7
330
1F
100
AcDbEntity
  8
0
  6
Continuous
100
AcDbPolyline
 90
        6
 70
     0
 43
0.0
 10
147.1129942458665
 20
110.8833503944488
 10
147.1672177058665
 20
110.8749397392488
 10
147.2129604998665
 20
110.8679478372488
 10
147.2612299710664
 20
110.8607061292488
 10
147.3118332998665
 20
110.8533018512488
 10
147.3316580318664
 20
110.8504625196488
  0
LWPOLYLINE
  5
11F8
330
1F
100
AcDbEntity
  8
0
  6
Continuous
100
AcDbPolyline
 90
        6
 70
     0
 43
0.0
 10
147.3315762966665
 20
110.8504740848488
 10
147.4534371550664
 20
110.8338550900488
 10
147.6127649474665
 20
110.8137653992488
 10
147.7792841866665
 20
110.7945898948488
 10
147.9529124914664
 20
110.7764022496488
 10
148.1335365230665
 20
110.7592640988488
  0
LWPOLYLINE
  5
11F9
330
1F
100
AcDbEntity
  8
0
  6
Continuous
100
AcDbPolyline
 90
        6
 70
     0
 43
0.0
 10
146.8755590958665
 20
110.9156606268488
 10
146.9178337090665
 20
110.9109578308488
 10
146.9650533822664
 20
110.9049302928488
 10
147.0182802398665
 20
110.8975427532488
 10
147.0784714454664
 20
110.8886536316488
 10
147.1137639298665
 20
110.8832278964488
  0
LINE
  5
11FA
330
1F
100
AcDbEntity
  8
0
  6
Continuous
100
AcDbLine
 10
148.1335365230665
 20
110.7592640988488
 30
0.0
 11
148.2836420354665
 21
110.7462869668488
 31
0.0
  0
LWPOLYLINE
  5
11FB
330
1F
100
AcDbEntity
  8
0
  6
Continuous
100
AcDbPolyline
 90
        7
 70
     0
 43
0.0
 10
148.2836420354665
 20
110.7462869668488
 10
148.4206605418665
 20
110.7352169596488
 10
148.5978510650665
 20
110.7219294820488
 10
148.7810656066665
 20
110.7092463140488
 10
148.9700491266665
 20
110.6971038332488
 10
149.1645500174664
 20
110.6854119496488
 10
149.3242767630664
 20
110.6762902300488
  0
LWPOLYLINE
  5
11FC
330
1F
100
AcDbEntity
  8
0
  6
Continuous
100
AcDbPolyline
 90
        4
 70
     0
 43
0.0
 10
160.5206853094664
 20
109.5220356308488
 10
160.8231104754665
 20
109.5118881776488
 10
161.1057145486664
 20
109.4994944672488
 10
161.3670062186664
 20
109.4886766836488
  0
LINE
  5
11FD
330
1F
100
AcDbEntity
  8
0
  6
Continuous
100
AcDbLine
 10
144.2532667986664
 20
109.8098314276488
 30
0.0
 11
145.4921118950665
 21
109.8098314276488
 31
0.0
  0
LINE
  5
11FE
330
1F
100
AcDbEntity
  8
0
  6
Continuous
100
AcDbLine
 10
163.2309927582664
 20
109.8999013548488
 30
0.0
 11
163.0151603466664
 21
109.8999013548488
 31
0.0
  0
LINE
  5
11FF
330
1F
100
AcDbEntity
  8
0
  6
Continuous
100
AcDbLine
 10
158.4453759166665
 20
110.6971920368488
 30
0.0
 11
158.3868544034665
 21
110.6944781028488
 31
0.0
  0
LWPOLYLINE
  5
1200
330
1F
100
AcDbEntity
  8
0
  6
Continuous
100
AcDbPolyline
 90
       64
 70
     0
 43
0.0
 10
157.8832345922665
 20
110.6780103488488
 10
157.9212335602665
 20
110.6831859200488
 10
157.9596075966665
 20
110.6883623760488
 10
157.9983735834664
 20
110.6935400968488
 10
158.0375691490664
 20
110.6987220692488
 10
158.0772265346664
 20
110.7039103388488
 10
158.1173783602664
 20
110.7091067812488
 10
158.1580570210665
 20
110.7143130144488
 10
158.1992952114665
 20
110.7195304584488
 10
158.2411262682665
 20
110.7247603656488
 10
158.2835806734665
 20
110.7300033796488
 10
158.3267000918665
 20
110.7352612464488
 10
158.3704846570665
 20
110.7405304164488
 10
158.4149528078665
 20
110.7458094264488
 10
158.4600925450664
 20
110.7510930832488
 10
158.5059003066665
 20
110.7563771708488
 10
158.5523710854664
 20
110.7616572688488
 10
158.5995009446665
 20
110.7669290496488
 10
158.6472851194664
 20
110.7721880628488
 10
158.6957111210664
 20
110.7774290112488
 10
158.7448000482664
 20
110.7826501940488
 10
158.7945367626664
 20
110.7878465920488
 10
158.8449524302665
 20
110.7930187908488
 10
158.8960582478664
 20
110.7981650612488
 10
158.9478626330665
 20
110.8032831416488
 10
159.0003686030664
 20
110.8083699876488
 10
159.0535833538664
 20
110.8134226976488
 10
159.1075056214664
 20
110.8184372736488
 10
159.1621383546664
 20
110.8234098084488
 10
159.2174768102665
 20
110.8283353372488
 10
159.2735548442665
 20
110.8332115824488
 10
159.3304926046664
 20
110.8380428232488
 10
159.3882519674664
 20
110.8428196132488
 10
159.4468678738665
 20
110.8475389596488
 10
159.5062829902665
 20
110.8521908488488
 10
159.5664695414665
 20
110.8567684916488
 10
159.6274147814665
 20
110.8612670240488
 10
159.6891129198665
 20
110.8656824988488
 10
159.7515381302664
 20
110.8700071788488
 10
159.8146915770664
 20
110.8742341160488
 10
159.8784849566665
 20
110.8783510848488
 10
159.9430452546664
 20
110.8823603136488
 10
160.0077339310664
 20
110.8862186196488
 10
160.0716927074664
 20
110.8898773988488
 10
160.1356253910664
 20
110.8933808928488
 10
160.1995249802664
 20
110.8967332888488
 10
160.2639103482664
 20
110.8999650048488
 10
160.3290964566664
 20
110.9030901960488
 10
160.3955253086665
 20
110.9061237200488
 10
160.4634970306665
 20
110.9090678220488
 10
160.5334010914664
 20
110.9119219140488
 10
160.6054077010665
 20
110.9146697364488
 10
160.6798241042664
 20
110.9173047484488
 10
160.7567011042665
 20
110.9198128964488
 10
160.8359653214664
 20
110.9221757720488
 10
160.9163344798664
 20
110.9243473020488
 10
160.9970389522665
 20
110.9263020824488
 10
161.0765035710665
 20
110.9280022532488
 10
161.1557104686665
 20
110.9294815360488
 10
161.2373975018664
 20
110.9307851320488
 10
161.3190163410664
 20
110.9318826900488
 10
161.4007225058665
 20
110.9328066744488
 10
161.4817505550665
 20
110.9335635488488
 10
161.5623688322665
 20
110.9341554160488
  0
LINE
  5
1201
330
1F
100
AcDbEntity
  8
0
  6
Continuous
100
AcDbLine
 10
157.8207335170665
 20
110.6693857256488
 30
0.0
 11
157.8832345922665
 21
110.6780103488488
 31
0.0
  0
LWPOLYLINE
  5
1202
330
1F
100
AcDbEntity
  8
0
  6
Continuous
100
AcDbPolyline
 90
        3
 70
     0
 43
0.0
 10
146.8008385190664
 20
110.9209024240488
 10
146.8372200418664
 20
110.9189846072488
 10
146.8755590958665
 20
110.9156606268488
  0
LWPOLYLINE
  5
1203
330
1F
100
AcDbEntity
  8
0
  6
Continuous
100
AcDbPolyline
 90
       10
 70
     0
 43
0.0
 10
149.3242832770664
 20
110.6762898668488
 10
149.8515247698665
 20
110.6493192464488
 10
150.4040898950665
 20
110.6259408192488
 10
150.9620286702665
 20
110.6068492488488
 10
151.5454693310664
 20
110.5912038064488
 10
152.1356560050665
 20
110.5795478236488
 10
152.7360351686665
 20
110.5717174156488
 10
153.3411791858665
 20
110.5677844580488
 10
153.9269230054665
 20
110.5679876788488
 10
154.5208031250664
 20
110.5725069812488
  0
LWPOLYLINE
  5
1204
330
1F
100
AcDbEntity
  8
0
  6
Continuous
100
AcDbPolyline
 90
        6
 70
     0
 43
0.0
 10
146.4729655398664
 20
110.9045782140488
 10
146.4687311886665
 20
110.9046899348488
 10
146.4762019958665
 20
110.9047146792488
 10
146.4964159974664
 20
110.9048753096488
 10
146.5228594846665
 20
110.9049312888488
 10
146.5543979302665
 20
110.9048774464488
  0
LINE
  5
1205
330
1F
100
AcDbEntity
  8
0
  6
Continuous
100
AcDbLine
 10
161.6301388790665
 20
110.9345255140488
 30
0.0
 11
161.6301647562664
 21
110.9345248840488
 31
0.0
  0
LINE
  5
1206
330
1F
100
AcDbEntity
  8
0
  6
Continuous
100
AcDbLine
 10
146.7859653338664
 20
110.9212339080488
 30
0.0
 11
146.8008385190664
 21
110.9209024240488
 31
0.0
  0
LINE
  5
1207
330
1F
100
AcDbEntity
  8
0
  6
Continuous
100
AcDbLine
 10
146.7855798146664
 20
110.9212379808488
 30
0.0
 11
146.7859653746665
 21
110.9212339076488
 31
0.0
  0
LINE
  5
1208
330
1F
100
AcDbEntity
  8
0
  6
Continuous
100
AcDbLine
 10
161.5623688322665
 20
110.9341554160488
 30
0.0
 11
161.6301388790665
 21
110.9345255140488
 31
0.0
  0
LINE
  5
1209
330
1F
100
AcDbEntity
  8
0
  6
Continuous
100
AcDbLine
 10
146.5543979302665
 20
110.9048774464488
 30
0.0
 11
146.5553526658665
 21
110.9048831476488
 31
0.0
  0
LINE
  5
120A
330
1F
100
AcDbEntity
  8
0
  6
Continuous
100
AcDbLine
 10
154.5208031250664
 20
110.5725069812488
 30
0.0
 11
155.1001613778664
 21
110.5812941052488
 31
0.0
  0
LWPOLYLINE
  5
120B
330
1F
100
AcDbEntity
  8
0
  6
Continuous
100
AcDbPolyline
 90
        6
 70
     0
 43
0.0
 10
155.1001641970665
 20
110.5812941564488
 10
155.2099900238664
 20
110.5834652780488
 10
155.3212823850665
 20
110.5858094800488
 10
155.4320351766664
 20
110.5882912824488
 10
155.5424975406664
 20
110.5909098100488
 10
155.6529093246664
 20
110.5936680016488
  0
LINE
  5
120C
330
1F
100
AcDbEntity
  8
0
  6
Continuous
100
AcDbLine
 10
146.5553526122664
 20
110.9048835716488
 30
0.0
 11
146.5633904610664
 21
110.9050552056488
 31
0.0
  0
LWPOLYLINE
  5
120D
330
1F
100
AcDbEntity
  8
0
  6
Continuous
100
AcDbPolyline
 90
        6
 70
     0
 43
0.0
 10
155.6529093246664
 20
110.5936680016488
 10
155.7818124778665
 20
110.5970241900488
 10
155.8854993094664
 20
110.5998340984488
 10
155.9917397818665
 20
110.6028466876488
 10
156.1008267398665
 20
110.6060750096488
 10
156.2129574022665
 20
110.6095319804488
  0
LINE
  5
120E
330
1F
100
AcDbEntity
  8
0
  6
Continuous
100
AcDbLine
 10
156.2129574022665
 20
110.6095319804488
 30
0.0
 11
156.2856126302665
 21
110.6118458464488
 31
0.0
  0
LWPOLYLINE
  5
120F
330
1F
100
AcDbEntity
  8
0
  6
Continuous
100
AcDbPolyline
 90
        7
 70
     0
 43
0.0
 10
156.2856014258665
 20
110.6118454844488
 10
156.6226847086665
 20
110.6230883516488
 10
156.9937195266665
 20
110.6363538024488
 10
157.3584743510664
 20
110.6503126676488
 10
157.7166261318665
 20
110.6648987336488
 10
158.0682511570664
 20
110.6800536492488
 10
158.3868544034665
 20
110.6944781028488
  0
LINE
  5
1210
330
1F
100
AcDbEntity
  8
0
  6
Continuous
100
AcDbLine
 10
150.6057272602664
 20
109.6973264844488
 30
0.0
 11
150.6057272602664
 21
109.5249061252488
 31
0.0
  0
LINE
  5
1211
330
1F
100
AcDbEntity
  8
0
  6
Continuous
100
AcDbLine
 10
150.7573899674664
 20
108.5653651444488
 30
0.0
 11
150.7498182494664
 21
108.5847970888488
 31
0.0
  0
LINE
  5
1212
330
1F
100
AcDbEntity
  8
0
  6
Continuous
100
AcDbLine
 10
146.5633904610664
 20
110.9050552056488
 30
0.0
 11
146.5790937278665
 21
110.9058431088488
 31
0.0
  0
LINE
  5
1213
330
1F
100
AcDbEntity
  8
0
  6
Continuous
100
AcDbLine
 10
146.5790937278665
 20
110.9058431088488
 30
0.0
 11
146.6012478498664
 21
110.9073726864488
 31
0.0
  0
LWPOLYLINE
  5
1214
330
1F
100
AcDbEntity
  8
0
  6
Continuous
100
AcDbPolyline
 90
        4
 70
     0
 43
0.0
 10
146.7273759730665
 20
110.9191116424488
 10
146.7451327906665
 20
110.9203732272488
 10
146.7650371322664
 20
110.9211335112488
 10
146.7855798146664
 20
110.9212379808488
  0
LWPOLYLINE
  5
1215
330
1F
100
AcDbEntity
  8
0
  6
Continuous
100
AcDbPolyline
 90
        3
 70
     0
 43
0.0
 10
146.6012478498664
 20
110.9073726864488
 10
146.6293539590665
 20
110.9097074476488
 10
146.6628630894664
 20
110.9127030932488
  0
LINE
  5
1216
330
1F
100
AcDbEntity
  8
0
  6
Continuous
100
AcDbLine
 10
146.6628630894664
 20
110.9127030932488
 30
0.0
 11
146.6942954870665
 21
110.9155838884488
 31
0.0
  0
LINE
  5
1217
330
1F
100
AcDbEntity
  8
0
  6
Continuous
100
AcDbLine
 10
146.7154376182665
 20
110.9179566204488
 30
0.0
 11
146.7273759730665
 21
110.9191116424488
 31
0.0
  0
LINE
  5
1218
330
1F
100
AcDbEntity
  8
0
  6
Continuous
100
AcDbLine
 10
146.6933731290664
 20
110.9154975672488
 30
0.0
 11
146.6956037930665
 21
110.9157265128488
 31
0.0
  0
LWPOLYLINE
  5
1219
330
1F
100
AcDbEntity
  8
0
  6
Continuous
100
AcDbPolyline
 90
        3
 70
     0
 43
0.0
 10
146.6956037930665
 20
110.9157265128488
 10
146.7076689678665
 20
110.9171028608488
 10
146.7154363350664
 20
110.9179564848488
  0
LINE
  5
121A
330
1F
100
AcDbEntity
  8
0
  6
Continuous
100
AcDbLine
 10
147.5310951406665
 20
108.5524221100488
 30
0.0
 11
147.5310951406665
 21
108.5635607880488
 31
0.0
  0
LINE
  5
121B
330
1F
100
AcDbEntity
  8
0
  6
Continuous
100
AcDbLine
 10
145.5734227998665
 20
110.1253964884488
 30
0.0
 11
145.5752249386664
 21
110.1268252792488
 31
0.0
  0
LINE
  5
121C
330
1F
100
AcDbEntity
  8
0
  6
Continuous
100
AcDbLine
 10
145.5702890994664
 20
110.1228880696488
 30
0.0
 11
145.5734227998665
 21
110.1253964884488
 31
0.0
  0
LINE
  5
121D
330
1F
100
AcDbEntity
  8
0
  6
Continuous
100
AcDbLine
 10
146.2421234070665
 20
110.7354255232488
 30
0.0
 11
146.2360082270664
 21
110.7303842208488
 31
0.0
  0
LWPOLYLINE
  5
121E
330
1F
100
AcDbEntity
  8
0
  6
Continuous
100
AcDbPolyline
 90
        7
 70
     0
 43
0.0
 10
145.5579743638665
 20
110.1234662552488
 10
145.6329126370665
 20
110.1937680236488
 10
145.7474481138665
 20
110.2992136984488
 10
145.8688158802665
 20
110.4087405084488
 10
145.9969205602665
 20
110.5224499856488
 10
146.1317636990665
 20
110.6403581508488
 10
146.2360082270664
 20
110.7303842208488
  0
LINE
  5
121F
330
1F
100
AcDbEntity
  8
0
  6
Continuous
100
AcDbLine
 10
146.2367511070665
 20
110.8183660016488
 30
0.0
 11
146.2387728402665
 21
110.8202823264488
 31
0.0
  0
LWPOLYLINE
  5
1220
330
1F
100
AcDbEntity
  8
0
  6
Continuous
100
AcDbPolyline
 90
        9
 70
     0
 43
0.0
 10
146.1756410102665
 20
110.6814645488488
 10
146.1758177478665
 20
110.6854281872488
 10
146.1760704854665
 20
110.6893592412488
 10
146.1763971402664
 20
110.6932521812488
 10
146.1767963326665
 20
110.6971104836488
 10
146.1772629214665
 20
110.7009064732488
 10
146.1778079582665
 20
110.7047324800488
 10
146.1784385794665
 20
110.7086152684488
 10
146.1791907902665
 20
110.7127183652488
  0
LINE
  5
1221
330
1F
100
AcDbEntity
  8
0
  6
Continuous
100
AcDbLine
 10
146.1755259806665
 20
110.6781514652488
 30
0.0
 11
146.1756409038664
 21
110.6814614812488
 31
0.0
  0
LWPOLYLINE
  5
1222
330
1F
100
AcDbEntity
  8
0
  6
Continuous
100
AcDbPolyline
 90
        6
 70
     0
 43
0.0
 10
146.2167639810665
 20
110.7960497100488
 10
146.2210244834665
 20
110.8013998552488
 10
146.2255391942665
 20
110.8066839412488
 10
146.2303637750665
 20
110.8119437488488
 10
146.2355862402664
 20
110.8172373688488
 10
146.2367511070665
 20
110.8183660016488
  0
LWPOLYLINE
  5
1223
330
1F
100
AcDbEntity
  8
0
  6
Continuous
100
AcDbPolyline
 90
        4
 70
     0
 43
0.0
 10
146.2054308738665
 20
110.7796717448488
 10
146.2089420758665
 20
110.7851308936488
 10
146.2127542922664
 20
110.7906470148488
 10
146.2167639810665
 20
110.7960497100488
  0
LWPOLYLINE
  5
1224
330
1F
100
AcDbEntity
  8
0
  6
Continuous
100
AcDbPolyline
 90
        4
 70
     0
 43
0.0
 10
146.1942054958665
 20
110.7589217172488
 10
146.1994832342665
 20
110.7694134776488
 10
146.2026796966664
 20
110.7751010772488
 10
146.2054308738665
 20
110.7796717448488
  0
LINE
  5
1225
330
1F
100
AcDbEntity
  8
0
  6
Continuous
100
AcDbLine
 10
146.1898602586665
 20
110.7488993784488
 30
0.0
 11
146.1942054710665
 21
110.7589216640488
 31
0.0
  0
LINE
  5
1226
330
1F
100
AcDbEntity
  8
0
  6
Continuous
100
AcDbLine
 10
146.1884925194665
 20
110.7453962012488
 30
0.0
 11
146.1898602778665
 21
110.7488994260488
 31
0.0
  0
LWPOLYLINE
  5
1227
330
1F
100
AcDbEntity
  8
0
  6
Continuous
100
AcDbPolyline
 90
        7
 70
     0
 43
0.0
 10
146.1825382950665
 20
110.7270886976488
 10
146.1838910370665
 20
110.7318217060488
 10
146.1851125934664
 20
110.7357547116488
 10
146.1862148138665
 20
110.7390773584488
 10
146.1871092190665
 20
110.7416390224488
 10
146.1879393406665
 20
110.7439214988488
 10
146.1884925054664
 20
110.7453961644488
  0
LWPOLYLINE
  5
1228
330
1F
100
AcDbEntity
  8
0
  6
Continuous
100
AcDbPolyline
 90
        4
 70
     0
 43
0.0
 10
146.1791907902665
 20
110.7127183652488
 10
146.1801348994664
 20
110.7172934024488
 10
146.1812445630664
 20
110.7220843476488
 10
146.1825382950665
 20
110.7270886976488
  0
LINE
  5
1229
330
1F
100
AcDbEntity
  8
0
  6
Continuous
100
AcDbLine
 10
145.4207918294664
 20
108.7234465084488
 30
0.0
 11
145.4188891050664
 21
108.7018608696488
 31
0.0
  0
LINE
  5
122A
330
1F
100
AcDbEntity
  8
0
  6
Continuous
100
AcDbLine
 10
145.4190734490664
 20
108.6952707820488
 30
0.0
 11
145.4768971790664
 21
109.6433877768488
 31
0.0
  0
LINE
  5
122B
330
1F
100
AcDbEntity
  8
0
  6
Continuous
100
AcDbLine
 10
145.4856359806665
 20
109.6855486016488
 30
0.0
 11
145.5021484310665
 21
110.0024480880488
 31
0.0
  0
LINE
  5
122C
330
1F
100
AcDbEntity
  8
0
  6
Continuous
100
AcDbLine
 10
144.2532667986664
 20
109.8098314276488
 30
0.0
 11
144.2532667986664
 21
108.5749325160488
 31
0.0
  0
ARC
  5
122D
330
1F
100
AcDbEntity
  8
0
  6
Continuous
100
AcDbCircle
 10
161.2852935350664
 20
110.4605330840488
 30
0.0
 40
1.8023257472
100
AcDbArc
 50
335.8794149557002
 51
337.5871424673997
  0
ARC
  5
122E
330
1F
100
AcDbEntity
  8
0
  6
Continuous
100
AcDbCircle
 10
161.2866868230665
 20
110.4599339984488
 30
0.0
 40
1.800809289999999
100
AcDbArc
 50
335.8786958713997
 51
337.5878615630994
  0
ARC
  5
122F
330
1F
100
AcDbEntity
  8
0
  6
Continuous
100
AcDbCircle
 10
161.3186664254665
 20
110.4467574384488
 30
0.0
 40
1.766221480399999
100
AcDbArc
 50
337.5874894649998
 51
339.3227613032997
  0
ARC
  5
1230
330
1F
100
AcDbEntity
  8
0
  6
Continuous
100
AcDbCircle
 10
161.3190236806665
 20
110.4466163880488
 30
0.0
 40
1.765837432799999
100
AcDbArc
 50
337.5873007558997
 51
339.3229500230999
  0
ARC
  5
1231
330
1F
100
AcDbEntity
  8
0
  6
Continuous
100
AcDbCircle
 10
161.3427207862664
 20
110.4376014092488
 30
0.0
 40
1.740483574399999
100
AcDbArc
 50
339.3251501306996
 51
340.202870357
  0
ARC
  5
1232
330
1F
100
AcDbEntity
  8
0
  6
Continuous
100
AcDbCircle
 10
161.3428970686665
 20
110.4375370300488
 30
0.0
 40
1.740295914799999
100
AcDbArc
 50
339.3250840924999
 51
340.2029972427998
  0
ARC
  5
1233
330
1F
100
AcDbEntity
  8
0
  6
Continuous
100
AcDbCircle
 10
161.3579673598665
 20
110.4321129572488
 30
0.0
 40
1.7242792284
100
AcDbArc
 50
340.2029761300003
 51
341.0874053116994
  0
ARC
  5
1234
330
1F
100
AcDbEntity
  8
0
  6
Continuous
100
AcDbCircle
 10
161.3580014126664
 20
110.4321015932488
 30
0.0
 40
1.7242433304
100
AcDbArc
 50
340.2028489967999
 51
341.0873957784003
  0
ARC
  5
1235
330
1F
100
AcDbEntity
  8
0
  6
Continuous
100
AcDbCircle
 10
162.6943661058665
 20
108.2240887356488
 30
0.0
 40
1.362513958
100
AcDbArc
 50
99.36719817200032
 51
102.3841890424995
  0
ARC
  5
1236
330
1F
100
AcDbEntity
  8
0
  6
Continuous
100
AcDbCircle
 10
159.0295570854665
 20
108.4693595920488
 30
0.0
 40
0.1574803148
100
AcDbArc
 50
185.1242429225997
 51
269.9999997609998
  0
ARC
  5
1237
330
1F
100
AcDbEntity
  8
0
  6
Continuous
100
AcDbCircle
 10
163.0714477266665
 20
109.8450701932488
 30
0.0
 40
0.0869728784
100
AcDbArc
 50
159.2917896674997
 51
161.1083015140002
  0
ARC
  5
1238
330
1F
100
AcDbEntity
  8
0
  6
Continuous
100
AcDbCircle
 10
163.0605629950664
 20
109.8492108456488
 30
0.0
 40
0.0753272052
100
AcDbArc
 50
157.2309653310996
 51
159.3101975614999
  0
ARC
  5
1239
330
1F
100
AcDbEntity
  8
0
  6
Continuous
100
AcDbCircle
 10
163.0547143642665
 20
109.8516869096488
 30
0.0
 40
0.0689760668
100
AcDbArc
 50
155.0249261895998
 51
157.2472371004996
  0
ARC
  5
123A
330
1F
100
AcDbEntity
  8
0
  6
Continuous
100
AcDbCircle
 10
163.0496744938665
 20
109.8540264848488
 30
0.0
 40
0.0634196428
100
AcDbArc
 50
153.1035868165999
 51
155.0184679142995
  0
ARC
  5
123B
330
1F
100
AcDbEntity
  8
0
  6
Continuous
100
AcDbCircle
 10
162.8769752902665
 20
109.7464991860488
 30
0.0
 40
0.057771304
100
AcDbArc
 50
326.9431788646001
 51
329.4384385873004
  0
ARC
  5
123C
330
1F
100
AcDbEntity
  8
0
  6
Continuous
100
AcDbCircle
 10
162.8776780190665
 20
109.7460995184488
 30
0.0
 40
0.0569783644
100
AcDbArc
 50
326.8944688735999
 51
329.4251753435001
  0
ARC
  5
123D
330
1F
100
AcDbEntity
  8
0
  6
Continuous
100
AcDbCircle
 10
162.8871960794664
 20
109.7391014868488
 30
0.0
 40
0.045143142
100
AcDbArc
 50
318.6372675110005
 51
320.5291211125005
  0
ARC
  5
123E
330
1F
100
AcDbEntity
  8
0
  6
Continuous
100
AcDbCircle
 10
162.8873485926665
 20
109.7391404536488
 30
0.0
 40
0.0450533932
100
AcDbArc
 50
318.4717692351002
 51
320.3672895768993
  0
ARC
  5
123F
330
1F
100
AcDbEntity
  8
0
  6
Continuous
100
AcDbCircle
 10
162.8933337646665
 20
109.7329219432488
 30
0.0
 40
0.0364094548
100
AcDbArc
 50
307.2067159715006
 51
309.079137655099
  0
ARC
  5
1240
330
1F
100
AcDbEntity
  8
0
  6
Continuous
100
AcDbCircle
 10
162.8937075978665
 20
109.7325525332488
 30
0.0
 40
0.0358947364
100
AcDbArc
 50
307.0877926992997
 51
308.9875175194999
  0
ARC
  5
1241
330
1F
100
AcDbEntity
  8
0
  6
Continuous
100
AcDbCircle
 10
162.8955831610665
 20
109.7311050604488
 30
0.0
 40
0.0337785768
100
AcDbArc
 50
270.0119995712999
 51
283.2016295419991
  0
ARC
  5
1242
330
1F
100
AcDbEntity
  8
0
  6
Continuous
100
AcDbCircle
 10
162.8960844518665
 20
109.7288637764488
 30
0.0
 40
0.0315018288
100
AcDbArc
 50
283.2449889761004
 51
295.8582746046992
  0
ARC
  5
1243
330
1F
100
AcDbEntity
  8
0
  6
Continuous
100
AcDbCircle
 10
163.0153793818665
 20
109.8789809328488
 30
0.0
 40
0.0209204224
100
AcDbArc
 50
89.9935472932997
 51
94.59089463769997
  0
ARC
  5
1244
330
1F
100
AcDbEntity
  8
0
  6
Continuous
100
AcDbCircle
 10
163.0152824490665
 20
109.8808189964488
 30
0.0
 40
0.01911202
100
AcDbArc
 50
110.3534075517995
 51
114.5581659400999
  0
ARC
  5
1245
330
1F
100
AcDbEntity
  8
0
  6
Continuous
100
AcDbCircle
 10
163.0148071430665
 20
109.8820357652488
 30
0.0
 40
0.017805918
100
AcDbArc
 50
103.9668277058994
 51
110.2812438101999
  0
ARC
  5
1246
330
1F
100
AcDbEntity
  8
0
  6
Continuous
100
AcDbCircle
 10
150.9104417010665
 20
108.6036828004488
 30
0.0
 40
0.1576842988
100
AcDbArc
 50
215.3766314753998
 51
232.8303855800997
  0
ARC
  5
1247
330
1F
100
AcDbEntity
  8
0
  6
Continuous
100
AcDbCircle
 10
150.9104707314665
 20
108.6036198076488
 30
0.0
 40
0.1576715144
100
AcDbArc
 50
195.7281694138001
 51
215.3518597137993
  0
ARC
  5
1248
330
1F
100
AcDbEntity
  8
0
  6
Continuous
100
AcDbCircle
 10
150.9103557182665
 20
108.6036030256488
 30
0.0
 40
0.157543312
100
AcDbArc
 50
260.6905632526002
 51
269.9756015321006
  0
ARC
  5
1249
330
1F
100
AcDbEntity
  8
0
  6
Continuous
100
AcDbCircle
 10
151.4166903542665
 20
108.6035367700488
 30
0.0
 40
0.1574770416
100
AcDbArc
 50
270.0006697348998
 51
350.8448829037002
  0
ARC
  5
124A
330
1F
100
AcDbEntity
  8
0
  6
Continuous
100
AcDbCircle
 10
150.9101714966665
 20
108.6033077916488
 30
0.0
 40
0.1572222224
100
AcDbArc
 50
232.8262825084993
 51
260.7394094691994
  0
ARC
  5
124B
330
1F
100
AcDbEntity
  8
0
  6
Continuous
100
AcDbCircle
 10
147.5271582438664
 20
108.5524221308488
 30
0.0
 40
0.003937008
100
AcDbArc
 50
251.8611057453006
 51
359.9996961556996
  0
ARC
  5
124C
330
1F
100
AcDbEntity
  8
0
  6
Continuous
100
AcDbCircle
 10
146.6967341542664
 20
106.0166913292488
 30
0.0
 40
2.6643085912
100
AcDbArc
 50
71.86695345050073
 51
74.60367750840074
  0
ARC
  5
124D
330
1F
100
AcDbEntity
  8
0
  6
Continuous
100
AcDbCircle
 10
146.7180967678665
 20
106.0822009300488
 30
0.0
 40
2.6111515284
100
AcDbArc
 50
70.26850476240055
 51
71.78092750979971
  0
ARC
  5
124E
330
1F
100
AcDbEntity
  8
0
  6
Continuous
100
AcDbCircle
 10
146.7181191398665
 20
106.0822650596488
 30
0.0
 40
2.6110836108
100
AcDbArc
 50
70.26849176389977
 51
71.77617260210045
  0
ARC
  5
124F
330
1F
100
AcDbEntity
  8
0
  6
Continuous
100
AcDbCircle
 10
146.7290657286664
 20
106.1128975860488
 30
0.0
 40
2.5785539628
100
AcDbArc
 50
68.95605436519949
 51
70.26764568080041
  0
ARC
  5
1250
330
1F
100
AcDbEntity
  8
0
  6
Continuous
100
AcDbCircle
 10
146.1633186434664
 20
107.9074537428488
 30
0.0
 40
0.7878183964
100
AcDbArc
 50
74.29791920539951
 51
90.14014179559925
  0
ARC
  5
1251
330
1F
100
AcDbEntity
  8
0
  6
Continuous
100
AcDbCircle
 10
146.1639246574665
 20
107.9090089372488
 30
0.0
 40
0.7861572472000001
100
AcDbArc
 50
71.13947394679986
 51
74.30976292639994
  0
ARC
  5
1252
330
1F
100
AcDbEntity
  8
0
  6
Continuous
100
AcDbCircle
 10
145.3704320266664
 20
108.7840673332488
 30
0.0
 40
0.1574803148
100
AcDbArc
 50
264.4128460669007
 51
325.6272950858999
  0
ARC
  5
1253
330
1F
100
AcDbEntity
  8
0
  6
Continuous
100
AcDbCircle
 10
145.3181976822665
 20
108.5518282932488
 30
0.0
 40
0.0787401576
100
AcDbArc
 50
84.41437156139967
 51
92.99640896269927
  0
ARC
  5
1254
330
1F
100
AcDbEntity
  8
0
  6
Continuous
100
AcDbCircle
 10
146.4551620338665
 20
110.5963866324488
 30
0.0
 40
0.3088066784
100
AcDbArc
 50
86.69685698709946
 51
87.44747469970027
  0
ARC
  5
1255
330
1F
100
AcDbEntity
  8
0
  6
Continuous
100
AcDbCircle
 10
146.3758892702665
 20
110.6735952564488
 30
0.0
 40
0.2007934188
100
AcDbArc
 50
133.8634387383995
 51
135.2710218113006
  0
ARC
  5
1256
330
1F
100
AcDbEntity
  8
0
  6
Continuous
100
AcDbCircle
 10
146.3759533374665
 20
110.6745280024488
 30
0.0
 40
0.2004323928
100
AcDbArc
 50
170.5495403013999
 51
178.0175941891995
  0
ARC
  5
1257
330
1F
100
AcDbEntity
  8
0
  6
Continuous
100
AcDbCircle
 10
146.3753483714664
 20
110.6741202640488
 30
0.0
 40
0.2000396648
100
AcDbArc
 50
135.2688245148
 51
140.5880169259
  0
ARC
  5
1258
330
1F
100
AcDbEntity
  8
0
  6
Continuous
100
AcDbCircle
 10
146.3748816802665
 20
110.6746996692488
 30
0.0
 40
0.1993470936
100
AcDbArc
 50
163.0390314532995
 51
170.5476365707999
  0
ARC
  5
1259
330
1F
100
AcDbEntity
  8
0
  6
Continuous
100
AcDbCircle
 10
146.3746898078665
 20
110.6746604424488
 30
0.0
 40
0.1991879032
100
AcDbArc
 50
140.5877941506996
 51
148.0727282070995
  0
ARC
  5
125A
330
1F
100
AcDbEntity
  8
0
  6
Continuous
100
AcDbCircle
 10
146.3744550406665
 20
110.6748256056488
 30
0.0
 40
0.1989022732
100
AcDbArc
 50
155.8089586910993
 51
163.0378790561996
  0
ARC
  5
125B
330
1F
100
AcDbEntity
  8
0
  6
Continuous
100
AcDbCircle
 10
146.3743838242665
 20
110.6748554440488
 30
0.0
 40
0.1988250836
100
AcDbArc
 50
148.0737900423993
 51
155.8083924344995
  0
ARC
  5
125C
330
1F
100
AcDbEntity
  8
0
  6
Continuous
100
AcDbCircle
 10
145.6895738534665
 20
109.9925551028488
 30
0.0
 40
0.1876863008
100
AcDbArc
 50
169.9023296673002
 51
176.9785243465997
  0
ARC
  5
125D
330
1F
100
AcDbEntity
  8
0
  6
Continuous
100
AcDbCircle
 10
145.6800468538664
 20
109.9821878128488
 30
0.0
 40
0.17855803
100
AcDbArc
 50
128.5724430832001
 51
136.6153112528003
  0
ARC
  5
125E
330
1F
100
AcDbEntity
  8
0
  6
Continuous
100
AcDbCircle
 10
146.2435175878664
 20
109.8173503312488
 30
0.0
 40
0.1201964948
100
AcDbArc
 50
270.0387936149999
 51
274.1702082299998
  0
SPLINE
  5
125F
330
1F
100
AcDbEntity
  8
0
  6
Continuous
100
AcDbSpline
210
0.0
220
0.0
230
1.0
 70
     8
 71
     3
 72
    10
 73
     6
 74
     4
 42
0.0000000001
 43
0.0000000001
 44
0.0000000001
 12
-3.994531248971152
 22
-0.2090935221210001
 32
0.0
 13
-0.4340718338925949
 23
-3.976377955252885
 33
0.0
 40
0.0
 40
0.0
 40
0.0
 40
0.0
 40
0.0009353012062397
 40
0.0018636800571921
 40
0.0027810005591478
 40
0.0027810005591478
 40
0.0027810005591478
 40
0.0027810005591478
 10
144.1419505386665
 20
108.5691056740488
 30
0.0
 10
144.140705175368
 20
108.5690404855743
 30
0.0
 10
144.1382162270885
 20
108.5683120916712
 30
0.0
 10
144.1354167813429
 20
108.5656886973283
 30
0.0
 10
144.1345457999307
 20
108.5632701514561
 30
0.0
 10
144.1344130722665
 20
108.5620542804488
 30
0.0
 11
144.1419505386665
 21
108.5691056740488
 31
0.0
 11
144.1383613494664
 21
108.5680500536488
 31
0.0
 11
144.1356553550664
 21
108.5655068684488
 31
0.0
 11
144.1344130722665
 21
108.5620542804488
 31
0.0
  0
SPLINE
  5
1260
330
1F
100
AcDbEntity
  8
0
  6
Continuous
100
AcDbSpline
210
0.0
220
0.0
230
1.0
 70
     8
 71
     3
 72
     9
 73
     5
 74
     3
 42
0.0000000001
 43
0.0000000001
 44
0.0000000001
 12
-2.748408954738402
 22
-2.906242972897097
 32
0.0
 13
-0.2081413696353692
 23
-3.994580975552543
 33
0.0
 40
0.0
 40
0.0
 40
0.0
 40
0.0
 40
0.0126469149153787
 40
0.0314465563083667
 40
0.0314465563083667
 40
0.0314465563083667
 40
0.0314465563083667
 10
145.5502783310664
 20
110.1048381312488
 30
0.0
 10
145.5386920329987
 20
110.0925864620483
 30
0.0
 10
145.5140131625548
 20
110.0580038393976
 30
0.0
 10
145.5028527219692
 20
110.0159646812007
 30
0.0
 10
145.5015483942664
 20
109.9909324512488
 30
0.0
 11
145.5502783310664
 21
110.1048381312488
 31
0.0
 11
145.5210282454665
 21
110.0635641224488
 31
0.0
 11
145.5015483942664
 21
109.9909324512488
 31
0.0
  0
SPLINE
  5
1261
330
1F
100
AcDbEntity
  8
0
  6
Continuous
100
AcDbSpline
210
0.0
220
0.0
230
1.0
 70
     8
 71
     3
 72
    10
 73
     6
 74
     4
 42
0.0000000001
 43
0.0000000001
 44
0.0000000001
 12
-0.2000994884312202
 22
-3.994991889194465
 32
0.0
 13
1.395237450145892
 23
-3.748774794210821
 33
0.0
 40
0.0
 40
0.0
 40
0.0
 40
0.0
 40
0.0079731081533032
 40
0.0200790656696922
 40
0.0354913231629207
 40
0.0354913231629207
 40
0.0354913231629207
 40
0.0354913231629207
 10
145.4984475962665
 20
109.9314235028488
 30
0.0
 10
145.4979157913122
 20
109.9208060020474
 30
0.0
 10
145.5028760821418
 20
109.8940648389092
 30
0.0
 10
145.5169808023263
 20
109.8490338288951
 30
0.0
 10
145.5299596166512
 20
109.8146528039196
 30
0.0
 10
145.5371275362664
 20
109.7953937764488
 30
0.0
 11
145.4984475962665
 21
109.9314235028488
 31
0.0
 11
145.5023312006665
 21
109.8997684104488
 31
0.0
 11
145.5160621698665
 21
109.8533321336488
 31
0.0
 11
145.5371275362664
 21
109.7953937764488
 31
0.0
  0
SPLINE
  5
1262
330
1F
100
AcDbEntity
  8
0
  6
Continuous
100
AcDbSpline
210
0.0
220
0.0
230
1.0
 70
     8
 71
     3
 72
    10
 73
     6
 74
     4
 42
0.0000000001
 43
0.0000000001
 44
0.0000000001
 12
-3.999999998968544
 22
0.0000908385764845
 32
0.0
 13
-1.39523744931282
 23
3.748774794520878
 33
0.0
 40
0.0
 40
0.0
 40
0.0
 40
0.0
 40
0.0206783121914607
 40
0.0363380903447806
 40
0.0510972340279888
 40
0.0510972340279888
 40
0.0510972340279888
 40
0.0510972340279888
 10
145.7003712586664
 20
109.6971465744488
 30
0.0
 10
145.6728001757516
 20
109.6971472005783
 30
0.0
 10
145.6231482539742
 20
109.7012519931789
 30
0.0
 10
145.563192834707
 20
109.7397027018925
 30
0.0
 10
145.543993530662
 20
109.776950729306
 30
0.0
 10
145.5371293606665
 20
109.7953936312488
 30
0.0
 11
145.7003712586664
 21
109.6971465744488
 31
0.0
 11
145.6185623674664
 21
109.7093443956488
 31
0.0
 11
145.5665070974664
 21
109.7441855680488
 31
0.0
 11
145.5371293606665
 21
109.7953936312488
 31
0.0
  0
LINE
  5
1263
330
1F
100
AcDbEntity
  8
0
  6
Continuous
100
AcDbLine
 10
163.0753962770665
 20
110.2763925504488
 30
0.0
 11
161.7852709138665
 21
110.8993469496488
 31
0.0
  0
LINE
  5
1264
330
1F
100
AcDbEntity
  8
0
  6
Continuous
100
AcDbLine
 10
161.6301647562664
 20
110.9345248840488
 30
0.0
 11
161.6289486834664
 21
110.9345192860488
 31
0.0
  0
LINE
  5
1265
330
1F
100
AcDbEntity
  8
0
  6
Continuous
100
AcDbLine
 10
161.6289486834664
 20
110.9345192860488
 30
0.0
 11
161.6111371854665
 21
110.9344330360488
 31
0.0
  0
SPLINE
  5
1266
330
1F
100
AcDbEntity
  8
0
  6
Continuous
100
AcDbSpline
210
0.0
220
0.0
230
1.0
 70
     8
 71
     3
 72
    37
 73
    33
 74
    31
 42
0.0000000001
 43
0.0000000001
 44
0.0000000001
 12
-3.999948633693279
 22
-0.0202713545494379
 32
0.0
 13
-3.961972873827843
 23
-0.5502462603710681
 33
0.0
 40
0.0
 40
0.0
 40
0.0
 40
0.0
 40
0.0048515206915508
 40
0.0148567001799461
 40
0.0255471767569581
 40
0.0372045951477156
 40
0.0501135352116568
 40
0.0645488810451659
 40
0.0807915661674458
 40
0.0990175540759802
 40
0.1191150458368287
 40
0.1407856191176543
 40
0.1636649141648423
 40
0.1874859096374795
 40
0.2124274182035202
 40
0.2393553073626976
 40
0.2693325325297012
 40
0.3031543749703954
 40
0.340438650189184
 40
0.3805217166697729
 40
0.4230479682763802
 40
0.4679205753523342
 40
0.515153550154662
 40
0.5646430712378603
 40
0.6155029286202342
 40
0.6663544897350679
 40
0.7167920197859452
 40
0.767412094655049
 40
0.8202008629000102
 40
0.8778234880476565
 40
0.9427349469066605
 40
0.9505243921305829
 40
0.9505243921305829
 40
0.9505243921305829
 40
0.9505243921305829
 10
161.6111371854665
 20
110.9344330360488
 30
0.0
 10
161.6046685742793
 20
110.9344002537501
 30
0.0
 10
161.5848599197464
 20
110.934294960152
 30
0.0
 10
161.5507976432369
 20
110.9340874234727
 30
0.0
 10
161.5076612999395
 20
110.9337797234946
 30
0.0
 10
161.460653778553
 20
110.9333915684967
 30
0.0
 10
161.4086538190289
 20
110.9328996660962
 30
0.0
 10
161.3505412153348
 20
110.9322733066794
 30
0.0
 10
161.2853407129921
 20
110.9314751405769
 30
0.0
 10
161.2125930736001
 20
110.9304440472407
 30
0.0
 10
161.1326120048782
 20
110.9291115708165
 30
0.0
 10
161.0464317803954
 20
110.9274310488758
 30
0.0
 10
160.9552937564513
 20
110.9253706756558
 30
0.0
 10
160.8598032041385
 20
110.9228976015125
 30
0.0
 10
160.7589256192889
 20
110.919946947482
 30
0.0
 10
160.6498558540222
 20
110.9163484532073
 30
0.0
 10
160.5289698571014
 20
110.91184930333
 30
0.0
 10
160.3943105447936
 20
110.9061862866101
 30
0.0
 10
160.2462210090619
 20
110.8992290814067
 30
0.0
 10
160.0865803379074
 20
110.8908770090231
 30
0.0
 10
159.9168934081697
 20
110.8809493506464
 30
0.0
 10
159.7377630196367
 20
110.8692741093097
 30
0.0
 10
159.5494554064389
 20
110.8557175383437
 30
0.0
 10
159.353290334541
 20
110.8401950762975
 30
0.0
 10
159.1524404157406
 20
110.8227842197343
 30
0.0
 10
158.9504649888725
 20
110.8037852393522
 30
0.0
 10
158.7489516177373
 20
110.7833445773329
 30
0.0
 10
158.5450313957142
 20
110.7610947994963
 30
0.0
 10
158.3317723129928
 20
110.7361693718999
 30
0.0
 10
158.0998090339858
 20
110.7071915955936
 30
0.0
 10
157.9275720226501
 20
110.6841810111619
 30
0.0
 10
157.8315522876929
 20
110.6708952164171
 30
0.0
 10
157.8212650974665
 20
110.6694665120488
 30
0.0
 11
161.6111371854665
 21
110.9344330360488
 31
0.0
 11
161.5917313770665
 21
110.9343298436488
 31
0.0
 11
161.5517114002665
 21
110.9340862816488
 31
0.0
 11
161.5089505818665
 21
110.9337812556488
 31
0.0
 11
161.4623224958665
 21
110.9333964796488
 31
0.0
 11
161.4106890442665
 21
110.9329082040488
 31
0.0
 11
161.3529510130664
 21
110.9322860284488
 31
0.0
 11
161.2879851762665
 21
110.9314878000488
 31
0.0
 11
161.2150886018664
 21
110.9304506864488
 31
0.0
 11
161.1347098166665
 21
110.9291099064488
 31
0.0
 11
161.0480440206664
 21
110.9274188284488
 31
0.0
 11
160.9565502294665
 21
110.9253499056488
 31
0.0
 11
160.8612981522665
 21
110.9228843440488
 31
0.0
 11
160.7615748510665
 21
110.9199646196488
 31
0.0
 11
160.6539219354665
 21
110.9164108616488
 31
0.0
 11
160.5340960646665
 21
110.9119493432488
 31
0.0
 11
160.3989277494664
 21
110.9062749284488
 31
0.0
 11
160.2499549302665
 21
110.8992767860488
 31
0.0
 11
160.0898422978665
 21
110.8908874808488
 31
0.0
 11
159.9200278670664
 21
110.8809490552488
 31
0.0
 11
159.7409170534664
 21
110.8692815660488
 31
0.0
 11
159.5524728018665
 21
110.8557159264488
 31
0.0
 11
159.3551319410664
 21
110.8400958172488
 31
0.0
 11
159.1524517590665
 21
110.8225360532488
 31
0.0
 11
158.9499395270665
 21
110.8034862192488
 31
0.0
 11
158.7492204298664
 21
110.7831157744488
 31
0.0
 11
158.5479343966665
 21
110.7611566188488
 31
0.0
 11
158.3382059498665
 21
110.7366526712488
 31
0.0
 11
158.1094919850665
 21
110.7080905780488
 31
0.0
 11
157.8521288290665
 21
110.6737370368488
 31
0.0
 11
157.8212650974665
 21
110.6694665120488
 31
0.0
  0
LINE
  5
1267
330
1F
100
AcDbEntity
  8
0
  6
Continuous
100
AcDbLine
 10
157.8212650974665
 20
110.6694665120488
 30
0.0
 11
157.8182599290665
 21
110.6690489972488
 31
0.0
  0
SPLINE
  5
1268
330
1F
100
AcDbEntity
  8
0
  6
Continuous
100
AcDbSpline
210
0.0
220
0.0
230
1.0
 70
     8
 71
     3
 72
     8
 73
     4
 74
     2
 42
0.0000000001
 43
0.0000000001
 44
0.0000000001
 12
-3.603403910515189
 22
1.73651382306155
 32
0.0
 13
-3.99995725558805
 23
-0.0184919838987692
 33
0.0
 40
0.0
 40
0.0
 40
0.0
 40
0.0
 40
0.0397600293505258
 40
0.0397600293505258
 40
0.0397600293505258
 40
0.0397600293505258
 10
161.7852660882664
 20
110.8993492724488
 30
0.0
 10
161.7375089398518
 20
110.922363885973
 30
0.0
 10
161.6831775230274
 20
110.9347699638563
 30
0.0
 10
161.6301647170664
 20
110.9345248832488
 30
0.0
 11
161.7852660882664
 21
110.8993492724488
 31
0.0
 11
161.6301647170664
 21
110.9345248832488
 31
0.0
  0
SPLINE
  5
1269
330
1F
100
AcDbEntity
  8
0
  6
Continuous
100
AcDbSpline
210
0.0
220
0.0
230
1.0
 70
     8
 71
     3
 72
    14
 73
    10
 74
     8
 42
0.0000000001
 43
0.0000000001
 44
0.0000000001
 12
-0.1871903514393515
 22
-3.995617570830323
 32
0.0
 13
-3.954026488903092
 23
-0.6047102819141451
 33
0.0
 40
0.0
 40
0.0
 40
0.0
 40
0.0
 40
0.0034666991327244
 40
0.0070931497183744
 40
0.0146845838722427
 40
0.0185312408056491
 40
0.0222974463942585
 40
0.0259248006599328
 40
0.0273272769562899
 40
0.0273272769562899
 40
0.0273272769562899
 40
0.0273272769562899
 10
152.6832365706665
 20
109.6504461508488
 30
0.0
 10
152.6830202597901
 20
109.6458289495263
 30
0.0
 10
152.681298527602
 20
109.6364164181418
 30
0.0
 10
152.6737151901668
 20
109.6182627907365
 30
0.0
 10
152.6611574495616
 20
109.6020546545834
 30
0.0
 10
152.6455023633368
 20
109.5890979820217
 30
0.0
 10
152.6325354973812
 20
109.5814418150617
 30
0.0
 10
152.6214515210741
 20
109.5773539071707
 30
0.0
 10
152.6148687184084
 20
109.5760237565276
 30
0.0
 10
152.6130202422664
 20
109.5757410592488
 30
0.0
 11
152.6832365706665
 21
109.6504461508488
 31
0.0
 11
152.6808735998664
 21
109.6367821684488
 31
0.0
 11
152.6753909234664
 21
109.6233524044488
 31
0.0
 11
152.6570480222665
 21
109.5991529016488
 31
0.0
 11
152.6451785822664
 21
109.5893618492488
 31
0.0
 11
152.6321710058664
 21
109.5817623868488
 31
0.0
 11
152.6185206850665
 21
109.5768438580488
 31
0.0
 11
152.6130202422664
 21
109.5757410592488
 31
0.0
  0
LINE
  5
126A
330
1F
100
AcDbEntity
  8
0
  6
Continuous
100
AcDbLine
 10
152.6130202422664
 20
109.5757410592488
 30
0.0
 11
152.6047226786664
 21
109.5750956068488
 31
0.0
  0
SPLINE
  5
126B
330
1F
100
AcDbEntity
  8
0
  6
Continuous
100
AcDbSpline
210
0.0
220
0.0
230
1.0
 70
     8
 71
     3
 72
    10
 73
     6
 74
     4
 42
0.0000000001
 43
0.0000000001
 44
0.0000000001
 12
1.810263319270996
 22
3.566923985018738
 32
0.0
 13
2.784979929996397
 23
2.871216952707904
 33
0.0
 40
0.0
 40
0.0
 40
0.0
 40
0.0
 40
0.0017477649743399
 40
0.0030116088516426
 40
0.0031448189322827
 40
0.0031448189322827
 40
0.0031448189322827
 40
0.0031448189322827
 10
162.9931125266664
 20
109.8827134600488
 30
0.0
 10
162.994167164941
 20
109.8847915083179
 30
0.0
 10
162.996194825622
 20
109.8882752684472
 30
0.0
 10
162.9988149654024
 20
109.8915691611625
 30
0.0
 10
163.0001000985994
 20
109.8929176607682
 30
0.0
 10
163.0002237610665
 20
109.8930451524488
 30
0.0
 11
162.9931125266664
 21
109.8827134600488
 31
0.0
 11
162.9966828066665
 21
109.8887241188488
 31
0.0
 11
162.9998561234665
 21
109.8926594564488
 31
0.0
 11
163.0002237610665
 21
109.8930451524488
 31
0.0
  0
LINE
  5
126C
330
1F
100
AcDbEntity
  8
0
  6
Continuous
100
AcDbLine
 10
163.0002237610665
 20
109.8930451524488
 30
0.0
 11
163.0043519206665
 21
109.8965269248488
 31
0.0
  0
LINE
  5
126D
330
1F
100
AcDbEntity
  8
0
  6
Continuous
100
AcDbLine
 10
163.0043519206665
 20
109.8965269248488
 30
0.0
 11
163.0073391722665
 21
109.8982021396488
 31
0.0
  0
LINE
  5
126E
330
1F
100
AcDbEntity
  8
0
  6
Continuous
100
AcDbLine
 10
162.9931125266664
 20
109.8827134600488
 30
0.0
 11
162.9921701758665
 21
109.8808189772488
 31
0.0
  0
LINE
  5
126F
330
1F
100
AcDbEntity
  8
0
  6
Continuous
100
AcDbLine
 10
162.9921701758665
 20
109.8808189772488
 30
0.0
 11
162.9910680798665
 21
109.8783794200488
 31
0.0
  0
LINE
  5
1270
330
1F
100
AcDbEntity
  8
0
  6
Continuous
100
AcDbLine
 10
162.9910680798665
 20
109.8783794200488
 30
0.0
 11
162.9902056302664
 21
109.8760343572488
 31
0.0
  0
LINE
  5
1271
330
1F
100
AcDbEntity
  8
0
  6
Continuous
100
AcDbLine
 10
162.9902056302664
 20
109.8760343572488
 30
0.0
 11
162.9895048970664
 21
109.8731721044488
 31
0.0
  0
LINE
  5
1272
330
1F
100
AcDbEntity
  8
0
  6
Continuous
100
AcDbLine
 10
162.9302534614664
 20
109.7239975380488
 30
0.0
 11
162.9267211978665
 21
109.7171245664488
 31
0.0
  0
LINE
  5
1273
330
1F
100
AcDbEntity
  8
0
  6
Continuous
100
AcDbLine
 10
162.9253951550664
 20
109.7149866444488
 30
0.0
 11
162.9220442278665
 21
109.7104046256488
 31
0.0
  0
LINE
  5
1274
330
1F
100
AcDbEntity
  8
0
  6
Continuous
100
AcDbLine
 10
162.9210778610664
 20
109.7092698232488
 30
0.0
 11
162.9162908094664
 21
109.7046521632488
 31
0.0
  0
LINE
  5
1275
330
1F
100
AcDbEntity
  8
0
  6
Continuous
100
AcDbLine
 10
162.9153534894665
 20
109.7039188560488
 30
0.0
 11
162.9098238662665
 21
109.7005160484488
 31
0.0
  0
LINE
  5
1276
330
1F
100
AcDbEntity
  8
0
  6
Continuous
100
AcDbLine
 10
162.9033020014665
 20
109.6981999184488
 30
0.0
 11
162.8955902366665
 21
109.6973264844488
 31
0.0
  0
SPLINE
  5
1277
330
1F
100
AcDbEntity
  8
0
  6
Continuous
100
AcDbSpline
210
0.0
220
0.0
230
1.0
 70
     8
 71
     3
 72
     8
 73
     4
 74
     2
 42
0.0000000001
 43
0.0000000001
 44
0.0000000001
 12
3.604218462402255
 22
-1.734822548642576
 32
0.0
 13
0.893934160929416
 23
-3.898830813965056
 33
0.0
 40
0.0
 40
0.0
 40
0.0
 40
0.0
 40
0.0386619067895688
 40
0.0386619067895688
 40
0.0386619067895688
 40
0.0386619067895688
 10
163.0753977706665
 20
110.2763918312488
 30
0.0
 10
163.121846423414
 20
110.2540346486914
 30
0.0
 10
163.1607307229312
 20
110.2060747408214
 30
0.0
 10
163.1722511226664
 20
110.1558293296488
 30
0.0
 11
163.0753977706665
 21
110.2763918312488
 31
0.0
 11
163.1722511226664
 21
110.1558293296488
 31
0.0
  0
SPLINE
  5
1278
330
1F
100
AcDbEntity
  8
0
  6
Continuous
100
AcDbSpline
210
0.0
220
0.0
230
1.0
 70
     8
 71
     3
 72
    12
 73
     8
 74
     6
 42
0.0000000001
 43
0.0000000001
 44
0.0000000001
 12
2.9219293783347
 22
2.731726323778535
 32
0.0
 13
3.996031523208093
 23
-0.1781349643590664
 33
0.0
 40
0.0
 40
0.0
 40
0.0
 40
0.0
 40
0.0104335996649799
 40
0.0207752976152627
 40
0.0412629408277307
 40
0.0617517596026346
 40
0.0628135032863422
 40
0.0628135032863422
 40
0.0628135032863422
 40
0.0628135032863422
 10
146.2387544238664
 20
110.8202651084488
 30
0.0
 10
146.2489165043274
 20
110.8297656880677
 30
0.0
 10
146.2704339148988
 20
110.847368679871
 30
0.0
 10
146.3174000109667
 20
110.8762893851644
 30
0.0
 10
146.3823274710001
 20
110.9002504758659
 30
0.0
 10
146.4387885102019
 20
110.9060328057659
 30
0.0
 10
146.4675005585233
 20
110.9049499618066
 30
0.0
 10
146.4689148122664
 20
110.9048869172488
 30
0.0
 11
146.2387544238664
 21
110.8202651084488
 31
0.0
 11
146.2710661554664
 21
110.8466793476488
 31
0.0
 11
146.3062922522665
 21
110.8683665228488
 31
0.0
 11
146.3831238938665
 21
110.8968760868488
 31
0.0
 11
146.4646708494665
 21
110.9050468364488
 31
0.0
 11
146.4689148122664
 21
110.9048869172488
 31
0.0
  0
LINE
  5
1279
330
1F
100
AcDbEntity
  8
0
  6
Continuous
100
AcDbLine
 10
163.0137049002664
 20
109.8998342340488
 30
0.0
 11
163.0105095050664
 21
109.8993152628488
 31
0.0
  0
SPLINE
  5
127A
330
1F
100
AcDbEntity
  8
0
  6
Continuous
100
AcDbSpline
210
0.0
220
0.0
230
1.0
 70
     8
 71
     3
 72
    12
 73
     8
 74
     6
 42
0.0000000001
 43
0.0000000001
 44
0.0000000001
 12
-3.995731858645561
 22
-0.1847347119652534
 32
0.0
 13
-3.997710638557089
 23
-0.1353131566680569
 33
0.0
 40
0.0
 40
0.0
 40
0.0
 40
0.0
 40
0.1150881990378825
 40
0.1821101085292983
 40
0.2500715282684002
 40
0.3882214929574061
 40
0.5251159677203552
 40
0.5251159677203552
 40
0.5251159677203552
 40
0.5251159677203552
 10
158.3844186426664
 20
110.6943654772488
 30
0.0
 10
158.2311314481832
 20
110.6872785488155
 30
0.0
 10
157.9885653510159
 20
110.6763151422556
 30
0.0
 10
157.6554494251328
 20
110.6618740774304
 30
0.0
 10
157.2915906985268
 20
110.6466317802984
 30
0.0
 10
156.8346053020565
 20
110.6285745450454
 30
0.0
 10
156.4681144324396
 20
110.615416734419
 30
0.0
 10
156.2856929330664
 20
110.6092421932488
 30
0.0
 11
158.3844186426664
 21
110.6943654772488
 31
0.0
 11
157.9245344286664
 21
110.6735999616488
 31
0.0
 11
157.6566981738665
 21
110.6619929704488
 31
0.0
 11
157.3850905198665
 21
110.6506195164488
 31
0.0
 11
156.8329199494665
 21
110.6288418884488
 31
0.0
 11
156.2856929330664
 21
110.6092421932488
 31
0.0
  0
LINE
  5
127B
330
1F
100
AcDbEntity
  8
0
  6
Continuous
100
AcDbLine
 10
156.2856929330664
 20
110.6092421932488
 30
0.0
 11
156.2727404270665
 21
110.6088044116488
 31
0.0
  0
LINE
  5
127C
330
1F
100
AcDbEntity
  8
0
  6
Continuous
100
AcDbLine
 10
145.5752195586665
 20
110.1268322136488
 30
0.0
 11
145.5703761598664
 21
110.1230023956488
 31
0.0
  0
SPLINE
  5
127D
330
1F
100
AcDbEntity
  8
0
  6
Continuous
100
AcDbSpline
210
0.0
220
0.0
230
1.0
 70
     8
 71
     3
 72
     9
 73
     5
 74
     3
 42
0.0000000001
 43
0.0000000001
 44
0.0000000001
 12
0.7028555680948305
 22
3.937765108586099
 32
0.0
 13
1.677974477217138
 23
3.631033138627059
 33
0.0
 40
0.0
 40
0.0
 40
0.0
 40
0.0
 40
0.0057306577593695
 40
0.0112883531351791
 40
0.0112883531351791
 40
0.0112883531351791
 40
0.0112883531351791
 10
145.5047947550665
 20
110.0254615220488
 30
0.0
 10
145.5061373633048
 20
110.0329835167735
 30
0.0
 10
145.5097083080485
 20
110.0476534037849
 30
0.0
 10
145.5151555956689
 20
110.0617343338875
 30
0.0
 10
145.5182641526664
 20
110.0684610592488
 30
0.0
 11
145.5047947550665
 21
110.0254615220488
 31
0.0
 11
145.5102465934665
 21
110.0477263928488
 31
0.0
 11
145.5182641526664
 21
110.0684610592488
 31
0.0
  0
SPLINE
  5
127E
330
1F
100
AcDbEntity
  8
0
  6
Continuous
100
AcDbSpline
210
0.0
220
0.0
230
1.0
 70
     8
 71
     3
 72
     9
 73
     5
 74
     3
 42
0.0000000001
 43
0.0000000001
 44
0.0000000001
 12
1.677974500574178
 22
3.631033127833294
 32
0.0
 13
2.906318816654712
 23
2.748328753253285
 33
0.0
 40
0.0
 40
0.0
 40
0.0
 40
0.0
 40
0.0055541167008968
 40
0.0170245923325187
 40
0.0170245923325187
 40
0.0170245923325187
 40
0.0170245923325187
 10
145.5182641526664
 20
110.0684610592488
 30
0.0
 10
145.5213707080655
 20
110.0751834531611
 30
0.0
 10
145.5322075746735
 20
110.0951875195022
 30
0.0
 10
145.5469118150785
 20
110.1128982109849
 30
0.0
 10
145.5580241014664
 20
110.1234064236488
 30
0.0
 11
145.5182641526664
 21
110.0684610592488
 31
0.0
 11
145.5288531806665
 21
110.0879916476488
 31
0.0
 11
145.5580241014664
 21
110.1234064236488
 31
0.0
  0
LINE
  5
127F
330
1F
100
AcDbEntity
  8
0
  6
Continuous
100
AcDbLine
 10
152.6052622834664
 20
109.6973101692488
 30
0.0
 11
152.6035968230664
 21
109.6504390704488
 31
0.0
  0
SPLINE
  5
1280
330
1F
100
AcDbEntity
  8
0
  6
Continuous
100
AcDbSpline
210
0.0
220
0.0
230
1.0
 70
     8
 71
     3
 72
    12
 73
     8
 74
     6
 42
0.0000000001
 43
0.0000000001
 44
0.0000000001
 12
3.94696438316976
 22
0.6492088708492449
 32
0.0
 13
3.90289657426814
 23
-0.8760127456641342
 33
0.0
 40
0.0
 40
0.0
 40
0.0
 40
0.0
 40
0.0179548450057869
 40
0.0525588216294153
 40
0.086828990337756
 40
0.1264906946105719
 40
0.1707704455562201
 40
0.1707704455562201
 40
0.1707704455562201
 40
0.1707704455562201
 10
162.4726018038665
 20
109.5684342568488
 30
0.0
 10
162.4962241817809
 20
109.5723197383996
 30
0.0
 10
162.565697637612
 20
109.5817759689728
 30
0.0
 10
162.6816587306867
 20
109.5870740460831
 30
0.0
 10
162.8262209943602
 20
109.5771917949583
 30
0.0
 10
162.9824923075583
 20
109.5562697721664
 30
0.0
 10
163.0926318236414
 20
109.5358759546499
 30
0.0
 10
163.1502382530665
 20
109.5229460792488
 30
0.0
 11
162.4726018038665
 21
109.5684342568488
 31
0.0
 11
162.5437743926664
 21
109.5780512184488
 31
0.0
 11
162.6820422894665
 21
109.5844505844488
 31
0.0
 11
162.8188814834665
 21
109.5763175408488
 31
0.0
 11
162.9762025902664
 21
109.5558509356488
 31
0.0
 11
163.1502382530665
 21
109.5229460792488
 31
0.0
  0
LINE
  5
1281
330
1F
100
AcDbEntity
  8
0
  6
Continuous
100
AcDbLine
 10
147.5310951406665
 20
108.5635607880488
 30
0.0
 11
147.5346831950664
 21
108.5623821468488
 31
0.0
  0
SPLINE
  5
1282
330
1F
100
AcDbEntity
  8
0
  6
Continuous
100
AcDbSpline
210
0.0
220
0.0
230
1.0
 70
     8
 71
     3
 72
     8
 73
     4
 74
     2
 42
0.0000000001
 43
0.0000000001
 44
0.0000000001
 12
-0.8974098251836842
 22
3.898032273553387
 32
0.0
 13
-3.902775751829092
 23
0.8765508718464987
 33
0.0
 40
0.0
 40
0.0
 40
0.0
 40
0.0
 40
0.0419938700873287
 40
0.0419938700873287
 40
0.0419938700873287
 40
0.0419938700873287
 10
163.2692722550665
 20
109.4043964828488
 30
0.0
 10
163.2567103511952
 20
109.4589609698128
 30
0.0
 10
163.2048943318339
 20
109.510670500103
 30
0.0
 10
163.1502634458664
 20
109.5229404212488
 30
0.0
 11
163.2692722550665
 21
109.4043964828488
 31
0.0
 11
163.1502634458664
 21
109.5229404212488
 31
0.0
  0
SPLINE
  5
1283
330
1F
100
AcDbEntity
  8
0
  6
Continuous
100
AcDbSpline
210
0.0
220
0.0
230
1.0
 70
     8
 71
     3
 72
    10
 73
     6
 74
     4
 42
0.0000000001
 43
0.0000000001
 44
0.0000000001
 12
-3.884628909702023
 22
0.953760050488208
 32
0.0
 13
-3.782718951920195
 23
1.300398912174177
 33
0.0
 40
0.0
 40
0.0
 40
0.0
 40
0.0
 40
0.0187232809692512
 40
0.0378305988563347
 40
0.0573422977659774
 40
0.0573422977659774
 40
0.0573422977659774
 40
0.0573422977659774
 10
146.6377771882664
 20
108.5873474520488
 30
0.0
 10
146.6135328554206
 20
108.5932999578497
 30
0.0
 10
146.5647625261072
 20
108.6062252723894
 30
0.0
 10
146.4915703876345
 20
108.6283645119824
 30
0.0
 10
146.442685665083
 20
108.6445599840365
 30
0.0
 10
146.4180832406665
 20
108.6530176480488
 30
0.0
 11
146.6377771882664
 21
108.5873474520488
 31
0.0
 11
146.5653759454665
 21
108.6065057412488
 31
0.0
 11
146.4921866330664
 21
108.6285229640488
 31
0.0
 11
146.4180832406665
 21
108.6530176480488
 31
0.0
  0
LINE
  5
1284
330
1F
100
AcDbEntity
  8
0
  6
Continuous
100
AcDbLine
 10
146.6375420582665
 20
108.5873230696488
 30
0.0
 11
146.6580749702665
 21
108.5845822056488
 31
0.0
  0
SPLINE
  5
1285
330
1F
100
AcDbEntity
  8
0
  6
Continuous
100
AcDbSpline
210
0.0
220
0.0
230
1.0
 70
     8
 71
     3
 72
    11
 73
     7
 74
     5
 42
0.0000000001
 43
0.0000000001
 44
0.0000000001
 12
3.753445893219747
 22
-1.382622119984999
 32
0.0
 13
3.630923304893598
 23
-1.678212130208976
 33
0.0
 40
0.0
 40
0.0
 40
0.0
 40
0.0
 40
0.0047688053643686
 40
0.0087248890838164
 40
0.0116190683883147
 40
0.0139740211417522
 40
0.0139740211417522
 40
0.0139740211417522
 40
0.0139740211417522
 10
147.4794068718664
 20
108.5848012096488
 30
0.0
 10
147.4853733561699
 20
108.5826033910546
 30
0.0
 10
147.496247609258
 20
108.5784667596289
 30
0.0
 10
147.5105950168454
 20
108.572619033259
 30
0.0
 10
147.5218666130262
 20
108.5677601883317
 30
0.0
 10
147.528244923055
 20
108.5648781581411
 30
0.0
 10
147.5310951406665
 20
108.5635607880488
 30
0.0
 11
147.4794068718664
 21
108.5848012096488
 31
0.0
 11
147.4972304830664
 21
108.5780054052488
 31
0.0
 11
147.5118826578665
 21
108.5720285040488
 31
0.0
 11
147.5225119450665
 21
108.5674417148488
 31
0.0
 11
147.5310951406665
 21
108.5635607880488
 31
0.0
  0
LINE
  5
1286
330
1F
100
AcDbEntity
  8
0
  6
Continuous
100
AcDbLine
 10
163.0137049010665
 20
109.8998342272488
 30
0.0
 11
163.0105095070664
 21
109.8993152536488
 31
0.0
  0
LINE
  5
1287
330
1F
100
AcDbEntity
  8
0
  6
Continuous
100
AcDbLine
 10
162.9302701778665
 20
109.7239975380488
 30
0.0
 11
162.9267344314664
 21
109.7171167232488
 31
0.0
  0
LINE
  5
1288
330
1F
100
AcDbEntity
  8
0
  6
Continuous
100
AcDbLine
 10
162.9254068574664
 20
109.7149789140488
 30
0.0
 11
162.9220464278664
 21
109.7104025260488
 31
0.0
  0
LINE
  5
1289
330
1F
100
AcDbEntity
  8
0
  6
Continuous
100
AcDbLine
 10
162.9210768762665
 20
109.7092705496488
 30
0.0
 11
162.9162860370664
 21
109.7046581576488
 31
0.0
  0
LINE
  5
128A
330
1F
100
AcDbEntity
  8
0
  6
Continuous
100
AcDbLine
 10
162.9153502882665
 20
109.7039233036488
 30
0.0
 11
162.9098238994664
 21
109.7005159568488
 31
0.0
  0
LINE
  5
128B
330
1F
100
AcDbEntity
  8
0
  6
Continuous
100
AcDbLine
 10
162.9098238994664
 20
109.7005159568488
 30
0.0
 11
162.9032974634665
 21
109.6982191700488
 31
0.0
  0
LINE
  5
128C
330
1F
100
AcDbEntity
  8
0
  6
Continuous
100
AcDbLine
 10
163.0086266770664
 20
109.8987346792488
 30
0.0
 11
163.0043583994664
 21
109.8965172616488
 31
0.0
  0
LINE
  5
128D
330
1F
100
AcDbEntity
  8
0
  6
Continuous
100
AcDbLine
 10
163.0043583994664
 20
109.8965172616488
 30
0.0
 11
163.0002240682664
 21
109.8930448968488
 31
0.0
  0
LINE
  5
128E
330
1F
100
AcDbEntity
  8
0
  6
Continuous
100
AcDbLine
 10
163.0002240682664
 20
109.8930448968488
 30
0.0
 11
162.9964519154665
 21
109.8884124872488
 31
0.0
  0
LINE
  5
128F
330
1F
100
AcDbEntity
  8
0
  6
Continuous
100
AcDbLine
 10
162.9964519154665
 20
109.8884124872488
 30
0.0
 11
162.9931152170664
 21
109.8827161916488
 31
0.0
  0
LINE
  5
1290
330
1F
100
AcDbEntity
  8
0
  6
Continuous
100
AcDbLine
 10
161.5375444894665
 20
109.6855154608488
 30
0.0
 11
161.5368298314664
 21
109.6757923388488
 31
0.0
  0
LINE
  5
1291
330
1F
100
AcDbEntity
  8
0
  6
Continuous
100
AcDbLine
 10
160.3995525766664
 20
109.6753569440488
 30
0.0
 11
160.3983071150665
 21
109.6855154608488
 31
0.0
  0
LINE
  5
1292
330
1F
100
AcDbEntity
  8
0
  6
Continuous
100
AcDbLine
 10
160.3365522398665
 20
109.6757833496488
 30
0.0
 11
160.3358865482664
 21
109.6855154608488
 31
0.0
  0
LINE
  5
1293
330
1F
100
AcDbEntity
  8
0
  6
Continuous
100
AcDbLine
 10
160.3364861262664
 20
109.6757783140488
 30
0.0
 11
160.3471538930664
 21
109.5252993180488
 31
0.0
  0
SPLINE
  5
1294
330
1F
100
AcDbEntity
  8
0
  6
Continuous
100
AcDbSpline
210
0.0
220
0.0
230
1.0
 70
     8
 71
     3
 72
    10
 73
     6
 74
     4
 42
0.0000000001
 43
0.0000000001
 44
0.0000000001
 12
-0.1779698331682182
 22
-3.996038881002295
 32
0.0
 13
-0.1698603660904281
 23
-3.996391804619715
 33
0.0
 40
0.0
 40
0.0
 40
0.0
 40
0.0
 40
0.0185083991794494
 40
0.0361829381949882
 40
0.0486192225201561
 40
0.0486192225201561
 40
0.0486192225201561
 40
0.0486192225201561
 10
161.4732846394664
 20
109.6799591716488
 30
0.0
 10
161.4721866605617
 20
109.6553057440667
 30
0.0
 10
161.4696904940206
 20
109.6071061201538
 30
0.0
 10
161.462691080298
 20
109.5426421390385
 30
0.0
 10
161.4602140738026
 20
109.5025576629678
 30
0.0
 10
161.4595099298665
 20
109.4859909080488
 30
0.0
 11
161.4732846394664
 21
109.6799591716488
 31
0.0
 11
161.4689231302665
 21
109.6060541604488
 31
0.0
 11
161.4625770862665
 21
109.5356413988488
 31
0.0
 11
161.4595099298665
 21
109.4859909080488
 31
0.0
  0
LINE
  5
1295
330
1F
100
AcDbEntity
  8
0
  6
Continuous
100
AcDbLine
 10
161.4738152414664
 20
109.6855154608488
 30
0.0
 11
161.4732846394664
 21
109.6799591716488
 31
0.0
  0
LINE
  5
1296
330
1F
100
AcDbEntity
  8
0
  6
Continuous
100
AcDbLine
 10
160.5341824042665
 20
109.6855154608488
 30
0.0
 11
160.5341035806665
 21
109.6800463696488
 31
0.0
  0
SPLINE
  5
1297
330
1F
100
AcDbEntity
  8
0
  6
Continuous
100
AcDbSpline
210
0.0
220
0.0
230
1.0
 70
     8
 71
     3
 72
    10
 73
     6
 74
     4
 42
0.0000000001
 43
0.0000000001
 44
0.0000000001
 12
0.1490536090922816
 22
-3.997221912981135
 32
0.0
 13
0.0418045843331807
 23
-3.999781541125556
 33
0.0
 40
0.0
 40
0.0
 40
0.0
 40
0.0
 40
0.0184113373434893
 40
0.0359875918600682
 40
0.0396335627007524
 40
0.0396335627007524
 40
0.0396335627007524
 40
0.0396335627007524
 10
160.5341035806665
 20
109.6800463696488
 30
0.0
 10
160.5350183394263
 20
109.6555149692899
 30
0.0
 10
160.5364578228216
 20
109.6075359549282
 30
0.0
 10
160.5353043641597
 20
109.554691414706
 30
0.0
 10
160.535469549768
 20
109.5263950370048
 30
0.0
 10
160.5355203558665
 20
109.5215340080488
 30
0.0
 11
160.5341035806665
 21
109.6800463696488
 31
0.0
 11
160.5358403294665
 21
109.6064215016488
 31
0.0
 11
160.5354358970664
 21
109.5361176468488
 31
0.0
 11
160.5355203558665
 21
109.5215340080488
 31
0.0
  0
LINE
  5
1298
330
1F
100
AcDbEntity
  8
0
  6
Continuous
100
AcDbLine
 10
147.5310951406665
 20
108.5635607880488
 30
0.0
 11
147.5344762326665
 21
108.5624502872488
 31
0.0
  0
SPLINE
  5
1299
330
1F
100
AcDbEntity
  8
0
  6
Continuous
100
AcDbSpline
210
0.0
220
0.0
230
1.0
 70
     8
 71
     3
 72
    16
 73
    12
 74
    10
 42
0.0000000001
 43
0.0000000001
 44
0.0000000001
 12
-3.999473637771739
 22
-0.0648892962582097
 32
0.0
 13
-1.831313717350457
 23
3.55616226691697
 33
0.0
 40
0.0
 40
0.0
 40
0.0
 40
0.0
 40
0.0018987752537163
 40
0.0095387856439997
 40
0.016885317883095
 40
0.024323301400446
 40
0.0319422492231308
 40
0.0395465407971905
 40
0.0470139394273986
 40
0.0542766179175048
 40
0.0601306538876686
 40
0.0601306538876686
 40
0.0601306538876686
 40
0.0601306538876686
 10
158.8596988730664
 20
108.5024676176488
 30
0.0
 10
158.8571675058761
 20
108.5024265475855
 30
0.0
 10
158.8444496230778
 20
108.5023104200974
 30
0.0
 10
158.8219268826691
 20
108.5029363793101
 30
0.0
 10
158.7921427011531
 20
108.50583216387
 30
0.0
 10
158.7626911452729
 20
108.5110283617458
 30
0.0
 10
158.7334998310534
 20
108.5190284179641
 30
0.0
 10
158.7053401153373
 20
108.5303050229249
 30
0.0
 10
158.6794363751673
 20
108.5452567077482
 30
0.0
 10
158.6584948717143
 20
108.5633265669239
 30
0.0
 10
158.6481975481244
 20
108.57773300584
 30
0.0
 10
158.6446240226664
 20
108.5846723064488
 30
0.0
 11
158.8596988730664
 21
108.5024676176488
 31
0.0
 11
158.8521040826665
 21
108.5023989284488
 31
0.0
 11
158.8215575006664
 21
108.5033058288488
 31
0.0
 11
158.7923138078664
 21
108.5061956396488
 31
0.0
 11
158.7630261774665
 21
108.5114313140488
 31
0.0
 11
158.7336606782664
 21
108.5195824680488
 31
0.0
 11
158.7054818146665
 21
108.5310347888488
 31
0.0
 11
158.6797382054665
 21
108.5461827016488
 31
0.0
 11
158.6579959598665
 21
108.5654497392488
 31
0.0
 11
158.6446240226664
 21
108.5846723064488
 31
0.0
  0
LINE
  5
129A
330
1F
100
AcDbEntity
  8
0
100
AcDbLine
 10
145.4768971790664
 20
109.6433877768488
 30
0.0
 11
145.4856359806665
 21
109.6855486016488
 31
0.0
  0
LINE
  5
129B
330
1F
100
AcDbEntity
  8
0
100
AcDbLine
 10
145.7448602158665
 20
109.5295290468488
 30
0.0
 11
145.4698530518368
 21
109.5278875014424
 31
0.0
  0
ENDSEC
  0
SECTION
  2
OBJECTS
  0
DICTIONARY
  5
C
330
0
100
AcDbDictionary
281
     1
  3
ACAD_COLOR
350
C9
  3
ACAD_GROUP
350
D
  3
ACAD_LAYOUT
350
1A
  3
ACAD_MATERIAL
350
C8
  3
ACAD_MLEADERSTYLE
350
2EC
  3
ACAD_MLINESTYLE
350
17
  3
ACAD_PLOTSETTINGS
350
19
  3
ACAD_PLOTSTYLENAME
350
E
  3
ACAD_SCALELIST
350
2CA
  3
ACAD_TABLESTYLE
350
123
  3
ACAD_VISUALSTYLE
350
296
  3
ACDB_RECOMPOSE_DATA
350
30D
  3
AcDbVariableDictionary
350
9E
  3
AcmDictionary
350
63
  3
AMG
350
49
  3
AMGSNAPSETTINGS
350
58A
  0
DICTIONARY
  5
105E
330
8
100
AcDbDictionary
280
     1
281
     1
  0
DICTIONARY
  5
B0B
330
10
100
AcDbDictionary
280
     1
281
     1
  3
ADSK_XREC_LAYER_RECONCILED
360
B0C
  0
DICTIONARY
  5
B0D
330
38C
100
AcDbDictionary
280
     1
281
     1
  3
ADSK_XREC_LAYER_RECONCILED
360
B0E
  0
DICTIONARY
  5
790
330
78F
100
AcDbDictionary
280
     1
281
     1
  3
ADSK_XREC_LAYER_RECONCILED
360
B0F
  0
DICTIONARY
  5
99
330
1F
100
AcDbDictionary
280
     1
281
     1
  0
DICTIONARY
  5
C9
102
{ACAD_REACTORS
330
C
102
}
330
C
100
AcDbDictionary
281
     1
  0
DICTIONARY
  5
D
102
{ACAD_REACTORS
330
C
102
}
330
C
100
AcDbDictionary
281
     1
  0
DICTIONARY
  5
1A
102
{ACAD_REACTORS
330
C
102
}
330
C
100
AcDbDictionary
281
     1
  3
Layout1
350
1E
  3
Layout2
350
26
  3
Model
350
22
  0
DICTIONARY
  5
C8
102
{ACAD_REACTORS
330
C
102
}
330
C
100
AcDbDictionary
281
     1
  3
ByBlock
350
294
  3
ByLayer
350
293
  3
Global
350
295
  0
DICTIONARY
  5
2EC
102
{ACAD_REACTORS
330
C
102
}
330
C
100
AcDbDictionary
281
     1
  3
Standard
350
2ED
  0
DICTIONARY
  5
17
102
{ACAD_REACTORS
330
C
102
}
330
C
100
AcDbDictionary
281
     1
  3
Standard
350
18
  0
DICTIONARY
  5
19
102
{ACAD_REACTORS
330
C
102
}
330
C
100
AcDbDictionary
281
     1
  0
ACDBDICTIONARYWDFLT
  5
E
102
{ACAD_REACTORS
330
C
102
}
330
C
100
AcDbDictionary
281
     1
  3
Normal
350
F
100
AcDbDictionaryWithDefault
340
F
  0
DICTIONARY
  5
2CA
102
{ACAD_REACTORS
330
C
102
}
330
C
100
AcDbDictionary
281
     1
  3
A0
350
2CB
  3
A1
350
2CC
  3
A2
350
2CD
  3
A3
350
2CE
  3
A4
350
2CF
  3
A5
350
2D0
  3
A6
350
2D1
  3
A7
350
2D2
  3
A8
350
2D3
  3
A9
350
2D4
  3
B0
350
2D5
  3
B1
350
2D6
  3
B2
350
2D7
  3
B3
350
2D8
  3
B4
350
2D9
  3
B5
350
2DA
  3
B6
350
2DB
  3
B7
350
2DC
  3
B8
350
2DD
  3
B9
350
2DE
  3
C0
350
2DF
  3
C1
350
2E0
  3
C2
350
2E1
  3
C3
350
2E2
  3
C4
350
2E3
  3
C5
350
2E4
  3
C6
350
2E5
  3
C7
350
2E6
  3
C8
350
2E7
  3
C9
350
2E8
  3
D0
350
2E9
  3
D1
350
2EA
  3
D2
350
2EB
  0
DICTIONARY
  5
123
102
{ACAD_REACTORS
330
C
102
}
330
C
100
AcDbDictionary
281
     1
  3
Standard
350
124
  0
DICTIONARY
  5
296
102
{ACAD_REACTORS
330
C
102
}
330
C
100
AcDbDictionary
281
     1
  3
2dWireframe
350
29C
  3
3D Hidden
350
29E
  3
3dWireframe
350
29D
  3
Basic
350
29B
  3
Brighten
350
2A2
  3
ColorChange
350
2A6
  3
Conceptual
350
29F
  3
Dim
350
2A1
  3
Facepattern
350
2A5
  3
Flat
350
297
  3
FlatWithEdges
350
298
  3
Gouraud
350
299
  3
GouraudWithEdges
350
29A
  3
Linepattern
350
2A4
  3
Realistic
350
2A0
  3
Thicken
350
2A3
  0
XRECORD
  5
30D
102
{ACAD_REACTORS
330
C
102
}
330
C
100
AcDbXrecord
280
     1
 90
        1
330
124
  0
DICTIONARY
  5
9E
102
{ACAD_REACTORS
330
C
102
}
330
C
100
AcDbDictionary
281
     1
  3
CANNOSCALE
350
310
  3
CMLEADERSTYLE
350
30E
  3
CTABLESTYLE
350
144
  3
DIMASSOC
350
A0
  3
INDEXCTL
350
9F
  3
LAYEREVAL
350
36B
  3
LAYERNOTIFY
350
36C
  3
LIGHTINGUNITS
350
311
  3
MSLTSCALE
350
30F
  0
DICTIONARY
  5
63
102
{ACAD_REACTORS
330
C
102
}
330
C
100
AcDbDictionary
281
     1
  3
AcmStdDictionary
350
69
  3
AMDTSECTSYM_ARROWCOLOR
350
12C
  0
DICTIONARY
  5
49
102
{ACAD_REACTORS
330
C
102
}
330
C
100
AcDbDictionary
281
     1
  0
DICTIONARY
  5
58A
102
{ACAD_REACTORS
330
C
102
}
330
C
100
AcDbDictionary
281
     1
  0
XRECORD
  5
B0C
102
{ACAD_REACTORS
330
B0B
102
}
330
B0B
100
AcDbXrecord
280
     1
290
     1
  0
XRECORD
  5
B0E
102
{ACAD_REACTORS
330
B0D
102
}
330
B0D
100
AcDbXrecord
280
     1
290
     1
  0
XRECORD
  5
B0F
102
{ACAD_REACTORS
330
790
102
}
330
790
100
AcDbXrecord
280
     1
290
     1
  0
LAYOUT
  5
1E
102
{ACAD_REACTORS
330
1A
102
}
330
1A
100
AcDbPlotSettings
  1

  2

  4

  6

 40
0.0
 41
0.0
 42
0.0
 43
0.0
 44
0.0
 45
0.0
 46
0.0
 47
0.0
 48
0.0
 49
0.0
140
0.0
141
0.0
142
1.0
143
1.0
 70
   688
 72
     0
 73
     0
 74
     5
  7

 75
    16
147
1.0
 76
     0
 77
     2
 78
   300
148
0.0
149
0.0
100
AcDbLayout
  1
Layout1
 70
     1
 71
     1
 10
0.0
 20
0.0
 11
12.0
 21
9.0
 12
0.0
 22
0.0
 32
0.0
 14
1.000000000000000E+20
 24
1.000000000000000E+20
 34
1.000000000000000E+20
 15
-1.000000000000000E+20
 25
-1.000000000000000E+20
 35
-1.000000000000000E+20
146
0.0
 13
0.0
 23
0.0
 33
0.0
 16
1.0
 26
0.0
 36
0.0
 17
0.0
 27
1.0
 37
0.0
 76
     0
330
1B
  0
LAYOUT
  5
26
102
{ACAD_REACTORS
330
1A
102
}
330
1A
100
AcDbPlotSettings
  1

  2

  4

  6

 40
0.0
 41
0.0
 42
0.0
 43
0.0
 44
0.0
 45
0.0
 46
0.0
 47
0.0
 48
0.0
 49
0.0
140
0.0
141
0.0
142
1.0
143
1.0
 70
   688
 72
     0
 73
     0
 74
     5
  7

 75
    16
147
1.0
 76
     0
 77
     2
 78
   300
148
0.0
149
0.0
100
AcDbLayout
  1
Layout2
 70
     1
 71
     2
 10
0.0
 20
0.0
 11
12.0
 21
9.0
 12
0.0
 22
0.0
 32
0.0
 14
0.0
 24
0.0
 34
0.0
 15
0.0
 25
0.0
 35
0.0
146
0.0
 13
0.0
 23
0.0
 33
0.0
 16
1.0
 26
0.0
 36
0.0
 17
0.0
 27
1.0
 37
0.0
 76
     0
330
23
  0
LAYOUT
  5
22
102
{ACAD_REACTORS
330
1A
102
}
330
1A
100
AcDbPlotSettings
  1

  2
qr31-HP LaserJet 5200 PS
  4
A4
  6

 40
5.027082920074462
 41
5.069430828094482
 42
5.365737915039062
 43
5.365753173828125
 44
209.8886566162109
 45
297.0530090332031
 46
0.0
 47
0.0
 48
0.0
 49
0.0
140
0.0
141
0.0
142
1.0
143
6.278680841213407
 70
 11952
 72
     0
 73
     1
 74
     0
  7

 75
     0
147
0.1592691244052376
 76
     0
 77
     2
 78
   300
148
-2961.281808993359
149
-2200.425986437707
100
AcDbLayout
  1
Model
 70
     1
 71
     0
 10
0.0
 20
0.0
 11
12.0
 21
9.0
 12
0.0
 22
0.0
 32
0.0
 14
0.0
 24
0.0
 34
0.0
 15
0.0
 25
0.0
 35
0.0
146
0.0
 13
0.0
 23
0.0
 33
0.0
 16
1.0
 26
0.0
 36
0.0
 17
0.0
 27
1.0
 37
0.0
 76
     0
330
1F
331
291
1001
ACAD_PSEXT
1000
qr31-HP LaserJet 5200 PS
1000
HP LaserJet 5200 PS
1000
qr31
1000

1070
     0
  0
MATERIAL
  5
294
102
{ACAD_REACTORS
330
C8
102
}
330
C8
100
AcDbMaterial
  1
ByBlock
 73
     1
 78
     1
172
     1
176
     1
270
     1
274
     1
 94
       63
  0
MATERIAL
  5
293
102
{ACAD_REACTORS
330
C8
102
}
330
C8
100
AcDbMaterial
  1
ByLayer
 73
     1
 78
     1
172
     1
176
     1
270
     1
274
     1
 94
       63
  0
MATERIAL
  5
295
102
{ACAD_REACTORS
330
C8
102
}
330
C8
100
AcDbMaterial
  1
Global
 73
     1
 78
     1
172
     1
176
     1
270
     1
274
     1
 94
       63
  0
MLEADERSTYLE
  5
2ED
102
{ACAD_REACTORS
330
2EC
102
}
330
2EC
100
AcDbMLeaderStyle
170
     2
171
     1
172
     0
 90
        2
 40
0.0
 41
0.0
173
     1
 91
-1056964608
340
14
 92
       -2
290
     1
 42
0.09
291
     1
 43
0.36
  3
Standard
 44
0.18
300

342
11
174
     1
178
     6
175
     1
176
     0
 93
-1056964608
 45
0.18
292
     0
297
     0
 46
0.18
 94
-1056964608
 47
1.0
 49
1.0
140
1.0
293
     1
141
0.0
294
     1
177
     0
142
1.0
295
     0
296
     0
143
0.125
1001
ACAD_MLEADERVER
1070
     2
  0
MLINESTYLE
  5
18
102
{ACAD_REACTORS
330
17
102
}
330
17
100
AcDbMlineStyle
  2
STANDARD
 70
     0
  3

 62
   256
 51
90.0
 52
90.0
 71
     2
 49
0.5
 62
   256
  6
BYLAYER
 49
-0.5
 62
   256
  6
BYLAYER
  0
ACDBPLACEHOLDER
  5
F
102
{ACAD_REACTORS
330
E
102
}
330
E
  0
SCALE
  5
2CB
102
{ACAD_REACTORS
330
2CA
102
}
330
2CA
100
AcDbScale
 70
     0
300
1:1
140
1.0
141
1.0
290
     1
  0
SCALE
  5
2CC
102
{ACAD_REACTORS
330
2CA
102
}
330
2CA
100
AcDbScale
 70
     0
300
1:2
140
1.0
141
2.0
290
     0
  0
SCALE
  5
2CD
102
{ACAD_REACTORS
330
2CA
102
}
330
2CA
100
AcDbScale
 70
     0
300
1:4
140
1.0
141
4.0
290
     0
  0
SCALE
  5
2CE
102
{ACAD_REACTORS
330
2CA
102
}
330
2CA
100
AcDbScale
 70
     0
300
1:5
140
1.0
141
5.0
290
     0
  0
SCALE
  5
2CF
102
{ACAD_REACTORS
330
2CA
102
}
330
2CA
100
AcDbScale
 70
     0
300
1:8
140
1.0
141
8.0
290
     0
  0
SCALE
  5
2D0
102
{ACAD_REACTORS
330
2CA
102
}
330
2CA
100
AcDbScale
 70
     0
300
1:10
140
1.0
141
10.0
290
     0
  0
SCALE
  5
2D1
102
{ACAD_REACTORS
330
2CA
102
}
330
2CA
100
AcDbScale
 70
     0
300
1:16
140
1.0
141
16.0
290
     0
  0
SCALE
  5
2D2
102
{ACAD_REACTORS
330
2CA
102
}
330
2CA
100
AcDbScale
 70
     0
300
1:20
140
1.0
141
20.0
290
     0
  0
SCALE
  5
2D3
102
{ACAD_REACTORS
330
2CA
102
}
330
2CA
100
AcDbScale
 70
     0
300
1:30
140
1.0
141
30.0
290
     0
  0
SCALE
  5
2D4
102
{ACAD_REACTORS
330
2CA
102
}
330
2CA
100
AcDbScale
 70
     0
300
1:40
140
1.0
141
40.0
290
     0
  0
SCALE
  5
2D5
102
{ACAD_REACTORS
330
2CA
102
}
330
2CA
100
AcDbScale
 70
     0
300
1:50
140
1.0
141
50.0
290
     0
  0
SCALE
  5
2D6
102
{ACAD_REACTORS
330
2CA
102
}
330
2CA
100
AcDbScale
 70
     0
300
1:100
140
1.0
141
100.0
290
     0
  0
SCALE
  5
2D7
102
{ACAD_REACTORS
330
2CA
102
}
330
2CA
100
AcDbScale
 70
     0
300
2:1
140
2.0
141
1.0
290
     0
  0
SCALE
  5
2D8
102
{ACAD_REACTORS
330
2CA
102
}
330
2CA
100
AcDbScale
 70
     0
300
4:1
140
4.0
141
1.0
290
     0
  0
SCALE
  5
2D9
102
{ACAD_REACTORS
330
2CA
102
}
330
2CA
100
AcDbScale
 70
     0
300
8:1
140
8.0
141
1.0
290
     0
  0
SCALE
  5
2DA
102
{ACAD_REACTORS
330
2CA
102
}
330
2CA
100
AcDbScale
 70
     0
300
10:1
140
10.0
141
1.0
290
     0
  0
SCALE
  5
2DB
102
{ACAD_REACTORS
330
2CA
102
}
330
2CA
100
AcDbScale
 70
     0
300
100:1
140
100.0
141
1.0
290
     0
  0
SCALE
  5
2DC
102
{ACAD_REACTORS
330
2CA
102
}
330
2CA
100
AcDbScale
 70
     0
300
1/128" = 1'-0"
140
0.0078125
141
12.0
290
     0
  0
SCALE
  5
2DD
102
{ACAD_REACTORS
330
2CA
102
}
330
2CA
100
AcDbScale
 70
     0
300
1/64" = 1'-0"
140
0.015625
141
12.0
290
     0
  0
SCALE
  5
2DE
102
{ACAD_REACTORS
330
2CA
102
}
330
2CA
100
AcDbScale
 70
     0
300
1/32" = 1'-0"
140
0.03125
141
12.0
290
     0
  0
SCALE
  5
2DF
102
{ACAD_REACTORS
330
2CA
102
}
330
2CA
100
AcDbScale
 70
     0
300
1/16" = 1'-0"
140
0.0625
141
12.0
290
     0
  0
SCALE
  5
2E0
102
{ACAD_REACTORS
330
2CA
102
}
330
2CA
100
AcDbScale
 70
     0
300
3/32" = 1'-0"
140
0.09375
141
12.0
290
     0
  0
SCALE
  5
2E1
102
{ACAD_REACTORS
330
2CA
102
}
330
2CA
100
AcDbScale
 70
     0
300
1/8" = 1'-0"
140
0.125
141
12.0
290
     0
  0
SCALE
  5
2E2
102
{ACAD_REACTORS
330
2CA
102
}
330
2CA
100
AcDbScale
 70
     0
300
3/16" = 1'-0"
140
0.1875
141
12.0
290
     0
  0
SCALE
  5
2E3
102
{ACAD_REACTORS
330
2CA
102
}
330
2CA
100
AcDbScale
 70
     0
300
1/4" = 1'-0"
140
0.25
141
12.0
290
     0
  0
SCALE
  5
2E4
102
{ACAD_REACTORS
330
2CA
102
}
330
2CA
100
AcDbScale
 70
     0
300
3/8" = 1'-0"
140
0.375
141
12.0
290
     0
  0
SCALE
  5
2E5
102
{ACAD_REACTORS
330
2CA
102
}
330
2CA
100
AcDbScale
 70
     0
300
1/2" = 1'-0"
140
0.5
141
12.0
290
     0
  0
SCALE
  5
2E6
102
{ACAD_REACTORS
330
2CA
102
}
330
2CA
100
AcDbScale
 70
     0
300
3/4" = 1'-0"
140
0.75
141
12.0
290
     0
  0
SCALE
  5
2E7
102
{ACAD_REACTORS
330
2CA
102
}
330
2CA
100
AcDbScale
 70
     0
300
1" = 1'-0"
140
1.0
141
12.0
290
     0
  0
SCALE
  5
2E8
102
{ACAD_REACTORS
330
2CA
102
}
330
2CA
100
AcDbScale
 70
     0
300
1-1/2" = 1'-0"
140
1.5
141
12.0
290
     0
  0
SCALE
  5
2E9
102
{ACAD_REACTORS
330
2CA
102
}
330
2CA
100
AcDbScale
 70
     0
300
3" = 1'-0"
140
3.0
141
12.0
290
     0
  0
SCALE
  5
2EA
102
{ACAD_REACTORS
330
2CA
102
}
330
2CA
100
AcDbScale
 70
     0
300
6" = 1'-0"
140
6.0
141
12.0
290
     0
  0
SCALE
  5
2EB
102
{ACAD_REACTORS
330
2CA
102
}
330
2CA
100
AcDbScale
 70
     0
300
1'-0" = 1'-0"
140
12.0
141
12.0
290
     0
  0
TABLESTYLE
  5
124
102
{ACAD_XDICTIONARY
360
30B
102
}
102
{ACAD_REACTORS
330
123
102
}
330
123
100
AcDbTableStyle
  3
Standard
 70
     0
 71
     0
 40
0.06
 41
0.06
280
     0
281
     0
  7
STANDARD
140
0.18
170
     2
 62
     0
 63
     7
283
     0
 90
      512
 91
        0
  1

274
    -2
284
     1
 64
     0
275
    -2
285
     1
 65
     0
276
    -2
286
     1
 66
     0
277
    -2
287
     1
 67
     0
278
    -2
288
     1
 68
     0
279
    -2
289
     1
 69
     0
  7
STANDARD
140
0.25
170
     5
 62
     0
 63
     7
283
     0
 90
      512
 91
        0
  1

274
    -2
284
     1
 64
     0
275
    -2
285
     1
 65
     0
276
    -2
286
     1
 66
     0
277
    -2
287
     1
 67
     0
278
    -2
288
     1
 68
     0
279
    -2
289
     1
 69
     0
  7
STANDARD
140
0.18
170
     5
 62
     0
 63
     7
283
     0
 90
      512
 91
        0
  1

274
    -2
284
     1
 64
     0
275
    -2
285
     1
 65
     0
276
    -2
286
     1
 66
     0
277
    -2
287
     1
 67
     0
278
    -2
288
     1
 68
     0
279
    -2
289
     1
 69
     0
  0
VISUALSTYLE
  5
29C
102
{ACAD_REACTORS
330
296
102
}
330
296
100
AcDbVisualStyle
  2
2dWireframe
 70
     4
 71
     0
 72
     2
 73
     0
 90
        0
 40
-0.6
 41
-30.0
 62
     5
 63
     7
421
 16777215
 74
     1
 91
        4
 64
     7
 65
   257
 75
     1
175
     1
 42
1.0
 92
        0
 66
   257
 43
1.0
 76
     1
 77
     6
 78
     2
 67
     7
 79
     5
170
     0
171
     0
290
     0
174
     0
 93
        1
 44
0.0
173
     0
291
     0
 45
0.0
  0
VISUALSTYLE
  5
29E
102
{ACAD_REACTORS
330
296
102
}
330
296
100
AcDbVisualStyle
  2
3D Hidden
 70
     6
 71
     1
 72
     2
 73
     2
 90
        0
 40
-0.6
 41
-30.0
 62
     5
 63
     7
421
 16777215
 74
     2
 91
        2
 64
     7
 65
   257
 75
     2
175
     1
 42
40.0
 92
        0
 66
   257
 43
1.0
 76
     1
 77
     6
 78
     2
 67
     7
 79
     3
170
     0
171
     0
290
     0
174
     0
 93
        1
 44
0.0
173
     0
291
     0
 45
0.0
  0
VISUALSTYLE
  5
29D
102
{ACAD_REACTORS
330
296
102
}
330
296
100
AcDbVisualStyle
  2
3dWireframe
 70
     5
 71
     0
 72
     2
 73
     0
 90
        0
 40
-0.6
 41
-30.0
 62
     5
 63
     7
421
 16777215
 74
     1
 91
        4
 64
     7
 65
   257
 75
     1
175
     1
 42
1.0
 92
        0
 66
   257
 43
1.0
 76
     1
 77
     6
 78
     2
 67
     7
 79
     5
170
     0
171
     0
290
     0
174
     0
 93
        1
 44
0.0
173
     0
291
     0
 45
0.0
  0
VISUALSTYLE
  5
29B
102
{ACAD_REACTORS
330
296
102
}
330
296
100
AcDbVisualStyle
  2
Basic
 70
     7
 71
     1
 72
     0
 73
     1
 90
        0
 40
-0.6
 41
-30.0
 62
     5
 63
     7
421
 16777215
 74
     0
 91
        4
 64
     7
 65
   257
 75
     1
175
     1
 42
1.0
 92
        8
 66
     7
 43
1.0
 76
     1
 77
     6
 78
     2
 67
     7
 79
     5
170
     0
171
     0
290
     0
174
     0
 93
        1
 44
0.0
173
     0
291
     1
 45
0.0
  0
VISUALSTYLE
  5
2A2
102
{ACAD_REACTORS
330
296
102
}
330
296
100
AcDbVisualStyle
  2
Brighten
 70
    12
 71
     2
 72
     2
 73
     0
 90
        0
 40
-0.6
 41
-30.0
 62
     5
 63
     7
421
 16777215
 74
     1
 91
        4
 64
     7
 65
   257
 75
     1
175
     1
 42
1.0
 92
        8
 66
     7
 43
1.0
 76
     1
 77
     6
 78
     2
 67
     7
 79
     5
170
     0
171
     0
290
     0
174
     0
 93
        1
 44
50.0
173
     0
291
     1
 45
0.0
  0
VISUALSTYLE
  5
2A6
102
{ACAD_REACTORS
330
296
102
}
330
296
100
AcDbVisualStyle
  2
ColorChange
 70
    16
 71
     2
 72
     2
 73
     3
 90
        0
 40
-0.6
 41
-30.0
 62
     5
 63
     8
421
  8421504
 74
     1
 91
        4
 64
     7
 65
   257
 75
     1
175
     1
 42
1.0
 92
        8
 66
     8
424
  8421504
 43
1.0
 76
     1
 77
     6
 78
     2
 67
     7
 79
     5
170
     0
171
     0
290
     0
174
     0
 93
        1
 44
0.0
173
     0
291
     1
 45
0.0
  0
VISUALSTYLE
  5
29F
102
{ACAD_REACTORS
330
296
102
}
330
296
100
AcDbVisualStyle
  2
Conceptual
 70
     9
 71
     3
 72
     2
 73
     0
 90
        0
 40
-0.6
 41
-30.0
 62
     5
 63
     7
421
 16777215
 74
     2
 91
        2
 64
     7
 65
   257
 75
     1
175
     1
 42
40.0
 92
        8
 66
     7
 43
1.0
 76
     1
 77
     6
 78
     2
 67
     7
 79
     3
170
     0
171
     0
290
     0
174
     0
 93
        1
 44
0.0
173
     0
291
     0
 45
0.0
  0
VISUALSTYLE
  5
2A1
102
{ACAD_REACTORS
330
296
102
}
330
296
100
AcDbVisualStyle
  2
Dim
 70
    11
 71
     2
 72
     2
 73
     0
 90
        0
 40
-0.6
 41
-30.0
 62
     5
 63
     7
421
 16777215
 74
     1
 91
        4
 64
     7
 65
   257
 75
     1
175
     1
 42
1.0
 92
        8
 66
     7
 43
1.0
 76
     1
 77
     6
 78
     2
 67
     7
 79
     5
170
     0
171
     0
290
     0
174
     0
 93
        1
 44
-50.0
173
     0
291
     1
 45
0.0
  0
VISUALSTYLE
  5
2A5
102
{ACAD_REACTORS
330
296
102
}
330
296
100
AcDbVisualStyle
  2
Facepattern
 70
    15
 71
     2
 72
     2
 73
     0
 90
        0
 40
-0.6
 41
-30.0
 62
     5
 63
     7
421
 16777215
 74
     1
 91
        4
 64
     7
 65
   257
 75
     1
175
     1
 42
1.0
 92
        8
 66
     7
 43
1.0
 76
     1
 77
     6
 78
     2
 67
     7
 79
     5
170
     0
171
     0
290
     0
174
     0
 93
        1
 44
0.0
173
     0
291
     1
 45
0.0
  0
VISUALSTYLE
  5
297
102
{ACAD_REACTORS
330
296
102
}
330
296
100
AcDbVisualStyle
  2
Flat
 70
     0
 71
     2
 72
     1
 73
     1
 90
        2
 40
-0.6
 41
30.0
 62
     5
 63
     7
421
 16777215
 74
     0
 91
        4
 64
     7
 65
   257
 75
     1
175
     1
 42
1.0
 92
        8
 66
     7
 43
1.0
 76
     1
 77
     6
 78
     2
 67
     7
 79
     5
170
     0
171
     0
290
     0
174
     0
 93
       13
 44
0.0
173
     0
291
     1
 45
0.0
  0
VISUALSTYLE
  5
298
102
{ACAD_REACTORS
330
296
102
}
330
296
100
AcDbVisualStyle
  2
FlatWithEdges
 70
     1
 71
     2
 72
     1
 73
     1
 90
        2
 40
-0.6
 41
30.0
 62
     5
 63
     7
421
 16777215
 74
     1
 91
        4
 64
     7
 65
   257
 75
     1
175
     1
 42
1.0
 92
        0
 66
   257
 43
1.0
 76
     1
 77
     6
 78
     2
 67
     7
 79
     5
170
     0
171
     0
290
     0
174
     0
 93
       13
 44
0.0
173
     0
291
     1
 45
0.0
  0
VISUALSTYLE
  5
299
102
{ACAD_REACTORS
330
296
102
}
330
296
100
AcDbVisualStyle
  2
Gouraud
 70
     2
 71
     2
 72
     2
 73
     1
 90
        2
 40
-0.6
 41
30.0
 62
     5
 63
     7
421
 16777215
 74
     0
 91
        4
 64
     7
 65
   257
 75
     1
175
     1
 42
1.0
 92
        0
 66
     7
 43
1.0
 76
     1
 77
     6
 78
     2
 67
     7
 79
     5
170
     0
171
     0
290
     0
174
     0
 93
       13
 44
0.0
173
     0
291
     1
 45
0.0
  0
VISUALSTYLE
  5
29A
102
{ACAD_REACTORS
330
296
102
}
330
296
100
AcDbVisualStyle
  2
GouraudWithEdges
 70
     3
 71
     2
 72
     2
 73
     1
 90
        2
 40
-0.6
 41
30.0
 62
     5
 63
     7
421
 16777215
 74
     1
 91
        4
 64
     7
 65
   257
 75
     1
175
     1
 42
1.0
 92
        0
 66
   257
 43
1.0
 76
     1
 77
     6
 78
     2
 67
     7
 79
     5
170
     0
171
     0
290
     0
174
     0
 93
       13
 44
0.0
173
     0
291
     1
 45
0.0
  0
VISUALSTYLE
  5
2A4
102
{ACAD_REACTORS
330
296
102
}
330
296
100
AcDbVisualStyle
  2
Linepattern
 70
    14
 71
     2
 72
     2
 73
     0
 90
        0
 40
-0.6
 41
-30.0
 62
     5
 63
     7
421
 16777215
 74
     1
 91
        4
 64
     7
 65
   257
 75
     7
175
     7
 42
1.0
 92
        8
 66
     7
 43
1.0
 76
     1
 77
     6
 78
     2
 67
     7
 79
     5
170
     0
171
     0
290
     0
174
     0
 93
        1
 44
0.0
173
     0
291
     1
 45
0.0
  0
VISUALSTYLE
  5
2A0
102
{ACAD_REACTORS
330
296
102
}
330
296
100
AcDbVisualStyle
  2
Realistic
 70
     8
 71
     2
 72
     2
 73
     0
 90
        0
 40
-0.6
 41
-30.0
 62
     5
 63
     7
421
 16777215
 74
     1
 91
        0
 64
     7
 65
   257
 75
     1
175
     1
 42
1.0
 92
        8
 66
     8
424
  7895160
 43
1.0
 76
     1
 77
     6
 78
     2
 67
     7
 79
     5
170
     0
171
     0
290
     0
174
     0
 93
       13
 44
0.0
173
     0
291
     0
 45
0.0
  0
VISUALSTYLE
  5
2A3
102
{ACAD_REACTORS
330
296
102
}
330
296
100
AcDbVisualStyle
  2
Thicken
 70
    13
 71
     2
 72
     2
 73
     0
 90
        0
 40
-0.6
 41
-30.0
 62
     5
 63
     7
421
 16777215
 74
     1
 91
        4
 64
     7
 65
   257
 75
     1
175
     1
 42
1.0
 92
       12
 66
     7
 43
1.0
 76
     1
 77
     6
 78
     2
 67
     7
 79
     5
170
     0
171
     0
290
     0
174
     0
 93
        1
 44
0.0
173
     0
291
     1
 45
0.0
  0
DICTIONARYVAR
  5
310
102
{ACAD_REACTORS
330
9E
102
}
330
9E
100
DictionaryVariables
280
     0
  1
1:1
  0
DICTIONARYVAR
  5
30E
102
{ACAD_REACTORS
330
9E
102
}
330
9E
100
DictionaryVariables
280
     0
  1
STANDARD
  0
DICTIONARYVAR
  5
144
102
{ACAD_REACTORS
330
9E
102
}
330
9E
100
DictionaryVariables
280
     0
  1
STANDARD
  0
DICTIONARYVAR
  5
A0
102
{ACAD_REACTORS
330
9E
102
}
330
9E
100
DictionaryVariables
280
     0
  1
2
  0
DICTIONARYVAR
  5
9F
102
{ACAD_REACTORS
330
9E
102
}
330
9E
100
DictionaryVariables
280
     0
  1
1
  0
DICTIONARYVAR
  5
36B
102
{ACAD_REACTORS
330
9E
102
}
330
9E
100
DictionaryVariables
280
     0
  1
1
  0
DICTIONARYVAR
  5
36C
102
{ACAD_REACTORS
330
9E
102
}
330
9E
100
DictionaryVariables
280
     0
  1
15
  0
DICTIONARYVAR
  5
311
102
{ACAD_REACTORS
330
9E
102
}
330
9E
100
DictionaryVariables
280
     0
  1
0
  0
DICTIONARYVAR
  5
30F
102
{ACAD_REACTORS
330
9E
102
}
330
9E
100
DictionaryVariables
280
     0
  1
0
  0
DICTIONARY
  5
69
102
{ACAD_REACTORS
330
63
102
}
330
63
100
AcDbDictionary
281
     1
  0
XRECORD
  5
12C
102
{ACAD_REACTORS
330
63
102
}
330
63
100
AcDbXrecord
280
     1
 90
-1023410169
  0
DICTIONARY
  5
30B
330
124
100
AcDbDictionary
280
     1
281
     1
  3
ACAD_ROUNDTRIP_2008_TABLESTYLE_CELLSTYLEMAP
360
129C
  0
CELLSTYLEMAP
  5
129C
102
{ACAD_REACTORS
330
30B
102
}
330
30B
100
AcDbCellStyleMap
 90
        3
300
CELLSTYLE
  1
TABLEFORMAT_BEGIN
 90
        5
170
     1
 91
        0
 92
    32768
 62
   257
 93
        1
300
CONTENTFORMAT
  1
CONTENTFORMAT_BEGIN
 90
        0
 91
        0
 92
      512
 93
        0
300

 40
0.0
140
1.0
 94
        5
 62
     0
340
11
144
0.25
309
CONTENTFORMAT_END
171
     0
 94
        6
 95
        1
302
GRIDFORMAT
  1
GRIDFORMAT_BEGIN
 90
        0
 91
        1
 62
     0
 92
       -2
340
0
 93
        0
 40
0.045
309
GRIDFORMAT_END
 95
        2
302
GRIDFORMAT
  1
GRIDFORMAT_BEGIN
 90
        0
 91
        1
 62
     0
 92
       -2
340
0
 93
        0
 40
0.045
309
GRIDFORMAT_END
 95
        4
302
GRIDFORMAT
  1
GRIDFORMAT_BEGIN
 90
        0
 91
        1
 62
     0
 92
       -2
340
0
 93
        0
 40
0.045
309
GRIDFORMAT_END
 95
        8
302
GRIDFORMAT
  1
GRIDFORMAT_BEGIN
 90
        0
 91
        1
 62
     0
 92
       -2
340
0
 93
        0
 40
0.045
309
GRIDFORMAT_END
 95
       16
302
GRIDFORMAT
  1
GRIDFORMAT_BEGIN
 90
        0
 91
        1
 62
     0
 92
       -2
340
0
 93
        0
 40
0.045
309
GRIDFORMAT_END
 95
       32
302
GRIDFORMAT
  1
GRIDFORMAT_BEGIN
 90
        0
 91
        1
 62
     0
 92
       -2
340
0
 93
        0
 40
0.045
309
GRIDFORMAT_END
309
TABLEFORMAT_END
  1
CELLSTYLE_BEGIN
 90
        1
 91
        1
300
_TITLE
309
CELLSTYLE_END
300
CELLSTYLE
  1
TABLEFORMAT_BEGIN
 90
        5
170
     1
 91
        0
 92
        0
 62
   257
 93
        1
300
CONTENTFORMAT
  1
CONTENTFORMAT_BEGIN
 90
        0
 91
        0
 92
      512
 93
        0
300

 40
0.0
140
1.0
 94
        5
 62
     0
340
11
144
0.18
309
CONTENTFORMAT_END
171
     0
 94
        6
 95
        1
302
GRIDFORMAT
  1
GRIDFORMAT_BEGIN
 90
        0
 91
        1
 62
     0
 92
       -2
340
0
 93
        0
 40
0.045
309
GRIDFORMAT_END
 95
        2
302
GRIDFORMAT
  1
GRIDFORMAT_BEGIN
 90
        0
 91
        1
 62
     0
 92
       -2
340
0
 93
        0
 40
0.045
309
GRIDFORMAT_END
 95
        4
302
GRIDFORMAT
  1
GRIDFORMAT_BEGIN
 90
        0
 91
        1
 62
     0
 92
       -2
340
0
 93
        0
 40
0.045
309
GRIDFORMAT_END
 95
        8
302
GRIDFORMAT
  1
GRIDFORMAT_BEGIN
 90
        0
 91
        1
 62
     0
 92
       -2
340
0
 93
        0
 40
0.045
309
GRIDFORMAT_END
 95
       16
302
GRIDFORMAT
  1
GRIDFORMAT_BEGIN
 90
        0
 91
        1
 62
     0
 92
       -2
340
0
 93
        0
 40
0.045
309
GRIDFORMAT_END
 95
       32
302
GRIDFORMAT
  1
GRIDFORMAT_BEGIN
 90
        0
 91
        1
 62
     0
 92
       -2
340
0
 93
        0
 40
0.045
309
GRIDFORMAT_END
309
TABLEFORMAT_END
  1
CELLSTYLE_BEGIN
 90
        2
 91
        1
300
_HEADER
309
CELLSTYLE_END
300
CELLSTYLE
  1
TABLEFORMAT_BEGIN
 90
        5
170
     1
 91
        0
 92
        0
 62
   257
 93
        1
300
CONTENTFORMAT
  1
CONTENTFORMAT_BEGIN
 90
        0
 91
        0
 92
      512
 93
        0
300

 40
0.0
140
1.0
 94
        2
 62
     0
340
11
144
0.18
309
CONTENTFORMAT_END
171
     0
 94
        6
 95
        1
302
GRIDFORMAT
  1
GRIDFORMAT_BEGIN
 90
        0
 91
        1
 62
     0
 92
       -2
340
0
 93
        0
 40
0.045
309
GRIDFORMAT_END
 95
        2
302
GRIDFORMAT
  1
GRIDFORMAT_BEGIN
 90
        0
 91
        1
 62
     0
 92
       -2
340
0
 93
        0
 40
0.045
309
GRIDFORMAT_END
 95
        4
302
GRIDFORMAT
  1
GRIDFORMAT_BEGIN
 90
        0
 91
        1
 62
     0
 92
       -2
340
0
 93
        0
 40
0.045
309
GRIDFORMAT_END
 95
        8
302
GRIDFORMAT
  1
GRIDFORMAT_BEGIN
 90
        0
 91
        1
 62
     0
 92
       -2
340
0
 93
        0
 40
0.045
309
GRIDFORMAT_END
 95
       16
302
GRIDFORMAT
  1
GRIDFORMAT_BEGIN
 90
        0
 91
        1
 62
     0
 92
       -2
340
0
 93
        0
 40
0.045
309
GRIDFORMAT_END
 95
       32
302
GRIDFORMAT
  1
GRIDFORMAT_BEGIN
 90
        0
 91
        1
 62
     0
 92
       -2
340
0
 93
        0
 40
0.045
309
GRIDFORMAT_END
309
TABLEFORMAT_END
  1
CELLSTYLE_BEGIN
 90
        3
 91
        2
300
_DATA
309
CELLSTYLE_END
  0
ENDSEC
  0
EOF
