  0
SECTION
  2
HEADER
  9
$ACADVER
  1
AC1021
  9
$ACADMAINTVER
 70
    50
  9
$DWGCODEPAGE
  3
ANSI_936
  9
$LASTSAVEDBY
  1
ko69185
  9
$CUSTOMPROPERTYTAG
  1
AmdtFileType
  9
$CUSTOMPROPERTY
  1
84
  9
$INSBASE
 10
0.0
 20
0.0
 30
0.0
  9
$EXTMIN
 10
115.7977900178414
 20
110.9169257674516
 30
0.0
  9
$EXTMAX
 10
150.5557948326661
 20
163.3862489677371
 30
0.0
  9
$LIMMIN
 10
0.0
 20
0.0
  9
$LIMMAX
 10
17.0
 20
11.0
  9
$ORTHOMODE
 70
     1
  9
$REGENMODE
 70
     1
  9
$FILLMODE
 70
     1
  9
$QTEXTMODE
 70
     0
  9
$MIRRTEXT
 70
     1
  9
$LTSCALE
 40
1.0
  9
$ATTMODE
 70
     1
  9
$TEXTSIZE
 40
0.2
  9
$TRACEWID
 40
0.05
  9
$TEXTSTYLE
  7
STANDARD
  9
$CLAYER
  8
0
  9
$CELTYPE
  6
ByLayer
  9
$CECOLOR
 62
   256
  9
$CELTSCALE
 40
1.0
  9
$DISPSILH
 70
     0
  9
$DIMSCALE
 40
1.0
  9
$DIMASZ
 40
0.12
  9
$DIMEXO
 40
0.05
  9
$DIMDLI
 40
0.5
  9
$DIMRND
 40
0.0
  9
$DIMDLE
 40
0.0
  9
$DIMEXE
 40
0.1
  9
$DIMTP
 40
0.1
  9
$DIMTM
 40
0.1
  9
$DIMTXT
 40
0.12
  9
$DIMCEN
 40
0.0
  9
$DIMTSZ
 40
0.0
  9
$DIMTOL
 70
     0
  9
$DIMLIM
 70
     0
  9
$DIMTIH
 70
     1
  9
$DIMTOH
 70
     1
  9
$DIMSE1
 70
     0
  9
$DIMSE2
 70
     0
  9
$DIMTAD
 70
     0
  9
$DIMZIN
 70
     7
  9
$DIMBLK
  1

  9
$DIMASO
 70
     1
  9
$DIMSHO
 70
     1
  9
$DIMPOST
  1

  9
$DIMAPOST
  1
mm
  9
$DIMALT
 70
     0
  9
$DIMALTD
 70
     2
  9
$DIMALTF
 40
25.4
  9
$DIMLFAC
 40
1.0
  9
$DIMTOFL
 70
     0
  9
$DIMTVP
 40
0.0
  9
$DIMTIX
 70
     0
  9
$DIMSOXD
 70
     0
  9
$DIMSAH
 70
     0
  9
$DIMBLK1
  1

  9
$DIMBLK2
  1

  9
$DIMSTYLE
  2
AM_ANSI
  9
$DIMCLRD
 70
   256
  9
$DIMCLRE
 70
   256
  9
$DIMCLRT
 70
   140
  9
$DIMTFAC
 40
0.71
  9
$DIMGAP
 40
0.06
  9
$DIMJUST
 70
     0
  9
$DIMSD1
 70
     0
  9
$DIMSD2
 70
     0
  9
$DIMTOLJ
 70
     1
  9
$DIMTZIN
 70
     7
  9
$DIMALTZ
 70
     0
  9
$DIMALTTZ
 70
     0
  9
$DIMUPT
 70
     0
  9
$DIMDEC
 70
     4
  9
$DIMTDEC
 70
     4
  9
$DIMALTU
 70
     2
  9
$DIMALTTD
 70
     4
  9
$DIMTXSTY
  7
STANDARD
  9
$DIMAUNIT
 70
     0
  9
$DIMADEC
 70
     0
  9
$DIMALTRND
 40
0.0
  9
$DIMAZIN
 70
     2
  9
$DIMDSEP
 70
    46
  9
$DIMATFIT
 70
     3
  9
$DIMFRAC
 70
     0
  9
$DIMLDRBLK
  1

  9
$DIMLUNIT
 70
     2
  9
$DIMLWD
 70
    -1
  9
$DIMLWE
 70
    -1
  9
$DIMTMOVE
 70
     0
  9
$DIMFXL
 40
1.0
  9
$DIMFXLON
 70
     0
  9
$DIMJOGANG
 40
0.7853981633974483
  9
$DIMTFILL
 70
     0
  9
$DIMTFILLCLR
 70
     0
  9
$DIMARCSYM
 70
     1
  9
$DIMLTYPE
  6
ByBlock
  9
$DIMLTEX1
  6
ByBlock
  9
$DIMLTEX2
  6
ByBlock
  9
$LUNITS
 70
     2
  9
$LUPREC
 70
     4
  9
$SKETCHINC
 40
0.1
  9
$FILLETRAD
 40
0.125
  9
$AUNITS
 70
     0
  9
$AUPREC
 70
     0
  9
$MENU
  1
.
  9
$ELEVATION
 40
0.0
  9
$PELEVATION
 40
0.0
  9
$THICKNESS
 40
0.0
  9
$LIMCHECK
 70
     0
  9
$CHAMFERA
 40
0.125
  9
$CHAMFERB
 40
0.125
  9
$CHAMFERC
 40
1.0
  9
$CHAMFERD
 40
0.0
  9
$SKPOLY
 70
     0
  9
$TDCREATE
 40
2455295.578477546
  9
$TDUCREATE
 40
2455295.245144213
  9
$TDUPDATE
 40
2455309.635256331
  9
$TDUUPDATE
 40
2455309.301922998
  9
$TDINDWG
 40
0.0168015856
  9
$TDUSRTIMER
 40
0.0168015856
  9
$USRTIMER
 70
     1
  9
$ANGBASE
 50
0.0
  9
$ANGDIR
 70
     0
  9
$PDMODE
 70
     0
  9
$PDSIZE
 40
0.0
  9
$PLINEWID
 40
0.0
  9
$SPLFRAME
 70
     0
  9
$SPLINETYPE
 70
     6
  9
$SPLINESEGS
 70
     8
  9
$HANDSEED
  5
11AB
  9
$SURFTAB1
 70
     6
  9
$SURFTAB2
 70
     6
  9
$SURFTYPE
 70
     6
  9
$SURFU
 70
     6
  9
$SURFV
 70
     6
  9
$UCSBASE
  2

  9
$UCSNAME
  2

  9
$UCSORG
 10
0.0
 20
0.0
 30
0.0
  9
$UCSXDIR
 10
1.0
 20
0.0
 30
0.0
  9
$UCSYDIR
 10
0.0
 20
1.0
 30
0.0
  9
$UCSORTHOREF
  2

  9
$UCSORTHOVIEW
 70
     0
  9
$UCSORGTOP
 10
0.0
 20
0.0
 30
0.0
  9
$UCSORGBOTTOM
 10
0.0
 20
0.0
 30
0.0
  9
$UCSORGLEFT
 10
0.0
 20
0.0
 30
0.0
  9
$UCSORGRIGHT
 10
0.0
 20
0.0
 30
0.0
  9
$UCSORGFRONT
 10
0.0
 20
0.0
 30
0.0
  9
$UCSORGBACK
 10
0.0
 20
0.0
 30
0.0
  9
$PUCSBASE
  2

  9
$PUCSNAME
  2

  9
$PUCSORG
 10
0.0
 20
0.0
 30
0.0
  9
$PUCSXDIR
 10
1.0
 20
0.0
 30
0.0
  9
$PUCSYDIR
 10
0.0
 20
1.0
 30
0.0
  9
$PUCSORTHOREF
  2

  9
$PUCSORTHOVIEW
 70
     0
  9
$PUCSORGTOP
 10
0.0
 20
0.0
 30
0.0
  9
$PUCSORGBOTTOM
 10
0.0
 20
0.0
 30
0.0
  9
$PUCSORGLEFT
 10
0.0
 20
0.0
 30
0.0
  9
$PUCSORGRIGHT
 10
0.0
 20
0.0
 30
0.0
  9
$PUCSORGFRONT
 10
0.0
 20
0.0
 30
0.0
  9
$PUCSORGBACK
 10
0.0
 20
0.0
 30
0.0
  9
$USERI1
 70
     0
  9
$USERI2
 70
     0
  9
$USERI3
 70
     0
  9
$USERI4
 70
     0
  9
$USERI5
 70
     0
  9
$USERR1
 40
0.0
  9
$USERR2
 40
0.0
  9
$USERR3
 40
0.0
  9
$USERR4
 40
0.0
  9
$USERR5
 40
0.0
  9
$WORLDVIEW
 70
     1
  9
$SHADEDGE
 70
     3
  9
$SHADEDIF
 70
    70
  9
$TILEMODE
 70
     1
  9
$MAXACTVP
 70
    64
  9
$PINSBASE
 10
0.0
 20
0.0
 30
0.0
  9
$PLIMCHECK
 70
     0
  9
$PEXTMIN
 10
1.000000000000000E+20
 20
1.000000000000000E+20
 30
1.000000000000000E+20
  9
$PEXTMAX
 10
-1.000000000000000E+20
 20
-1.000000000000000E+20
 30
-1.000000000000000E+20
  9
$PLIMMIN
 10
0.0
 20
0.0
  9
$PLIMMAX
 10
12.0
 20
9.0
  9
$UNITMODE
 70
     0
  9
$VISRETAIN
 70
     1
  9
$PLINEGEN
 70
     0
  9
$PSLTSCALE
 70
     1
  9
$TREEDEPTH
 70
  3020
  9
$CMLSTYLE
  2
Standard
  9
$CMLJUST
 70
     0
  9
$CMLSCALE
 40
1.0
  9
$PROXYGRAPHICS
 70
     1
  9
$MEASUREMENT
 70
     0
  9
$CELWEIGHT
370
    -1
  9
$ENDCAPS
280
     0
  9
$JOINSTYLE
280
     0
  9
$LWDISPLAY
290
     0
  9
$INSUNITS
 70
     1
  9
$HYPERLINKBASE
  1

  9
$STYLESHEET
  1

  9
$XEDIT
290
     1
  9
$CEPSNTYPE
380
     0
  9
$PSTYLEMODE
290
     1
  9
$FINGERPRINTGUID
  2
{EEC28332-9206-429F-89A2-E932082E2C59}
  9
$VERSIONGUID
  2
{2A274524-8B62-4149-A2F3-DECFBC4715A8}
  9
$EXTNAMES
290
     1
  9
$PSVPSCALE
 40
0.0
  9
$OLESTARTUP
290
     0
  9
$SORTENTS
280
   127
  9
$INDEXCTL
280
     0
  9
$HIDETEXT
280
     0
  9
$XCLIPFRAME
290
     0
  9
$HALOGAP
280
     0
  9
$OBSCOLOR
 70
   257
  9
$OBSLTYPE
280
     0
  9
$INTERSECTIONDISPLAY
280
     0
  9
$INTERSECTIONCOLOR
 70
   257
  9
$DIMASSOC
280
     2
  9
$PROJECTNAME
  1

  9
$CAMERADISPLAY
290
     0
  9
$LENSLENGTH
 40
50.0
  9
$CAMERAHEIGHT
 40
0.0
  9
$STEPSPERSEC
 40
2.0
  9
$STEPSIZE
 40
6.0
  9
$3DDWFPREC
 40
2.0
  9
$PSOLWIDTH
 40
0.25
  9
$PSOLHEIGHT
 40
4.0
  9
$LOFTANG1
 40
1.570796326794896
  9
$LOFTANG2
 40
1.570796326794896
  9
$LOFTMAG1
 40
0.0
  9
$LOFTMAG2
 40
0.0
  9
$LOFTPARAM
 70
     7
  9
$LOFTNORMALS
280
     1
  9
$LATITUDE
 40
37.795
  9
$LONGITUDE
 40
-122.394
  9
$NORTHDIRECTION
 40
0.0
  9
$TIMEZONE
 70
 -8000
  9
$LIGHTGLYPHDISPLAY
280
     1
  9
$TILEMODELIGHTSYNCH
280
     1
  9
$CMATERIAL
347
293
  9
$SOLIDHIST
280
     1
  9
$SHOWHIST
280
     1
  9
$DWFFRAME
280
     2
  9
$DGNFRAME
280
     0
  9
$REALWORLDSCALE
290
     1
  9
$INTERFERECOLOR
 62
     1
  9
$INTERFEREOBJVS
345
2A0
  9
$INTERFEREVPVS
346
29D
  9
$CSHADOW
280
     0
  9
$SHADOWPLANELOCATION
 40
0.0
  0
ENDSEC
  0
SECTION
  2
CLASSES
  0
CLASS
  1
ACDBDICTIONARYWDFLT
  2
AcDbDictionaryWithDefault
  3
ObjectDBX Classes
 90
        0
 91
        1
280
     0
281
     0
  0
CLASS
  1
ACME_DOCUMENT
  2
AcMeDbDoc
  3
AcMeServices
 90
     1024
 91
        2
280
     0
281
     0
  0
CLASS
  1
AMGSETTINGSOBJ
  2
AmgSettingsObj
  3
"AcadM|Product Description: AutoCAD Mechanical|Company: Autodesk, Inc."
 90
     1024
 91
        4
280
     0
281
     0
  0
CLASS
  1
ACMESCOPE
  2
AcMeScope
  3
AcMeServices
 90
     1024
 91
        1
280
     0
281
     0
  0
CLASS
  1
ACMECOMMANDHISTORY
  2
AcMeCommandHistory
  3
AcMeServices
 90
     1024
 91
        1
280
     0
281
     0
  0
CLASS
  1
ACIMSYSVARMAN
  2
AcImSysVarManager
  3
AcMeServices
 90
     1024
 91
        5
280
     0
281
     0
  0
CLASS
  1
ACIMREALSYSVAR
  2
AcImRealSysVar
  3
AcMeServices
 90
     1024
 91
        4
280
     0
281
     0
  0
CLASS
  1
ACIMINTSYSVAR
  2
AcImIntSysVar
  3
AcMeServices
 90
     1024
 91
       52
280
     0
281
     0
  0
CLASS
  1
ACMEDRAWINGMAN
  2
AcMeDrawingMan
  3
AcMeServices
 90
     1024
 91
        1
280
     0
281
     0
  0
CLASS
  1
ACMEVIEW
  2
AcMeView
  3
AcMeServices
 90
     1024
 91
        1
280
     0
281
     0
  0
CLASS
  1
ACDBENTITYCACHE
  2
AcMeEntityCache
  3
AcMeServices
 90
     1024
 91
        1
280
     0
281
     0
  0
CLASS
  1
GSMANAGER
  2
AcMeGSManager
  3
AcMeServices
 90
     1024
 91
        1
280
     0
281
     0
  0
CLASS
  1
AMDTINTERNALREACTOR
  2
AmdtInternalReactor
  3
AcMeServices
 90
     1024
 91
        2
280
     0
281
     0
  0
CLASS
  1
ACMESTATEMGR
  2
AcMeStateMgr
  3
AcMeServices
 90
     1024
 91
        1
280
     0
281
     0
  0
CLASS
  1
ACGREFMASTER
  2
AcGrefMaster
  3
AcAttribServices
 90
     1024
 91
        1
280
     0
281
     0
  0
CLASS
  1
ACME_DATABASE
  2
AcMeDbDatabase
  3
AcMeServices
 90
     1024
 91
        2
280
     0
281
     0
  0
CLASS
  1
ACRFINSADJUSTERMGR
  2
AcRfInsAdjusterMgr
  3
AcMeServices
 90
     1024
 91
        1
280
     0
281
     0
  0
CLASS
  1
ACGREFACADMASTER
  2
AcGrefacadMaster
  3
AcGrefServices
 90
     1024
 91
        1
280
     0
281
     0
  0
CLASS
  1
AMIMASTER
  2
AmiMaster
  3
AmiServices
 90
     1024
 91
        1
280
     0
281
     0
  0
CLASS
  1
ACMDATADICTIONARY
  2
AcmDataDictionary
  3
"AcmSymBB|Product Description: AutoCAD Mechanical|Company: Autodesk, Inc."
 90
     1024
 91
        1
280
     0
281
     0
  0
CLASS
  1
ACMDATAENTRYBLOCK
  2
AcmDataEntryBlock
  3
AcmSymBB|Product Description: AutoCAD Mechanical|Company: Autodesk, Inc.
 90
     1024
 91
        1
280
     0
281
     0
  0
CLASS
  1
ACIMSTRSYSVAR
  2
AcImStrSysVar
  3
AcMeServices
 90
     1024
 91
        5
280
     0
281
     0
  0
CLASS
  1
ACMSTANDARDANSI
  2
AcmStandardANSI
  3
"Amdt_StdImp|Product Description: AutoCAD Mechanical|Company: Autodesk, Inc."
 90
     1024
 91
        1
280
     0
281
     0
  0
CLASS
  1
AMGOBJPROPCFG
  2
AmgObjPropCfg
  3
"AmgLay|Product Description: AutoCAD Mechanical|Company: Autodesk, Inc."
 90
     1025
 91
        1
280
     0
281
     0
  0
CLASS
  1
ACMSURFSTANDARDANSI
  2
AcmSurfTextStdANSI
  3
"Amdt_StdImp|Product Description: AutoCAD Mechanical|Company: Autodesk, Inc."
 90
     1024
 91
        1
280
     0
281
     0
  0
CLASS
  1
ACMFCFSTANDARDANSI
  2
AcmFCFStdANSI
  3
"Amdt_StdImp|Product Description: AutoCAD Mechanical|Company: Autodesk, Inc."
 90
     1024
 91
        1
280
     0
281
     0
  0
CLASS
  1
ACMWELDSTANDARDANSI
  2
AcmWeldingStdANSI
  3
"Amdt_StdImp|Product Description: AutoCAD Mechanical|Company: Autodesk, Inc."
 90
     1024
 91
        1
280
     0
281
     0
  0
CLASS
  1
ACMIDSTANDARDANSI
  2
AcmIdStdANSI
  3
"Amdt_StdImp|Product Description: AutoCAD Mechanical|Company: Autodesk, Inc."
 90
     1024
 91
        1
280
     0
281
     0
  0
CLASS
  1
ACMDATUMSTANDARDANSI
  2
AcmDatumStdANSI
  3
"Amdt_StdImp|Product Description: AutoCAD Mechanical|Company: Autodesk, Inc."
 90
     1024
 91
        1
280
     0
281
     0
  0
CLASS
  1
ACMBOMSTANDARDANSI
  2
AcmBOMStdANSI
  3
"Amdt_StdImp|Product Description: AutoCAD Mechanical|Company: Autodesk, Inc."
 90
     1024
 91
        1
280
     0
281
     0
  0
CLASS
  1
ACMDETAILSTANDARDANSI
  2
AmdtDetailSymStdANSI
  3
"Amdt_StdImp|Product Description: AutoCAD Mechanical|Company: Autodesk, Inc."
 90
     1024
 91
        1
280
     0
281
     0
  0
CLASS
  1
ACMSECTIONSTANDARDANSI
  2
AmdtSectionSymStdANSI
  3
"Amdt_StdImp|Product Description: AutoCAD Mechanical|Company: Autodesk, Inc."
 90
     1024
 91
        1
280
     0
281
     0
  0
CLASS
  1
ACMCENTERLINESTANDARDANSI
  2
AmdtCenterLineStdANSI
  3
"Amdt_StdImp|Product Description: AutoCAD Mechanical|Company: Autodesk, Inc."
 90
     1024
 91
        1
280
     0
281
     0
  0
CLASS
  1
ACMNOTESTANDARDANSI
  2
AmdtNoteStdANSI
  3
"Amdt_StdImp|Product Description: AutoCAD Mechanical|Company: Autodesk, Inc."
 90
     1024
 91
        1
280
     0
281
     0
  0
CLASS
  1
ACAMGLAYSTD
  2
AcAmgLayStd
  3
"AmgLay|Product Description: AutoCAD Mechanical|Company: Autodesk, Inc."
 90
     1024
 91
        1
280
     0
281
     0
  0
CLASS
  1
ACAMGDIMSTD
  2
AcAmgDimStd
  3
"AmgDim|Product Description: AutoCAD Mechanical|Company: Autodesk, Inc."
 90
     1024
 91
        1
280
     0
281
     0
  0
CLASS
  1
ACAMGHOLECHARTSTDANSI
  2
AcAmgHoleChartStdANSI
  3
AmgDim|Product Description: AutoCAD Mechanical|Company: Autodesk, Inc.
 90
     1024
 91
        1
280
     0
281
     0
  0
CLASS
  1
ACAMGTITLESTD
  2
AcAmgTitleStd
  3
"AmgTitle|Product Description: AutoCAD Mechanical|Company: Autodesk, Inc."
 90
     4095
 91
        1
280
     0
281
     0
  0
CLASS
  1
LAYER_INDEX
  2
AcDbLayerIndex
  3
ObjectDBX Classes
 90
        0
 91
        0
280
     0
281
     0
  0
CLASS
  1
IDBUFFER
  2
AcDbIdBuffer
  3
ObjectDBX Classes
 90
        0
 91
        0
280
     0
281
     0
  0
CLASS
  1
DICTIONARYVAR
  2
AcDbDictionaryVar
  3
ObjectDBX Classes
 90
        0
 91
        9
280
     0
281
     0
  0
CLASS
  1
AM_DRAWING_MGR
  2
AcDmDwgMgr
  3
AcMechDwgViewMgmt
 90
     1024
 91
        1
280
     0
281
     0
  0
CLASS
  1
AM_DWG_DOCUMENT
  2
AcDmDwgDocument
  3
AcMechDwgViewMgmt
 90
     1024
 91
        1
280
     0
281
     0
  0
CLASS
  1
AM_DWG_SHEET
  2
AcDmSheet
  3
AcMechDwgViewMgmt
 90
     1024
 91
        2
280
     0
281
     0
  0
CLASS
  1
AM_VIEWDIMPARMAP
  2
AcDmViewDimParMap
  3
AcMechDwgViewMgmt
 90
     1024
 91
        2
280
     0
281
     0
  0
CLASS
  1
AM_DWGMGR_NAME
  2
AcDmDwgMgrName
  3
AcMechDwgViewMgmt
 90
     1024
 91
        1
280
     0
281
     0
  0
CLASS
  1
AMDTMENUSTATEMGR
  2
AmdtMenuStateMgr
  3
McadcomServices
 90
     1024
 91
        1
280
     0
281
     0
  0
CLASS
  1
AMDTMCOMMENUSTATE
  2
AmdtMcomMenuState
  3
McadcomServices
 90
     1024
 91
        1
280
     0
281
     0
  0
CLASS
  1
MAPIAMMOUDLE
  2
MApiAmModule
  3
MApiAmServices
 90
     1024
 91
        1
280
     0
281
     0
  0
CLASS
  1
AMDTADMENUSTATE
  2
AmdtAdMenuState
  3
DesignerServices
 90
     1024
 91
        1
280
     0
281
     0
  0
CLASS
  1
ADAPPL
  2
AcAdAppl
  3
DesignerServices
 90
     1024
 91
        1
280
     0
281
     0
  0
CLASS
  1
DEPMGR
  2
AcAdDepMgr
  3
DesignerServices
 90
     1024
 91
        1
280
     0
281
     0
  0
CLASS
  1
PARAMMGR
  2
AcAdParamMgr
  3
DesignerServices
 90
     1024
 91
        1
280
     0
281
     0
  0
CLASS
  1
PARAMSCOPE
  2
AcAdParamScope
  3
DesignerServices
 90
     1024
 91
        1
280
     0
281
     0
  0
CLASS
  1
NAMEDAPPL
  2
AcAdNamedAppl
  3
DesignerServices
 90
     1024
 91
        1
280
     0
281
     0
  0
CLASS
  1
AMDTDMMENUSTATE
  2
AmdtDmMenuState
  3
AcMechDwgViewMgmt
 90
     1024
 91
        1
280
     0
281
     0
  0
CLASS
  1
AMDTAMMENUSTATE
  2
AmdtAmMenuState
  3
DesignerAssemblies
 90
     1024
 91
        1
280
     0
281
     0
  0
CLASS
  1
ACAMPROJECT
  2
AcAmProject
  3
DesignerAssemblies
 90
     1024
 91
        1
280
     0
281
     0
  0
CLASS
  1
ACAMGRCOMPDEF
  2
AcAmGrCompDef
  3
DesignerAssemblies
 90
     1024
 91
        1
280
     0
281
     0
  0
CLASS
  1
ACCMCONTEXT
  2
AcCmContext
  3
DesignerAssemblies
 90
     1024
 91
        1
280
     0
281
     0
  0
CLASS
  1
ACAMCOMPDEF
  2
AcAmCompDef
  3
DesignerAssemblies
 90
     1024
 91
        1
280
     0
281
     0
  0
CLASS
  1
ACAMCOMPDEFMGR
  2
AcAmCompDefMgr
  3
DesignerAssemblies
 90
     1024
 91
        1
280
     0
281
     0
  0
CLASS
  1
AMCONTEXTMGR
  2
AcAmContextMgr
  3
DesignerAssemblies
 90
     1024
 91
        1
280
     0
281
     0
  0
CLASS
  1
ACAMCONTEXTMODELER
  2
AcAmContextModeler
  3
DesignerAssemblies
 90
     1024
 91
        1
280
     0
281
     0
  0
CLASS
  1
ACMTHREADLINESTANDARDANSI
  2
AmdtThreadLineStdANSI
  3
"Amdt_StdImp|Product Description: AutoCAD Mechanical|Company: Autodesk, Inc."
 90
     1024
 91
        1
280
     0
281
     0
  0
CLASS
  1
CATALOGSTATE
  2
AcAmCatalogState
  3
DesignerAssemblies
 90
     1024
 91
        1
280
     0
281
     0
  0
CLASS
  1
ACAMGRCOMPDEFSET
  2
AcAmGrCompDefSet
  3
DesignerAssemblies
 90
     1024
 91
        1
280
     0
281
     0
  0
CLASS
  1
AMDTBROWSERDBTAB
  2
AmdtBrowserDbTab
  3
McadcomServices
 90
     1024
 91
        1
280
     0
281
     0
  0
CLASS
  1
CBROWSERAPPOBJECT
  2
CBrowserAppObject
  3
McadcomServices
 90
     1024
 91
        3
280
     0
281
     0
  0
CLASS
  1
DM_PLACEHOLDER
  2
AcDmSelsetPlaceholder
  3
AcMechDwgViewMgmt
 90
     1024
 91
        1
280
     0
281
     0
  0
CLASS
  1
TABLESTYLE
  2
AcDbTableStyle
  3
ObjectDBX Classes
 90
     4095
 91
        1
280
     0
281
     0
  0
CLASS
  1
AMDTNOTETEMPLATEDB
  2
AmdtNoteTemplateDB
  3
AcmSymBB|Product Description: AutoCAD Mechanical|Company: Autodesk, Inc.
 90
     1024
 91
        6
280
     0
281
     0
  0
CLASS
  1
MATERIAL
  2
AcDbMaterial
  3
ObjectDBX Classes
 90
     1153
 91
        3
280
     0
281
     0
  0
CLASS
  1
VISUALSTYLE
  2
AcDbVisualStyle
  3
ObjectDBX Classes
 90
     4095
 91
       16
280
     0
281
     0
  0
CLASS
  1
ACRFATTGENMGR
  2
AcRfAttGeneralMgr
  3
AcAttribServices
 90
     1024
 91
        1
280
     0
281
     0
  0
CLASS
  1
ACRFOBJATTMGR
  2
AcRfObjAttGroupMgr
  3
AcAttribServices
 90
     1024
 91
        1
280
     0
281
     0
  0
CLASS
  1
ACRFMCADAPIATTHOLDER
  2
AcRfMCADAPIAttHolder
  3
AcAttribServices
 90
     1024
 91
        1
280
     0
281
     0
  0
CLASS
  1
AMDTSYSATTR
  2
AmdtSystemAttribute
  3
AcAttribServices
 90
     1024
 91
        2
280
     0
281
     0
  0
CLASS
  1
ACMTAPERSTANDARDANSI
  2
AcmTaperStdANSI
  3
"Amdt_StdImp|Product Description: AutoCAD Mechanical|Company: Autodesk, Inc."
 90
     1024
 91
        1
280
     0
281
     0
  0
CLASS
  1
CAMSSTRUCTBTNSTATE
  2
StructBtnState
  3
DesignerAssemblies
 90
     1024
 91
        1
280
     0
281
     0
  0
CLASS
  1
SCALE
  2
AcDbScale
  3
ObjectDBX Classes
 90
     1153
 91
       33
280
     0
281
     0
  0
CLASS
  1
MLEADERSTYLE
  2
AcDbMLeaderStyle
  3
ACDB_MLEADERSTYLE_CLASS
 90
     4095
 91
        1
280
     0
281
     0
  0
CLASS
  1
ACMANOOTATIONVIEWSTANDARDANSI
  2
AmdtAnViewStdANSI
  3
"Amdt_StdImp|Product Description: AutoCAD Mechanical|Company: Autodesk, Inc."
 90
     1024
 91
        1
280
     0
281
     0
  0
CLASS
  1
CELLSTYLEMAP
  2
AcDbCellStyleMap
  3
ObjectDBX Classes
 90
     1152
 91
        3
280
     0
281
     0
  0
CLASS
  1
EXACXREFPANELOBJECT
  2
ExAcXREFPanelObject
  3
EXAC_ESW
 90
     1025
 91
        1
280
     0
281
     0
  0
CLASS
  1
NPOCOLLECTION
  2
AcDbImpNonPersistentObjectsCollection
  3
ObjectDBX Classes
 90
     1153
 91
        1
280
     0
281
     0
  0
CLASS
  1
SORTENTSTABLE
  2
AcDbSortentsTable
  3
ObjectDBX Classes
 90
        0
 91
        0
280
     0
281
     0
  0
CLASS
  1
ACAMGFILTERDAT
  2
AcAmgFilterDat
  3
"AcadM|Product Description: AutoCAD Mechanical|Company: Autodesk, Inc."
 90
     1024
 91
        6
280
     0
281
     0
  0
ENDSEC
  0
SECTION
  2
TABLES
  0
TABLE
  2
VPORT
  5
8
102
{ACAD_XDICTIONARY
360
DD9
102
}
330
0
100
AcDbSymbolTable
 70
     1
  0
VPORT
  5
291
330
8
100
AcDbSymbolTableRecord
100
AcDbViewportTableRecord
  2
*Active
 70
     0
 10
0.0
 20
0.0
 11
1.0
 21
1.0
 12
133.7326622727626
 22
118.4625926253677
 13
0.0
 23
0.0
 14
0.125
 24
0.125
 15
1.0
 25
1.0
 16
0.0
 26
0.0
 36
1.0
 17
0.0
 27
0.0
 37
0.0
 40
36.5360508385449
 41
1.501315789473684
 42
50.0
 43
0.0
 44
0.0
 50
0.0
 51
0.0
 71
     0
 72
   100
 73
     1
 74
     3
 75
     0
 76
     0
 77
     0
 78
     0
281
     0
 65
     1
110
0.0
120
0.0
130
0.0
111
1.0
121
0.0
131
0.0
112
0.0
122
1.0
132
0.0
 79
     0
146
0.0
348
29C
 60
     3
 61
     5
292
     1
282
     0
141
0.0
142
0.0
 63
   250
421
  3355443
  0
ENDTAB
  0
TABLE
  2
LTYPE
  5
5
330
0
100
AcDbSymbolTable
 70
    16
  0
LTYPE
  5
14
330
5
100
AcDbSymbolTableRecord
100
AcDbLinetypeTableRecord
  2
ByBlock
 70
     0
  3

 72
    65
 73
     0
 40
0.0
  0
LTYPE
  5
15
330
5
100
AcDbSymbolTableRecord
100
AcDbLinetypeTableRecord
  2
ByLayer
 70
     0
  3

 72
    65
 73
     0
 40
0.0
  0
LTYPE
  5
16
330
5
100
AcDbSymbolTableRecord
100
AcDbLinetypeTableRecord
  2
Continuous
 70
     0
  3
Solid line
 72
    65
 73
     0
 40
0.0
  0
LTYPE
  5
6C
330
5
100
AcDbSymbolTableRecord
100
AcDbLinetypeTableRecord
  2
AM_ISO02W050
 70
     0
  3
__ __ __ __ __ __ __ __ __ __ __ __ __ __ __
 72
    65
 73
     2
 40
7.5
 49
6.0
 74
     0
 49
-1.5
 74
     0
  0
LTYPE
  5
6D
330
5
100
AcDbSymbolTableRecord
100
AcDbLinetypeTableRecord
  2
AM_ISO08W050
 70
     0
  3
____ . ____ . ____ . ____ . ____ . ____ . ____
 72
    65
 73
     4
 40
18.0
 49
12.0
 74
     0
 49
-1.5
 74
     0
 49
3.0
 74
     0
 49
-1.5
 74
     0
  0
LTYPE
  5
6E
330
5
100
AcDbSymbolTableRecord
100
AcDbLinetypeTableRecord
  2
AM_ISO09W050
 70
     0
  3
_____ . . _____ . . _____ . . ____ .. ____
 72
    65
 73
     6
 40
22.5
 49
12.0
 74
     0
 49
-1.5
 74
     0
 49
3.0
 74
     0
 49
-1.5
 74
     0
 49
3.0
 74
     0
 49
-1.5
 74
     0
  0
LTYPE
  5
6F
330
5
100
AcDbSymbolTableRecord
100
AcDbLinetypeTableRecord
  2
Amconstr
 70
     0
  3
_______________________
 72
    65
 73
     2
 40
9999.0
 49
9999.0
 74
     0
 49
0.0
 74
     0
  0
LTYPE
  5
70
330
5
100
AcDbSymbolTableRecord
100
AcDbLinetypeTableRecord
  2
AM_ISO08W050x2
 70
     0
  3
__ . __ . __ . __ . __ . __
 72
    65
 73
     4
 40
9.0
 49
6.0
 74
     0
 49
-0.75
 74
     0
 49
1.5
 74
     0
 49
-0.75
 74
     0
  0
LTYPE
  5
71
330
5
100
AcDbSymbolTableRecord
100
AcDbLinetypeTableRecord
  2
AM_ISO02W050x2
 70
     0
  3
 _ _ _ _ _ _ _ _ _ _ _ _
 72
    65
 73
     2
 40
3.75
 49
3.0
 74
     0
 49
-0.75
 74
     0
  0
LTYPE
  5
74
330
5
100
AcDbSymbolTableRecord
100
AcDbLinetypeTableRecord
  2
Amzigzag
 70
     0
  3
/\/-/\/-/\/-/\/-/\/-/\/
 72
    65
 73
     2
 40
11.0001
 49
0.0001
 74
     4
 75
   136
340
254
 46
0.04
 50
0.0
 44
0.0
 45
0.0
 49
-11.0
 74
     0
  0
LTYPE
  5
75
330
5
100
AcDbSymbolTableRecord
100
AcDbLinetypeTableRecord
  2
HIDDEN
 70
     0
  3
Hidden __ __ __ __ __ __ __ __ __ __ __ __ __ _
 72
    65
 73
     2
 40
0.375
 49
0.25
 74
     0
 49
-0.125
 74
     0
  0
LTYPE
  5
76
330
5
100
AcDbSymbolTableRecord
100
AcDbLinetypeTableRecord
  2
CENTER
 70
     0
  3
Center ____ _ ____ _ ____ _ ____ _ ____ _ ____
 72
    65
 73
     4
 40
2.0
 49
1.25
 74
     0
 49
-0.25
 74
     0
 49
0.25
 74
     0
 49
-0.25
 74
     0
  0
LTYPE
  5
77
330
5
100
AcDbSymbolTableRecord
100
AcDbLinetypeTableRecord
  2
PHANTOM2
 70
     0
  3
Phantom (.5x) ___ _ _ ___ _ _ ___ _ _ ___ _ _
 72
    65
 73
     6
 40
1.25
 49
0.625
 74
     0
 49
-0.125
 74
     0
 49
0.125
 74
     0
 49
-0.125
 74
     0
 49
0.125
 74
     0
 49
-0.125
 74
     0
  0
LTYPE
  5
78
330
5
100
AcDbSymbolTableRecord
100
AcDbLinetypeTableRecord
  2
CENTER2
 70
     0
  3
Center (.5x) ___ _ ___ _ ___ _ ___ _ ___ _ ___
 72
    65
 73
     4
 40
1.125
 49
0.75
 74
     0
 49
-0.125
 74
     0
 49
0.125
 74
     0
 49
-0.125
 74
     0
  0
LTYPE
  5
79
330
5
100
AcDbSymbolTableRecord
100
AcDbLinetypeTableRecord
  2
HIDDEN2
 70
     0
  3
Hidden (.5x) _ _ _ _ _ _ _ _ _ _ _ _ _ _ _ _ _
 72
    65
 73
     2
 40
0.1875
 49
0.125
 74
     0
 49
-0.0625
 74
     0
  0
LTYPE
  5
7A
330
5
100
AcDbSymbolTableRecord
100
AcDbLinetypeTableRecord
  2
Amzigzag2
 70
     0
  3
/\/-/\/-/\/-/\/-/\/-/\/
 72
    65
 73
     2
 40
0.4401
 49
0.0001
 74
     4
 75
   136
340
254
 46
0.0016
 50
0.0
 44
0.0
 45
0.0
 49
-0.4400000000000001
 74
     0
  0
LTYPE
  5
87
330
5
100
AcDbSymbolTableRecord
100
AcDbLinetypeTableRecord
  2
ACANSTGB
 70
     0
  3
__ . . __ . .
 72
    65
 73
     6
 40
0.35433070866
 49
0.15748031496
 74
     0
 49
-0.03937007874
 74
     0
 49
0.03937007874
 74
     0
 49
-0.03937007874
 74
     0
 49
0.03937007874
 74
     0
 49
-0.03937007874
 74
     0
  0
LTYPE
  5
88
330
5
100
AcDbSymbolTableRecord
100
AcDbLinetypeTableRecord
  2
ACANSTGL
 70
     0
  3
_ _ _ _ _
 72
    65
 73
     2
 40
0.11811023622
 49
0.07874015748
 74
     0
 49
-0.03937007874
 74
     0
  0
ENDTAB
  0
TABLE
  2
LAYER
  5
2
330
0
100
AcDbSymbolTable
 70
     5
  0
LAYER
  5
10
102
{ACAD_XDICTIONARY
360
B0B
102
}
330
2
100
AcDbSymbolTableRecord
100
AcDbLayerTableRecord
  2
0
 70
     0
 62
     7
  6
Continuous
370
    -3
390
F
347
295
  0
LAYER
  5
38C
102
{ACAD_XDICTIONARY
360
B0D
102
}
330
2
100
AcDbSymbolTableRecord
100
AcDbLayerTableRecord
  2
SURFACE
 70
     0
 62
     7
  6
Continuous
370
    -3
390
F
347
295
  0
LAYER
  5
78F
102
{ACAD_XDICTIONARY
360
790
102
}
330
2
100
AcDbSymbolTableRecord
100
AcDbLayerTableRecord
  2
DRAFT_ENT
 70
     0
 62
     7
  6
Continuous
370
    -3
390
F
347
295
  0
LAYER
  5
E2C
102
{ACAD_XDICTIONARY
360
E2D
102
}
330
2
100
AcDbSymbolTableRecord
100
AcDbLayerTableRecord
  2
ALL_FEATURES
 70
     0
 62
     7
  6
Continuous
370
    -3
390
F
347
295
  0
LAYER
  5
E2E
102
{ACAD_XDICTIONARY
360
E2F
102
}
330
2
100
AcDbSymbolTableRecord
100
AcDbLayerTableRecord
  2
AXIS
 70
     0
 62
     7
  6
Continuous
370
    -3
390
F
347
295
  0
ENDTAB
  0
TABLE
  2
STYLE
  5
3
330
0
100
AcDbSymbolTable
 70
     8
  0
STYLE
  5
11
330
3
100
AcDbSymbolTableRecord
100
AcDbTextStyleTableRecord
  2
STANDARD
 70
     0
 40
0.0
 41
1.0
 50
0.0
 71
     0
 42
0.2
  3
ROMANS.SHX
  4

  0
STYLE
  5
73
330
3
100
AcDbSymbolTableRecord
100
AcDbTextStyleTableRecord
  2

 70
     1
 40
0.0
 41
1.0
 50
0.0
 71
     0
 42
0.2
  3
ltypeshp.shx
  4

  0
STYLE
  5
7B
330
3
100
AcDbSymbolTableRecord
100
AcDbTextStyleTableRecord
  2
ACANSTS
 70
     0
 40
1.0
 41
1.0
 50
0.0
 71
     0
 42
0.2
  3
romans.shx
  4

  0
STYLE
  5
86
330
3
100
AcDbSymbolTableRecord
100
AcDbTextStyleTableRecord
  2
ACANSGDT
 70
     0
 40
0.0
 41
1.0
 50
0.0
 71
     0
 42
0.2
  3
amgdt.shx
  4

  0
STYLE
  5
13F
330
3
100
AcDbSymbolTableRecord
100
AcDbTextStyleTableRecord
  2
USER1
 70
     0
 40
0.0
 41
1.0
 50
0.0
 71
     0
 42
0.2
  3
TXT.SHX
  4

  0
STYLE
  5
140
330
3
100
AcDbSymbolTableRecord
100
AcDbTextStyleTableRecord
  2
USER2
 70
     0
 40
0.0
 41
1.0
 50
0.0
 71
     0
 42
0.2
  3
SIMPLEX.SHX
  4

  0
STYLE
  5
141
330
3
100
AcDbSymbolTableRecord
100
AcDbTextStyleTableRecord
  2
USER3
 70
     0
 40
0.0
 41
1.0
 50
0.0
 71
     0
 42
0.2
  3
ITALIC.SHX
  4

  0
STYLE
  5
254
330
3
100
AcDbSymbolTableRecord
100
AcDbTextStyleTableRecord
  2

 70
     1
 40
0.0
 41
1.0
 50
0.0
 71
     0
 42
0.2
  3
genltshp.shx
  4

  0
ENDTAB
  0
TABLE
  2
VIEW
  5
6
330
0
100
AcDbSymbolTable
 70
     0
  0
ENDTAB
  0
TABLE
  2
UCS
  5
7
330
0
100
AcDbSymbolTable
 70
     0
  0
ENDTAB
  0
TABLE
  2
APPID
  5
9
330
0
100
AcDbSymbolTable
 70
    14
  0
APPID
  5
12
330
9
100
AcDbSymbolTableRecord
100
AcDbRegAppTableRecord
  2
ACAD
 70
     0
  0
APPID
  5
4E
330
9
100
AcDbSymbolTableRecord
100
AcDbRegAppTableRecord
  2
MCAD_NO_VIS
 70
     0
  0
APPID
  5
4F
330
9
100
AcDbSymbolTableRecord
100
AcDbRegAppTableRecord
  2
ACAD_TEMP_GRAPHIC
 70
     0
  0
APPID
  5
60
330
9
100
AcDbSymbolTableRecord
100
AcDbRegAppTableRecord
  2
ACATTRIBSERVICES
 70
     0
  0
APPID
  5
F7
330
9
100
AcDbSymbolTableRecord
100
AcDbRegAppTableRecord
  2
AD_DRAW
 70
     0
  0
APPID
  5
115
330
9
100
AcDbSymbolTableRecord
100
AcDbRegAppTableRecord
  2
DESIGNERASSEMBLIES
 70
     0
  0
APPID
  5
11A
330
9
100
AcDbSymbolTableRecord
100
AcDbRegAppTableRecord
  2
ACADM_DIM_EDIT
 70
     0
  0
APPID
  5
11B
330
9
100
AcDbSymbolTableRecord
100
AcDbRegAppTableRecord
  2
AMDT_DM_ADJ
 70
     0
  0
APPID
  5
1D3
330
9
100
AcDbSymbolTableRecord
100
AcDbRegAppTableRecord
  2
ACAD_DSTYLE_DIMARC_LENGTH_SYMBOL
 70
     0
  0
APPID
  5
1D4
330
9
100
AcDbSymbolTableRecord
100
AcDbRegAppTableRecord
  2
ACAD_DSTYLE_DIMJOGGED_JOGANGLE_SYMBOL
 70
     0
  0
APPID
  5
2EE
330
9
100
AcDbSymbolTableRecord
100
AcDbRegAppTableRecord
  2
ACAD_MLEADERVER
 70
     0
  0
APPID
  5
DDC
330
9
100
AcDbSymbolTableRecord
100
AcDbRegAppTableRecord
  2
ACAD_DSTYLE_DIM_LINETYPE
 70
     0
  0
APPID
  5
DDD
330
9
100
AcDbSymbolTableRecord
100
AcDbRegAppTableRecord
  2
ACAD_DSTYLE_DIM_EXT1_LINETYPE
 70
     0
  0
APPID
  5
DDE
330
9
100
AcDbSymbolTableRecord
100
AcDbRegAppTableRecord
  2
ACAD_DSTYLE_DIM_EXT2_LINETYPE
 70
     0
  0
ENDTAB
  0
TABLE
  2
DIMSTYLE
  5
A
330
0
100
AcDbSymbolTable
 70
     7
100
AcDbDimStyleTable
 71
     1
340
8C
  0
DIMSTYLE
105
27
330
A
100
AcDbSymbolTableRecord
100
AcDbDimStyleTableRecord
  2
Standard
 70
     0
340
11
  0
DIMSTYLE
105
8C
102
{ACAD_REACTORS
330
6A
102
}
330
A
100
AcDbSymbolTableRecord
100
AcDbDimStyleTableRecord
  2
AM_ANSI
 70
     0
  4
mm
 41
0.12
 42
0.05
 43
0.5
 44
0.1
 47
0.1
 48
0.1
 78
     7
 79
     2
 90
     1
140
0.12
141
0.0
146
0.71
147
0.06
176
   256
177
   256
178
   140
274
     4
284
     7
340
11
345
14
346
14
347
14
371
    -1
372
    -1
1001
ACAD_DSTYLE_DIMJOGGED_JOGANGLE_SYMBOL
1070
   384
1040
0.7853981633974483
  0
DIMSTYLE
105
8D
330
A
100
AcDbSymbolTableRecord
100
AcDbDimStyleTableRecord
  2
AM_ANSI$3
 70
     0
  4
mm
 41
0.12
 42
0.05
 43
0.5
 44
0.1
 47
0.1
 48
0.1
 78
     7
 79
     2
 90
     1
140
0.12
141
0.0
146
0.71
147
0.06
176
   256
177
   256
178
   140
274
     4
284
     7
288
     1
289
     0
340
11
345
14
346
14
347
14
371
    -1
372
    -1
1001
ACAD_DSTYLE_DIMJOGGED_JOGANGLE_SYMBOL
1070
   384
1040
0.7853981633974483
  0
DIMSTYLE
105
8E
330
A
100
AcDbSymbolTableRecord
100
AcDbDimStyleTableRecord
  2
AM_ANSI$4
 70
     0
  4
mm
 41
0.12
 42
0.05
 43
0.5
 44
0.1
 47
0.1
 48
0.1
 78
     7
 79
     2
 90
     1
140
0.12
141
0.0
146
0.71
147
0.06
176
   256
177
   256
178
   140
274
     4
284
     7
340
11
345
14
346
14
347
14
371
    -1
372
    -1
1001
ACAD_DSTYLE_DIMJOGGED_JOGANGLE_SYMBOL
1070
   384
1040
0.7853981633974483
  0
DIMSTYLE
105
8F
330
A
100
AcDbSymbolTableRecord
100
AcDbDimStyleTableRecord
  2
AM_ANSI$7
 70
     0
  4
mm
 41
0.12
 42
0.05
 43
0.5
 44
0.1
 47
0.1
 48
0.1
 78
     7
 79
     2
 90
     1
140
0.12
141
0.0
146
0.71
147
0.06
176
   256
177
   256
178
   140
274
     4
284
     7
340
11
345
14
346
14
347
14
371
    -1
372
    -1
1001
ACAD_DSTYLE_DIMJOGGED_JOGANGLE_SYMBOL
1070
   384
1040
0.7853981633974483
  0
DIMSTYLE
105
90
330
A
100
AcDbSymbolTableRecord
100
AcDbDimStyleTableRecord
  2
AM_ANSI$SF
 70
     0
  4
mm
 41
0.12
 42
0.05
 43
0.5
 44
0.1
 47
0.1
 48
0.1
 75
     1
 76
     1
 78
     7
 79
     2
 90
     1
140
0.12
141
0.0
146
0.71
147
0.06
176
   256
177
   256
178
   140
274
     4
284
     7
340
11
345
14
346
14
347
14
371
    -1
372
    -1
1001
ACAD_DSTYLE_DIMJOGGED_JOGANGLE_SYMBOL
1070
   384
1040
0.7853981633974483
  0
DIMSTYLE
105
95
330
A
100
AcDbSymbolTableRecord
100
AcDbDimStyleTableRecord
  2
AM_ANSI$SH
 70
     0
  4
mm
 41
0.12
 42
0.05
 43
0.5
 44
0.1
 47
0.1
 48
0.1
 75
     1
 76
     1
 78
     7
 79
     2
 90
     1
140
0.12
141
0.0
146
0.71
147
0.06
173
     1
176
   256
177
   256
178
   140
274
     4
284
     7
340
11
343
91
345
14
346
14
347
14
371
    -1
372
    -1
1001
ACAD_DSTYLE_DIMJOGGED_JOGANGLE_SYMBOL
1070
   384
1040
0.7853981633974483
  0
ENDTAB
  0
TABLE
  2
BLOCK_RECORD
  5
1
330
0
100
AcDbSymbolTable
 70
     4
  0
BLOCK_RECORD
  5
1F
102
{ACAD_XDICTIONARY
360
99
102
}
330
1
100
AcDbSymbolTableRecord
100
AcDbBlockTableRecord
  2
*Model_Space
340
22
 70
     0
280
     1
281
     0
  0
BLOCK_RECORD
  5
1B
330
1
100
AcDbSymbolTableRecord
100
AcDbBlockTableRecord
  2
*Paper_Space
340
1E
 70
     0
280
     1
281
     0
  0
BLOCK_RECORD
  5
23
330
1
100
AcDbSymbolTableRecord
100
AcDbBlockTableRecord
  2
*Paper_Space0
340
26
 70
     0
280
     1
281
     0
  0
BLOCK_RECORD
  5
91
330
1
100
AcDbSymbolTableRecord
100
AcDbBlockTableRecord
  2
GENAXEH
340
0
 70
     0
280
     1
281
     0
  0
ENDTAB
  0
ENDSEC
  0
SECTION
  2
BLOCKS
  0
BLOCK
  5
20
330
1F
100
AcDbEntity
  8
0
100
AcDbBlockBegin
  2
*Model_Space
 70
     0
 10
0.0
 20
0.0
 30
0.0
  3
*Model_Space
  1

  0
ENDBLK
  5
21
330
1F
100
AcDbEntity
  8
0
100
AcDbBlockEnd
  0
BLOCK
  5
1C
330
1B
100
AcDbEntity
 67
     1
  8
0
100
AcDbBlockBegin
  2
*Paper_Space
 70
     0
 10
0.0
 20
0.0
 30
0.0
  3
*Paper_Space
  1

  0
ENDBLK
  5
1D
330
1B
100
AcDbEntity
 67
     1
  8
0
100
AcDbBlockEnd
  0
BLOCK
  5
24
330
23
100
AcDbEntity
 67
     1
  8
0
100
AcDbBlockBegin
  2
*Paper_Space0
 70
     0
 10
0.0
 20
0.0
 30
0.0
  3
*Paper_Space0
  1

  0
ENDBLK
  5
25
330
23
100
AcDbEntity
 67
     1
  8
0
100
AcDbBlockEnd
  0
BLOCK
  5
93
330
91
100
AcDbEntity
  8
0
100
AcDbBlockBegin
  2
GENAXEH
 70
     0
 10
0.0
 20
0.0
 30
0.0
  3
GENAXEH
  1

  0
LINE
  5
92
330
91
100
AcDbEntity
  8
0
100
AcDbLine
 10
-1.0
 20
0.0
 30
0.0
 11
1.0
 21
0.0
 31
0.0
  0
ENDBLK
  5
94
330
91
100
AcDbEntity
  8
0
100
AcDbBlockEnd
  0
ENDSEC
  0
SECTION
  2
ENTITIES
  0
ARC
  5
C8C
330
1F
100
AcDbEntity
  8
DRAFT_ENT
  6
Continuous
 62
     7
100
AcDbCircle
 10
133.6033261556669
 20
112.2879983216475
 30
0.0
 40
14.9999625
100
AcDbArc
 50
73.63984084779956
 51
90.00127284779933
  0
ARC
  5
C8D
330
1F
100
AcDbEntity
  8
DRAFT_ENT
  6
Continuous
 62
     7
100
AcDbCircle
 10
133.6033256578014
 20
113.7254947278975
 30
0.0
 40
13.249966875
100
AcDbArc
 50
48.35823384779986
 51
90.00001984779951
  0
ARC
  5
C8F
330
1F
100
AcDbEntity
  8
DRAFT_ENT
  6
Continuous
 62
     7
100
AcDbCircle
 10
121.8387278148362
 20
102.913017683691
 30
0.0
 40
12.9999675
100
AcDbArc
 50
58.68776184779982
 51
84.09292549767782
  0
ARC
  5
C90
330
1F
100
AcDbEntity
  8
DRAFT_ENT
  6
Continuous
 62
     7
100
AcDbCircle
 10
121.794830946312
 20
102.8505178247411
 30
0.0
 40
12.9999675
100
AcDbArc
 50
57.53827484779923
 51
83.96624523880866
  0
ARC
  5
C91
330
1F
100
AcDbEntity
  8
DRAFT_ENT
  6
Continuous
 62
     7
100
AcDbCircle
 10
134.166673082496
 20
114.2070137191637
 30
0.0
 40
12.9999675
100
AcDbArc
 50
46.73497084779969
 51
73.63984084779956
  0
ARC
  5
C92
330
1F
100
AcDbEntity
  8
DRAFT_ENT
  6
Continuous
 62
     7
100
AcDbCircle
 10
133.6033248350035
 20
116.1004887903975
 30
0.0
 40
10.8749728125
100
AcDbArc
 50
90.00001984779951
 51
107.2149648477993
  0
ARC
  5
C94
330
1F
100
AcDbEntity
  8
DRAFT_ENT
  6
Continuous
 62
     7
100
AcDbCircle
 10
133.602996078092
 20
118.2879833215142
 30
0.0
 40
8.999977499999999
100
AcDbArc
 50
90.00001984779951
 51
122.4617648477993
  0
ARC
  5
C95
330
1F
100
AcDbEntity
  8
DRAFT_ENT
  6
Continuous
 62
     7
100
AcDbCircle
 10
132.7524343154351
 20
120.8542776110957
 30
0.0
 40
7.999979999999998
100
AcDbArc
 50
238.6877618477998
 51
252.7847828478
  0
ARC
  5
C96
330
1F
100
AcDbEntity
  8
DRAFT_ENT
  6
Continuous
 62
     7
100
AcDbCircle
 10
132.7524350109
 20
118.8466806301007
 30
0.0
 40
7.999979999999998
100
AcDbArc
 50
107.2152568478003
 51
121.3122778477996
  0
ARC
  5
CA4
330
1F
100
AcDbEntity
  8
DRAFT_ENT
  6
Continuous
 62
     7
100
AcDbCircle
 10
133.6033209162133
 20
127.4129605091475
 30
0.0
 40
14.9999625
100
AcDbArc
 50
269.9987668477996
 51
286.3601988477995
  0
ARC
  5
CA5
330
1F
100
AcDbEntity
  8
DRAFT_ENT
  6
Continuous
 62
     7
100
AcDbCircle
 10
133.603321414212
 20
125.9754641028975
 30
0.0
 40
13.249966875
100
AcDbArc
 50
270.0000198477995
 51
311.6418058478004
  0
ARC
  5
CA7
330
1F
100
AcDbEntity
  8
DRAFT_ENT
  6
Continuous
 62
     7
100
AcDbCircle
 10
134.1666691726391
 20
125.4939455017637
 30
0.0
 40
12.9999675
100
AcDbArc
 50
286.3601988477995
 51
313.2650688478002
  0
ARC
  5
CA8
330
1F
100
AcDbEntity
  8
DRAFT_ENT
  6
Continuous
 62
     7
100
AcDbCircle
 10
121.7948191683414
 20
136.8504328247411
 30
0.0
 40
12.9999675
100
AcDbArc
 50
276.0337608855021
 51
302.4617648477993
  0
ARC
  5
CA9
330
1F
100
AcDbEntity
  8
DRAFT_ENT
  6
Continuous
 62
     7
100
AcDbCircle
 10
121.8387160801989
 20
136.787932996191
 30
0.0
 40
12.9999675
100
AcDbArc
 50
275.9072239239495
 51
301.3122778477996
  0
ARC
  5
CAA
330
1F
100
AcDbEntity
  8
DRAFT_ENT
  6
Continuous
 62
     7
100
AcDbCircle
 10
133.60332223701
 20
123.6004700403975
 30
0.0
 40
10.8749728125
100
AcDbArc
 50
252.7847818478002
 51
270.0000198477995
  0
ARC
  5
CAC
330
1F
100
AcDbEntity
  8
DRAFT_ENT
  6
Continuous
 62
     7
100
AcDbCircle
 10
133.6029949955614
 20
121.4129755090142
 30
0.0
 40
8.999977499999999
100
AcDbArc
 50
237.5382748477992
 51
270.0000198477995
  0
ARC
  5
CB0
330
1F
100
AcDbEntity
  8
DRAFT_ENT
  6
Continuous
 62
     7
100
AcDbCircle
 10
139.4783088484401
 20
119.8504814504591
 30
0.0
 40
5.249986874999999
100
AcDbArc
 50
313.2650688478002
 51
46.73497084779969
  0
ARC
  5
CB1
330
1F
100
AcDbEntity
  8
DRAFT_ENT
  6
Continuous
 62
     7
100
AcDbCircle
 10
139.0493329208826
 20
119.8504813019261
 30
0.0
 40
5.059987349999999
100
AcDbArc
 50
311.6418058478004
 51
48.35823384779986
  0
LWPOLYLINE
  5
D33
330
1F
100
AcDbEntity
  8
0
  6
Continuous
 62
     7
100
AcDbPolyline
 90
       52
 70
     0
 43
0.0
 10
119.5450062072414
 20
110.9169720835808
 10
119.6447878495414
 20
110.9196523958808
 10
119.7806019215414
 20
110.9320212080808
 10
119.9167081367414
 20
110.9544479974808
 10
120.0523267975414
 20
110.9868980665808
 10
120.1868213128414
 20
111.0291851714808
 10
120.3197394016414
 20
111.0809929822808
 10
120.4506625282414
 20
111.1418916476808
 10
120.5792198977414
 20
111.2114125619808
 10
120.7053255855414
 20
111.2892296030808
 10
120.8287898489414
 20
111.3749046779808
 10
120.9494101447414
 20
111.4679275348808
 10
121.0672235823414
 20
111.5679777320808
 10
121.1821563891414
 20
111.6746453439808
 10
121.2941776518414
 20
111.7875920010808
 10
121.4033900650414
 20
111.9065993433808
 10
121.5097911823414
 20
112.0313818180808
 10
121.6134022497414
 20
112.1616506915808
 10
121.7143456322414
 20
112.2973185385808
 10
121.8126302749414
 20
112.4381804094808
 10
121.9082888933414
 20
112.5840584573808
 10
122.0014510794414
 20
112.7349850724808
 10
122.0921154790414
 20
112.8907685723808
 10
122.1803068195414
 20
113.0513150303808
 10
122.2661743850414
 20
113.2168096065808
 10
122.3497087528414
 20
113.3871393818808
 10
122.4308898469414
 20
113.5622262948808
 10
122.5098339513414
 20
113.7423008946808
 10
122.5865006631414
 20
113.9272501262808
 10
122.6608592457414
 20
114.1170491462808
 10
122.7330196978414
 20
114.3120552828808
 10
122.8029190565414
 20
114.5121844671808
 10
122.8704918020414
 20
114.7174211740808
 10
122.9358130277414
 20
114.9282238520808
 10
122.9987838694414
 20
115.1445197871808
 10
123.0593150172414
 20
115.3662992170808
 10
123.1174538038414
 20
115.5941187821808
 10
123.1730735799414
 20
115.8278935860808
 10
123.2260652177414
 20
116.0676395961808
 10
123.2764319026414
 20
116.3140763846808
 10
123.3239890055414
 20
116.5671105976809
 10
123.3685821882414
 20
116.8267696574808
 10
123.4101662704414
 20
117.0939703165808
 10
123.4484943187414
 20
117.3685769833808
 10
123.4833573429414
 20
117.6506582196808
 10
123.5146446368414
 20
117.9414505590808
 10
123.5420286732414
 20
118.2409090024808
 10
123.5651824491414
 20
118.5490121023808
 10
123.5838425841414
 20
118.8670406092808
 10
123.5975982180414
 20
119.1953694140808
 10
123.6059684469414
 20
119.5334622837808
 10
123.6085182077414
 20
119.8504809398808
  0
LWPOLYLINE
  5
D34
330
1F
100
AcDbEntity
  8
0
  6
Continuous
 62
     7
100
AcDbPolyline
 90
       52
 70
     0
 43
0.0
 10
123.6085183286414
 20
119.8504809399808
 10
123.6060135837414
 20
120.1647258003809
 10
123.5976914270414
 20
120.5028157425808
 10
123.5839826464414
 20
120.8311423877808
 10
123.5653683942414
 20
121.1491699930808
 10
123.5422599899414
 20
121.4572734652808
 10
123.5149209635414
 20
121.7567332064808
 10
123.4836781800414
 20
122.0475275104808
 10
123.4488591464414
 20
122.3296113411808
 10
123.4105750274414
 20
122.6042214255808
 10
123.3690347860414
 20
122.8714263498809
 10
123.3244852825414
 20
123.1310904566808
 10
123.2769720451414
 20
123.3841305969808
 10
123.2266494911414
 20
123.6305742146808
 10
123.1737021374414
 20
123.8703278928808
 10
123.1181269768414
 20
124.1041112281808
 10
123.0600334949414
 20
124.3319403632808
 10
122.9995482521414
 20
124.5537303522808
 10
122.9366239437414
 20
124.7700378321809
 10
122.8713500581414
 20
124.9808533367808
 10
122.8038254304414
 20
125.1861041709808
 10
122.7339749758414
 20
125.3862487206808
 10
122.6618645371414
 20
125.5812716852808
 10
122.5875572271414
 20
125.7710891427809
 10
122.5109430006414
 20
125.9560584034808
 10
122.4320528063414
 20
126.1361550103808
 10
122.3509272188414
 20
126.3112661895808
 10
122.2674499053414
 20
126.4816223807809
 10
122.1816412237414
 20
126.6471459684808
 10
122.0935107110414
 20
126.8077243056809
 10
122.0029090392414
 20
126.9635425550809
 10
121.9098119489414
 20
127.1145077319808
 10
121.8142207522414
 20
127.2604283086808
 10
121.7160058186414
 20
127.4013370632808
 10
121.6151346482414
 20
127.5370571244808
 10
121.5115981376414
 20
127.6673833409808
 10
121.4052741362414
 20
127.7922300275808
 10
121.2961413605414
 20
127.9113087120808
 10
121.1842019475414
 20
128.0243346703809
 10
121.0693528502414
 20
128.1310905017809
 10
120.9516242906414
 20
128.2312387281808
 10
120.8310892835414
 20
128.3243709380808
 10
120.7077099440414
 20
128.4101673933808
 10
120.5816870887414
 20
128.4881191748809
 10
120.4532080843414
 20
128.5577879356809
 10
120.3223588512414
 20
128.6188469722809
 10
120.1895107524414
 20
128.6708275965808
 10
120.0550781540414
 20
128.7132998575808
 10
119.9195085776414
 20
128.7459465658808
 10
119.7834430904414
 20
128.7685749980808
 10
119.6476576227414
 20
128.7811523522808
 10
119.5450061881414
 20
128.7839897486809
  0
LINE
  5
D35
330
1F
100
AcDbEntity
  8
0
  6
Continuous
 62
     7
100
AcDbLine
 10
115.7978082944414
 20
116.6081836147808
 30
0.0
 11
115.7977900178414
 21
116.6081836147808
 31
0.0
  0
LINE
  5
D36
330
1F
100
AcDbEntity
  8
0
  6
Continuous
 62
     7
100
AcDbLine
 10
115.8153136645414
 20
116.4210812564808
 30
0.0
 11
115.8152212345414
 21
116.4210638011808
 31
0.0
  0
LINE
  5
D37
330
1F
100
AcDbEntity
  8
0
  6
Continuous
 62
     7
100
AcDbLine
 10
123.6084242715414
 20
119.8504809364808
 30
0.0
 11
123.6085183286414
 21
119.8504809399808
 31
0.0
  0
LINE
  5
D38
330
1F
100
AcDbEntity
  8
0
  6
Continuous
 62
     7
100
AcDbLine
 10
115.8153072636414
 20
123.2798776096808
 30
0.0
 11
115.8152147735414
 21
123.2798949977808
 31
0.0
  0
LINE
  5
D39
330
1F
100
AcDbEntity
  8
0
  6
Continuous
 62
     7
100
AcDbLine
 10
115.7978082944414
 20
123.0927752178808
 30
0.0
 11
115.7977900178414
 21
123.0927752178808
 31
0.0
  0
LWPOLYLINE
  5
D3A
330
1F
100
AcDbEntity
  8
0
  6
Continuous
 62
     7
100
AcDbPolyline
 90
        7
 70
     0
 43
0.0
 10
115.7977900695414
 20
116.6081836147808
 10
115.7980294572414
 20
116.5861399772808
 10
115.7990396553414
 20
116.5578426678808
 10
115.8008386953414
 20
116.5295984392808
 10
115.8034246989414
 20
116.5014285102808
 10
115.8067950036414
 20
116.4733546895808
 10
115.8109465546414
 20
116.4453989383808
  0
LINE
  5
D3B
330
1F
100
AcDbEntity
  8
0
  6
Continuous
 62
     7
100
AcDbLine
 10
115.7978082944414
 20
123.0927752178808
 30
0.0
 11
115.7978082944414
 21
116.6081836147808
 31
0.0
  0
LWPOLYLINE
  5
D3C
330
1F
100
AcDbEntity
  8
0
  6
Continuous
 62
     7
100
AcDbPolyline
 90
       40
 70
     0
 43
0.0
 10
115.8152212345414
 20
116.4210638011808
 10
115.8631839885414
 20
116.1763728337808
 10
115.9204772345414
 20
115.9076680183808
 10
115.9806824403414
 20
115.6478605468808
 10
116.0434455848414
 20
115.3973488684808
 10
116.1085853820414
 20
115.1557641290808
 10
116.1761759806414
 20
114.9220026852808
 10
116.2460396192414
 20
114.6960880579808
 10
116.3179736058414
 20
114.4780587575808
 10
116.3921549734414
 20
114.2668835931808
 10
116.4684696454414
 20
114.0624883924808
 10
116.5467326985414
 20
113.8650046186808
 10
116.6271278131414
 20
113.6737500055808
 10
116.7095762719414
 20
113.4887282890808
 10
116.7939588550414
 20
113.3100441902808
 10
116.8804569910414
 20
113.1371740503808
 10
116.9690287034414
 20
112.9701539494808
 10
117.0595905790414
 20
112.8091122335808
 10
117.1523300562414
 20
112.6537064822809
 10
117.2472115139414
 20
112.5040323395808
 10
117.3441703420414
 20
112.3602196146808
 10
117.4434155199414
 20
112.2220486878808
 10
117.5449480682414
 20
112.0896425265808
 10
117.6487224718414
 20
111.9632095135808
 10
117.7549064729414
 20
111.8427158069808
 10
117.8634720432414
 20
111.7283993041808
 10
117.9743443023414
 20
111.6205163867808
 10
118.0876366622414
 20
111.5191438726808
 10
118.2032779278414
 20
111.4246087537808
 10
118.3211362203414
 20
111.3372447366808
 10
118.4412301036414
 20
111.2572532788808
 10
118.5633089498414
 20
111.1850507760808
 10
118.6871386735414
 20
111.1209631151808
 10
118.8126441604414
 20
111.0651760332808
 10
118.9394046358414
 20
111.0180031914808
 10
119.0670270479414
 20
110.9797431730808
 10
119.1951855161414
 20
110.9505691959808
 10
119.3233934726414
 20
110.9304414126808
 10
119.4508909889414
 20
110.9193835494808
 10
119.5450062070414
 20
110.9169695559808
  0
LINE
  5
D3D
330
1F
100
AcDbEntity
  8
0
  6
Continuous
 62
     7
100
AcDbLine
 10
115.8109465546414
 20
116.4453989383808
 30
0.0
 11
115.8152149570414
 21
116.4210626224808
 31
0.0
  0
LWPOLYLINE
  5
D3E
330
1F
100
AcDbEntity
  8
0
  6
Continuous
 62
     7
100
AcDbPolyline
 90
        7
 70
     0
 43
0.0
 10
115.8114111770414
 20
123.2583879837809
 10
115.8071804838414
 20
123.2304447169809
 10
115.8037306905414
 20
123.2023808731808
 10
115.8010649355414
 20
123.1742183397808
 10
115.7991859697414
 20
123.1459790100808
 10
115.7980957617414
 20
123.1176841753808
 10
115.7977900695414
 20
123.0927752178808
  0
LINE
  5
D3F
330
1F
100
AcDbEntity
  8
0
  6
Continuous
 62
     7
100
AcDbLine
 10
115.8152147735414
 20
123.2798949977808
 30
0.0
 11
115.8114111770414
 21
123.2583879837809
 31
0.0
  0
LWPOLYLINE
  5
D40
330
1F
100
AcDbEntity
  8
0
  6
Continuous
 62
     7
100
AcDbPolyline
 90
       40
 70
     0
 43
0.0
 10
119.5450061881414
 20
128.7839923298808
 10
119.4537589936414
 20
128.7817237500808
 10
119.3262367849414
 20
128.7708645888808
 10
119.1979916481414
 20
128.7509299360808
 10
119.0697897068414
 20
128.7219441560808
 10
118.9421108621414
 20
128.6838663789809
 10
118.8152839059414
 20
128.6368615573809
 10
118.6897084378414
 20
128.5812328199808
 10
118.5658018682414
 20
128.5172914044809
 10
118.4436420541414
 20
128.4452233494808
 10
118.3234645943414
 20
128.3653538374809
 10
118.2055216307414
 20
128.2780999877809
 10
118.0897956164414
 20
128.1836647331809
 10
117.9764198445414
 20
128.0823822325809
 10
117.8654658155414
 20
127.9745804828808
 10
117.7568201364414
 20
127.8603376423808
 10
117.6505579465414
 20
127.7399103382808
 10
117.5467075629414
 20
127.6135366719808
 10
117.4451014138414
 20
127.4811843964808
 10
117.3457850977414
 20
127.3430620499808
 10
117.2487572465414
 20
127.1992932827808
 10
117.1538088056414
 20
127.0496587887808
 10
117.0610042240414
 20
126.8942891509808
 10
116.9703792436414
 20
126.7332800287809
 10
116.8817461951414
 20
126.5662896903808
 10
116.7951886450414
 20
126.3934464289809
 10
116.7107481165414
 20
126.2147868727808
 10
116.6282430773414
 20
126.0297874191808
 10
116.5477927106414
 20
125.8385530538808
 10
116.4694757599414
 20
125.6410875962808
 10
116.3931083034414
 20
125.4367088678808
 10
116.3188748702414
 20
125.2255487020808
 10
116.2468896569414
 20
125.0075328581808
 10
116.1769753760414
 20
124.7816303202808
 10
116.1093348378414
 20
124.5478795849808
 10
116.0441458200414
 20
124.3063041277808
 10
115.9813336095414
 20
124.0558005940809
 10
115.9210795725414
 20
123.7960000601808
 10
115.8637377646414
 20
123.5273010237808
 10
115.8152204963414
 20
123.2798939230808
  0
ARC
  5
D71
330
1F
100
AcDbEntity
  8
0
  6
Continuous
 62
     7
100
AcDbCircle
 10
119.6371525367414
 20
113.0920590310808
 30
0.0
 40
2.1887171995
100
AcDbArc
 50
247.8022977335002
 51
247.9160563454003
  0
ARC
  5
D72
330
1F
100
AcDbEntity
  8
0
  6
Continuous
 62
     7
100
AcDbCircle
 10
119.5685302568414
 20
112.8891160406808
 30
0.0
 40
1.9743479021
100
AcDbArc
 50
255.1391549477996
 51
255.5768848525
  0
ARC
  5
D73
330
1F
100
AcDbEntity
  8
0
  6
Continuous
 62
     7
100
AcDbCircle
 10
119.5621987247414
 20
112.8636394531808
 30
0.0
 40
1.948097216299999
100
AcDbArc
 50
255.5705983739
 51
258.797340224
  0
ARC
  5
D74
330
1F
100
AcDbEntity
  8
0
  6
Continuous
 62
     7
100
AcDbCircle
 10
119.5565411780414
 20
112.8361818955808
 30
0.0
 40
1.920063695699999
100
AcDbArc
 50
258.8037648175986
 51
259.3504370855013
  0
ARC
  5
D75
330
1F
100
AcDbEntity
  8
0
  6
Continuous
 62
     7
100
AcDbCircle
 10
119.5499732584414
 20
112.7985909044808
 30
0.0
 40
1.881906479799999
100
AcDbArc
 50
259.3354553873
 51
262.9297814653988
  0
ARC
  5
D76
330
1F
100
AcDbEntity
  8
0
  6
Continuous
 62
     7
100
AcDbCircle
 10
119.5477934464414
 20
112.7814227736808
 30
0.0
 40
1.8646005917
100
AcDbArc
 50
262.9313205191999
 51
263.4383141178994
  0
ARC
  5
D77
330
1F
100
AcDbEntity
  8
0
  6
Continuous
 62
     7
100
AcDbCircle
 10
119.5449470560414
 20
112.7747797145808
 30
0.0
 40
1.8577135806
100
AcDbArc
 50
270.0018233439001
 51
270.2062698868001
  0
ARC
  5
D78
330
1F
100
AcDbEntity
  8
0
  6
Continuous
 62
     7
100
AcDbCircle
 10
119.5466303790414
 20
112.7704929998808
 30
0.0
 40
1.853609509799999
100
AcDbArc
 50
263.4354231370001
 51
266.6750039634991
  0
ARC
  5
D79
330
1F
100
AcDbEntity
  8
0
  6
Continuous
 62
     7
100
AcDbCircle
 10
119.5449963270414
 20
112.7662840978808
 30
0.0
 40
1.8492204861
100
AcDbArc
 50
269.8486322455001
 51
270.0003051186987
  0
ARC
  5
D7A
330
1F
100
AcDbEntity
  8
0
  6
Continuous
 62
     7
100
AcDbCircle
 10
119.5457054672414
 20
112.7563424475808
 30
0.0
 40
1.839429136799999
100
AcDbArc
 50
266.6782007219999
 51
267.2647389159997
  0
ARC
  5
D7B
330
1F
100
AcDbEntity
  8
0
  6
Continuous
 62
     7
100
AcDbCircle
 10
119.5448729163414
 20
112.7491011974808
 30
0.0
 40
1.8321753912
100
AcDbArc
 50
270.0041683735003
 51
272.8351157671987
  0
ARC
  5
D7C
330
1F
100
AcDbEntity
  8
0
  6
Continuous
 62
     7
100
AcDbCircle
 10
119.5450865918414
 20
112.7413543122808
 30
0.0
 40
1.824428546599999
100
AcDbArc
 50
267.2616901015989
 51
269.9974756415002
  0
ARC
  5
D7D
330
1F
100
AcDbEntity
  8
0
  6
Continuous
 62
     7
100
AcDbCircle
 10
103.9455716542414
 20
119.8501660298808
 30
0.0
 40
19.6628524992
100
AcDbArc
 50
358.8857850516002
 51
0.0009176092999046
  0
ARC
  5
D7E
330
1F
100
AcDbEntity
  8
0
  6
Continuous
 62
     7
100
AcDbCircle
 10
116.8108738093414
 20
116.6084580700808
 30
0.0
 40
1.013065501
100
AcDbArc
 50
180.3790830115999
 51
181.0211628086998
  0
ARC
  5
D7F
330
1F
100
AcDbEntity
  8
0
  6
Continuous
 62
     7
100
AcDbCircle
 10
116.8108325381414
 20
116.6084578365808
 30
0.0
 40
1.0130242291
100
AcDbArc
 50
180.0155097456002
 51
180.3790852481001
  0
ARC
  5
D80
330
1F
100
AcDbEntity
  8
0
  6
Continuous
 62
     7
100
AcDbCircle
 10
116.8107648561414
 20
116.6084560704808
 30
0.0
 40
1.0129565295
100
AcDbArc
 50
181.0211595539998
 51
181.5129752403002
  0
ARC
  5
D81
330
1F
100
AcDbEntity
  8
0
  6
Continuous
 62
     7
100
AcDbCircle
 10
116.8102754875414
 20
116.6084418195808
 30
0.0
 40
1.012466955199999
100
AcDbArc
 50
181.5129002606997
 51
182.7016514175998
  0
ARC
  5
D82
330
1F
100
AcDbEntity
  8
0
  6
Continuous
 62
     7
100
AcDbCircle
 10
116.8097698764414
 20
116.6084197566808
 30
0.0
 40
1.0119608662
100
AcDbArc
 50
182.7017529780002
 51
183.2007824622003
  0
ARC
  5
D83
330
1F
100
AcDbEntity
  8
0
  6
Continuous
 62
     7
100
AcDbCircle
 10
116.8097199467414
 20
116.6084168121808
 30
0.0
 40
1.0119108499
100
AcDbArc
 50
183.2007738513004
 51
184.0888126383002
  0
ARC
  5
D84
330
1F
100
AcDbEntity
  8
0
  6
Continuous
 62
     7
100
AcDbCircle
 10
116.8091240870414
 20
116.6083688170808
 30
0.0
 40
1.0113130471
100
AcDbArc
 50
184.8997724398001
 51
185.6249845550002
  0
ARC
  5
D85
330
1F
100
AcDbEntity
  8
0
  6
Continuous
 62
     7
100
AcDbCircle
 10
116.8089230003414
 20
116.6083487926808
 30
0.0
 40
1.011110965899999
100
AcDbArc
 50
185.6249721978002
 51
186.6414564005001
  0
ARC
  5
D86
330
1F
100
AcDbEntity
  8
0
  6
Continuous
 62
     7
100
AcDbCircle
 10
116.8086090551414
 20
116.6083124838808
 30
0.0
 40
1.010794928199999
100
AcDbArc
 50
186.6414702552998
 51
187.2314201134003
  0
ARC
  5
D87
330
1F
100
AcDbEntity
  8
0
  6
Continuous
 62
     7
100
AcDbCircle
 10
116.8082067430414
 20
116.6082611264808
 30
0.0
 40
1.010389351299999
100
AcDbArc
 50
187.2314027114002
 51
188.0051377789998
  0
ARC
  5
D88
330
1F
100
AcDbEntity
  8
0
  6
Continuous
 62
     7
100
AcDbCircle
 10
116.8077511769414
 20
116.6081950295808
 30
0.0
 40
1.009929019699999
100
AcDbArc
 50
188.0050237531998
 51
190.6771860658999
  0
ARC
  5
D89
330
1F
100
AcDbEntity
  8
0
  6
Continuous
 62
     7
100
AcDbCircle
 10
131.5748290680414
 20
120.3178588033809
 30
0.0
 40
16.0354575033
100
AcDbArc
 50
168.1356400188005
 51
169.3553807247003
  0
ARC
  5
D8A
330
1F
100
AcDbEntity
  8
0
  6
Continuous
 62
     7
100
AcDbCircle
 10
119.5682422096414
 20
126.8129575043808
 30
0.0
 40
1.9731995811
100
AcDbArc
 50
104.3223579469994
 51
104.8011865607001
  0
ARC
  5
D8B
330
1F
100
AcDbEntity
  8
0
  6
Continuous
 62
     7
100
AcDbCircle
 10
119.5618702994414
 20
126.8387767522808
 30
0.0
 40
1.9466065611
100
AcDbArc
 50
101.1037975680005
 51
104.3286339337999
  0
ARC
  5
D8C
330
1F
100
AcDbEntity
  8
0
  6
Continuous
 62
     7
100
AcDbCircle
 10
119.5563073989414
 20
126.8659977315808
 30
0.0
 40
1.918823830999999
100
AcDbArc
 50
100.5884914644996
 51
101.0973372262004
  0
ARC
  5
D8D
330
1F
100
AcDbEntity
  8
0
  6
Continuous
 62
     7
100
AcDbCircle
 10
119.5498827860414
 20
126.9029919999808
 30
0.0
 40
1.8812790049
100
AcDbArc
 50
97.01031250730052
 51
100.6031901799991
  0
ARC
  5
D8E
330
1F
100
AcDbEntity
  8
0
  6
Continuous
 62
     7
100
AcDbCircle
 10
119.5477332925414
 20
126.9200139785808
 30
0.0
 40
1.8641219386
100
AcDbArc
 50
96.45000425999905
 51
97.00859355929871
  0
ARC
  5
D8F
330
1F
100
AcDbEntity
  8
0
  6
Continuous
 62
     7
100
AcDbCircle
 10
119.5449467808414
 20
126.9261264711808
 30
0.0
 40
1.8577692272
100
AcDbArc
 50
89.80437571230082
 51
89.9981682227988
  0
ARC
  5
D90
330
1F
100
AcDbEntity
  8
0
  6
Continuous
 62
     7
100
AcDbCircle
 10
119.5465615813414
 20
126.9312195247809
 30
0.0
 40
1.852855697499999
100
AcDbArc
 50
93.20788776589964
 51
96.45292628689924
  0
ARC
  5
D91
330
1F
100
AcDbEntity
  8
0
  6
Continuous
 62
     7
100
AcDbCircle
 10
119.5449966284414
 20
126.9347444923808
 30
0.0
 40
1.8491537815
100
AcDbArc
 50
89.99970420520007
 51
90.15786919850011
  0
ARC
  5
D92
330
1F
100
AcDbEntity
  8
0
  6
Continuous
 62
     7
100
AcDbCircle
 10
119.5456696865414
 20
126.9452595753808
 30
0.0
 40
1.8387877402
100
AcDbArc
 50
92.6795810074997
 51
93.20462128849944
  0
ARC
  5
D93
330
1F
100
AcDbEntity
  8
0
  6
Continuous
 62
     7
100
AcDbCircle
 10
119.5448709662414
 20
126.9516785396808
 30
0.0
 40
1.832357744999999
100
AcDbArc
 50
87.10469761010008
 51
89.99577106240046
  0
ARC
  5
D94
330
1F
100
AcDbEntity
  8
0
  6
Continuous
 62
     7
100
AcDbCircle
 10
119.5450859463414
 20
126.9597376275808
 30
0.0
 40
1.8242982306
100
AcDbArc
 50
90.00250426499903
 51
92.68252553469928
  0
ARC
  5
D95
330
1F
100
AcDbEntity
  8
0
  6
Continuous
 62
     7
100
AcDbCircle
 10
103.9467450476414
 20
119.8508211099808
 30
0.0
 40
19.6616792268
100
AcDbArc
 50
359.9990087058003
 51
1.11119070020023
  0
ARC
  5
D96
330
1F
100
AcDbEntity
  8
0
  6
Continuous
 62
     7
100
AcDbCircle
 10
116.8108634733414
 20
123.0925007818808
 30
0.0
 40
1.013055164899999
100
AcDbArc
 50
178.8524473863998
 51
179.7415884072
  0
ARC
  5
D97
330
1F
100
AcDbEntity
  8
0
  6
Continuous
 62
     7
100
AcDbCircle
 10
116.8108123118414
 20
123.0925010075809
 30
0.0
 40
1.0130040029
100
AcDbArc
 50
179.7415881230002
 51
179.9844905940004
  0
ARC
  5
D98
330
1F
100
AcDbEntity
  8
0
  6
Continuous
 62
     7
100
AcDbCircle
 10
116.8107133427414
 20
123.0925037978808
 30
0.0
 40
1.0129050039
100
AcDbArc
 50
178.3680638944001
 51
178.8524478761996
  0
ARC
  5
D99
330
1F
100
AcDbEntity
  8
0
  6
Continuous
 62
     7
100
AcDbCircle
 10
116.8100481579414
 20
123.0925255021808
 30
0.0
 40
1.012239470799999
100
AcDbArc
 50
177.1996172534003
 51
178.3682196539
  0
ARC
  5
D9A
330
1F
100
AcDbEntity
  8
0
  6
Continuous
 62
     7
100
AcDbCircle
 10
116.8097666182414
 20
123.0925389599808
 30
0.0
 40
1.0119576098
100
AcDbArc
 50
176.6698774906004
 51
177.1995995185001
  0
ARC
  5
D9B
330
1F
100
AcDbEntity
  8
0
  6
Continuous
 62
     7
100
AcDbCircle
 10
116.8096760870414
 20
123.0925444966809
 30
0.0
 40
1.011866909899999
100
AcDbArc
 50
175.6376288812002
 51
176.6698926954003
  0
ARC
  5
D9C
330
1F
100
AcDbEntity
  8
0
  6
Continuous
 62
     7
100
AcDbCircle
 10
116.8094002210414
 20
123.0925654375808
 30
0.0
 40
1.0115902502
100
AcDbArc
 50
174.9573151667999
 51
175.6376230271
  0
ARC
  5
D9D
330
1F
100
AcDbEntity
  8
0
  6
Continuous
 62
     7
100
AcDbCircle
 10
116.8090869290414
 20
123.0925930249809
 30
0.0
 40
1.011275745999999
100
AcDbArc
 50
174.2564988769002
 51
174.9573119337002
  0
ARC
  5
D9E
330
1F
100
AcDbEntity
  8
0
  6
Continuous
 62
     7
100
AcDbCircle
 10
116.8088812214414
 20
123.0926140051808
 30
0.0
 40
1.0110689715
100
AcDbArc
 50
173.2083591828998
 51
174.2565152355997
  0
ARC
  5
D9F
330
1F
100
AcDbEntity
  8
0
  6
Continuous
 62
     7
100
AcDbCircle
 10
116.8085550976414
 20
123.0926524765808
 30
0.0
 40
1.010740586599999
100
AcDbArc
 50
172.6865758496004
 51
173.2083384503
  0
ARC
  5
DA0
330
1F
100
AcDbEntity
  8
0
  6
Continuous
 62
     7
100
AcDbCircle
 10
116.8081890870414
 20
123.0926996985808
 30
0.0
 40
1.010371542399999
100
AcDbArc
 50
171.9948628440999
 51
172.6865897909001
  0
ARC
  5
DA1
330
1F
100
AcDbEntity
  8
0
  6
Continuous
 62
     7
100
AcDbCircle
 10
116.8079813612414
 20
123.0927285393808
 30
0.0
 40
1.010161822799999
100
AcDbArc
 50
171.0613464277
 51
171.9948298625002
  0
ARC
  5
DA2
330
1F
100
AcDbEntity
  8
0
  6
Continuous
 62
     7
100
AcDbCircle
 10
116.8078080139414
 20
123.0927562080808
 30
0.0
 40
1.0099862817
100
AcDbArc
 50
170.214257156
 51
171.0613690370998
  0
ARC
  5
DA3
330
1F
100
AcDbEntity
  8
0
  6
Continuous
 62
     7
100
AcDbCircle
 10
116.8072230506414
 20
123.0928575600808
 30
0.0
 40
1.0093926033
100
AcDbArc
 50
169.3225548002997
 51
170.2142829522003
  0
LINE
  5
DB1
330
1F
100
AcDbEntity
  8
0
  6
Continuous
 62
     7
100
AcDbLine
 10
118.8130573198414
 20
128.6365493129809
 30
0.0
 11
118.8166518070414
 21
128.6380065053808
 31
0.0
  0
SPLINE
  5
DB2
330
1F
100
AcDbEntity
  8
0
  6
Continuous
 62
     7
100
AcDbSpline
210
0.0
220
0.0
230
1.0
 70
     8
 71
     3
 72
     9
 73
     5
 74
     3
 42
0.0000000001
 43
0.0000000001
 44
0.0000000001
 12
0.9270751281999942
 22
0.3748755882595776
 32
0.0
 13
0.9668187020885516
 23
0.2554634950277798
 33
0.0
 40
0.0
 40
0.0
 40
0.0
 40
0.0
 40
0.2387109723527746
 40
0.2609903551243846
 40
0.2609903551243846
 40
0.2609903551243846
 40
0.2609903551243846
 10
118.8166518070414
 20
128.6380065053808
 30
0.0
 10
118.8904194754736
 20
128.6678354774424
 30
0.0
 10
118.9729967906105
 20
128.6960885727239
 30
0.0
 10
119.0569771978299
 20
128.7187853812175
 30
0.0
 10
119.0641572391414
 20
128.7206825708808
 30
0.0
 11
118.8166518070414
 21
128.6380065053808
 31
0.0
 11
119.0426494853414
 21
128.7148698758809
 31
0.0
 11
119.0641572391414
 21
128.7206825708808
 31
0.0
  0
LINE
  5
FEE
330
1F
100
AcDbEntity
  8
0
  6
Continuous
100
AcDbLine
 10
125.5484274411431
 20
122.6454547412097
 30
0.0
 11
125.5242312744031
 21
122.6414363905497
 31
0.0
  0
LINE
  5
FEF
330
1F
100
AcDbEntity
  8
ALL_FEATURES
  6
Continuous
100
AcDbLine
 10
126.5445912152231
 20
123.0560971378897
 30
0.0
 11
125.6138865573031
 21
122.9709736814098
 31
0.0
  0
LINE
  5
FF0
330
1F
100
AcDbEntity
  8
0
  6
Continuous
100
AcDbLine
 10
124.1142316961232
 20
121.8144322798898
 30
0.0
 11
124.9712348395231
 21
121.8927999470297
 31
0.0
  0
LINE
  5
FF1
330
1F
100
AcDbEntity
  8
ALL_FEATURES
  6
Continuous
100
AcDbLine
 10
124.9762708643832
 20
121.8369240235097
 30
0.0
 11
124.0580734086631
 21
121.7529605128497
 31
0.0
  0
LINE
  5
FF2
330
1F
100
AcDbEntity
  8
0
  6
Continuous
100
AcDbLine
 10
125.5242312744031
 20
122.6414363905497
 30
0.0
 11
125.4428491588431
 21
122.6403265507697
 31
0.0
  0
LINE
  5
FF3
330
1F
100
AcDbEntity
  8
0
  6
Continuous
100
AcDbLine
 10
125.4616961769231
 20
122.6453754960098
 30
0.0
 11
125.5484274411431
 21
122.6454547412097
 31
0.0
  0
LINE
  5
FF4
330
1F
100
AcDbEntity
  8
0
  6
Continuous
100
AcDbLine
 10
125.4428491588431
 20
122.6403265507697
 30
0.0
 11
125.4237193645231
 21
122.6403265507697
 31
0.0
  0
LINE
  5
FF5
330
1F
100
AcDbEntity
  8
ALL_FEATURES
  6
Continuous
100
AcDbLine
 10
125.1371249753432
 20
122.6309761571498
 30
0.0
 11
125.4223249925232
 21
122.6309761571498
 31
0.0
  0
LINE
  5
FF6
330
1F
100
AcDbEntity
  8
0
  6
Continuous
100
AcDbLine
 10
126.2989849841632
 20
122.4208784207498
 30
0.0
 11
125.8677846517032
 21
122.4208784207498
 31
0.0
  0
LINE
  5
FF7
330
1F
100
AcDbEntity
  8
0
  6
Continuous
100
AcDbLine
 10
125.8677846517032
 20
122.3548534207497
 30
0.0
 11
126.2989849841632
 21
122.3548534207497
 31
0.0
  0
LINE
  5
FF8
330
1F
100
AcDbEntity
  8
ALL_FEATURES
  6
Continuous
100
AcDbLine
 10
125.4223249925232
 20
122.1447556847298
 30
0.0
 11
125.1371249753432
 21
122.1447556847298
 31
0.0
  0
LINE
  5
FF9
330
1F
100
AcDbEntity
  8
0
  6
Continuous
100
AcDbLine
 10
125.4428491588431
 20
122.1354052911097
 30
0.0
 11
125.4237193645231
 21
122.1354052911097
 31
0.0
  0
LINE
  5
FFA
330
1F
100
AcDbEntity
  8
0
  6
Continuous
100
AcDbLine
 10
125.4616961750232
 20
122.1303563454897
 30
0.0
 11
125.5484274411431
 21
122.1302771006697
 31
0.0
  0
LINE
  5
FFB
330
1F
100
AcDbEntity
  8
0
  6
Continuous
100
AcDbLine
 10
126.7069054172832
 20
122.7427556708498
 30
0.0
 11
126.6770359884831
 21
122.7427887099497
 31
0.0
  0
LINE
  5
FFC
330
1F
100
AcDbEntity
  8
ALL_FEATURES
  6
Continuous
100
AcDbLine
 10
124.0580734086631
 20
123.0227713290297
 30
0.0
 11
124.9762708643832
 21
122.9388078183698
 31
0.0
  0
LINE
  5
FFD
330
1F
100
AcDbEntity
  8
0
  6
Continuous
100
AcDbLine
 10
124.9712348395231
 20
122.8829318944697
 30
0.0
 11
124.1142316961232
 21
122.9612995616097
 31
0.0
  0
LINE
  5
FFE
330
1F
100
AcDbEntity
  8
0
  6
Continuous
100
AcDbLine
 10
127.1194084398831
 20
121.4378659207497
 30
0.0
 11
127.3423408377831
 21
121.4378659207497
 31
0.0
  0
LINE
  5
FFF
330
1F
100
AcDbEntity
  8
0
  6
Continuous
100
AcDbLine
 10
126.9398808807832
 20
121.4378659207497
 30
0.0
 11
126.7165818265831
 21
121.4378659207497
 31
0.0
  0
LINE
  5
1000
330
1F
100
AcDbEntity
  8
0
  6
Continuous
100
AcDbLine
 10
125.5242312744031
 20
122.1342954513297
 30
0.0
 11
125.4428491588431
 21
122.1354052911097
 31
0.0
  0
LINE
  5
1001
330
1F
100
AcDbEntity
  8
ALL_FEATURES
  6
Continuous
100
AcDbLine
 10
125.6138865573031
 20
121.8047581600897
 30
0.0
 11
126.5445912152231
 21
121.7196347039898
 31
0.0
  0
LINE
  5
1002
330
1F
100
AcDbEntity
  8
0
  6
Continuous
100
AcDbLine
 10
125.5484274411431
 20
122.1302771006697
 30
0.0
 11
125.5242312744031
 21
122.1342954513297
 31
0.0
  0
LINE
  5
1003
330
1F
100
AcDbEntity
  8
0
  6
Continuous
100
AcDbLine
 10
126.6751284933632
 20
116.5184871842898
 30
0.0
 11
126.6145264327031
 21
116.4938184183898
 31
0.0
  0
LINE
  5
1004
330
1F
100
AcDbEntity
  8
0
  6
Continuous
100
AcDbLine
 10
126.7921369005432
 20
118.1219465147498
 30
0.0
 11
126.7165818265831
 21
118.1016454483297
 31
0.0
  0
LINE
  5
1005
330
1F
100
AcDbEntity
  8
0
  6
Continuous
100
AcDbLine
 10
126.6145264327031
 20
123.0456929510698
 30
0.0
 11
126.6751284933632
 21
123.0210241851697
 31
0.0
  0
LINE
  5
1006
330
1F
100
AcDbEntity
  8
0
  6
Continuous
100
AcDbLine
 10
126.7921369005432
 20
121.4175648547098
 30
0.0
 11
126.7165818265831
 21
121.4378659207497
 31
0.0
  0
LINE
  5
1007
330
1F
100
AcDbEntity
  8
0
  6
Continuous
100
AcDbLine
 10
126.6768540452432
 20
116.7795487468497
 30
0.0
 11
126.7298956414831
 21
116.8099195381498
 31
0.0
  0
LWPOLYLINE
  5
1008
330
1F
100
AcDbEntity
  8
0
  6
Continuous
100
AcDbPolyline
 90
        4
 70
     0
 43
0.0
 10
126.7515821339431
 20
117.4672018118698
 10
126.7463258546232
 20
117.4644997356098
 10
126.7413463395631
 20
117.4594193256098
 10
126.7380866722031
 20
117.4531412886097
  0
LINE
  5
1009
330
1F
100
AcDbEntity
  8
0
  6
Continuous
100
AcDbLine
 10
125.5484274411431
 20
117.4092342687897
 30
0.0
 11
125.5242312744031
 21
117.4052159181298
 31
0.0
  0
LINE
  5
100A
330
1F
100
AcDbEntity
  8
ALL_FEATURES
  6
Continuous
100
AcDbLine
 10
126.5445912152231
 20
117.8198766650898
 30
0.0
 11
125.6138865573031
 21
117.7347532089898
 31
0.0
  0
LINE
  5
100B
330
1F
100
AcDbEntity
  8
0
  6
Continuous
100
AcDbLine
 10
126.7165818265831
 20
118.1016454483297
 30
0.0
 11
126.9398808807832
 21
118.1016454483297
 31
0.0
  0
LINE
  5
100C
330
1F
100
AcDbEntity
  8
0
  6
Continuous
100
AcDbLine
 10
127.1194084398831
 20
118.1016454483297
 30
0.0
 11
127.3423408377831
 21
118.1016454483297
 31
0.0
  0
LINE
  5
100D
330
1F
100
AcDbEntity
  8
0
  6
Continuous
100
AcDbLine
 10
126.6768540452432
 20
122.7599626222297
 30
0.0
 11
126.7298956414831
 21
122.7295918233297
 31
0.0
  0
LINE
  5
100E
330
1F
100
AcDbEntity
  8
0
  6
Continuous
100
AcDbLine
 10
126.5138232122031
 20
116.7012071488498
 30
0.0
 11
126.5121407804432
 21
116.7000278659697
 31
0.0
  0
LINE
  5
100F
330
1F
100
AcDbEntity
  8
0
  6
Continuous
100
AcDbLine
 10
126.3262519730831
 20
116.6670987440497
 30
0.0
 11
126.3278572017632
 21
116.6682236607098
 31
0.0
  0
LINE
  5
1010
330
1F
100
AcDbEntity
  8
0
  6
Continuous
100
AcDbLine
 10
126.4521209797231
 20
117.7089290508097
 30
0.0
 11
126.3262519730831
 21
117.6361921529897
 31
0.0
  0
LINE
  5
1011
330
1F
100
AcDbEntity
  8
0
  6
Continuous
100
AcDbLine
 10
126.3876997214631
 20
117.5314169516697
 30
0.0
 11
126.5121407804432
 21
117.6032630306897
 31
0.0
  0
LINE
  5
1012
330
1F
100
AcDbEntity
  8
0
  6
Continuous
100
AcDbLine
 10
126.4522982607431
 20
117.7069133153498
 30
0.0
 11
126.3278572017632
 21
117.6350672363297
 31
0.0
  0
LINE
  5
1013
330
1F
100
AcDbEntity
  8
0
  6
Continuous
100
AcDbLine
 10
126.3878740973832
 20
117.5294334276697
 30
0.0
 11
126.5138232122031
 21
117.6020837478098
 31
0.0
  0
LINE
  5
1014
330
1F
100
AcDbEntity
  8
0
  6
Continuous
100
AcDbLine
 10
124.1142316961232
 20
116.5782118074698
 30
0.0
 11
124.9712348395231
 21
116.6565794746097
 31
0.0
  0
LINE
  5
1015
330
1F
100
AcDbEntity
  8
ALL_FEATURES
  6
Continuous
100
AcDbLine
 10
124.9762708643832
 20
116.6007035510897
 30
0.0
 11
124.0580734086631
 21
116.5167400404298
 31
0.0
  0
LINE
  5
1016
330
1F
100
AcDbEntity
  8
0
  6
Continuous
100
AcDbLine
 10
125.5242312744031
 20
117.4052159181298
 30
0.0
 11
125.4428491588431
 21
117.4041060783497
 31
0.0
  0
LINE
  5
1017
330
1F
100
AcDbEntity
  8
0
  6
Continuous
100
AcDbLine
 10
125.4616961769231
 20
117.4091550235898
 30
0.0
 11
125.5484274411431
 21
117.4092342687897
 31
0.0
  0
LINE
  5
1018
330
1F
100
AcDbEntity
  8
0
  6
Continuous
100
AcDbLine
 10
125.5674466239231
 20
117.4695588344498
 30
0.0
 11
126.7515821339431
 21
117.4695588344498
 31
0.0
  0
LINE
  5
1019
330
1F
100
AcDbEntity
  8
0
  6
Continuous
100
AcDbLine
 10
125.4428491588431
 20
117.4041060783497
 30
0.0
 11
125.4237193645231
 21
117.4041060783497
 31
0.0
  0
LINE
  5
101A
330
1F
100
AcDbEntity
  8
ALL_FEATURES
  6
Continuous
100
AcDbLine
 10
125.1371249753432
 20
117.3947556847298
 30
0.0
 11
125.4223249925232
 21
117.3947556847298
 31
0.0
  0
LINE
  5
101B
330
1F
100
AcDbEntity
  8
0
  6
Continuous
100
AcDbLine
 10
126.5138232122031
 20
121.9374276212698
 30
0.0
 11
126.3878740973832
 21
122.0100779414097
 31
0.0
  0
LINE
  5
101C
330
1F
100
AcDbEntity
  8
0
  6
Continuous
100
AcDbLine
 10
126.5121407804432
 20
121.9362483387698
 30
0.0
 11
126.3876997214631
 21
122.0080944177897
 31
0.0
  0
LINE
  5
101D
330
1F
100
AcDbEntity
  8
0
  6
Continuous
100
AcDbLine
 10
126.3278572017632
 20
121.9044441331298
 30
0.0
 11
126.4522982607431
 21
121.8325980541098
 31
0.0
  0
LINE
  5
101E
330
1F
100
AcDbEntity
  8
0
  6
Continuous
100
AcDbLine
 10
126.3262519730831
 20
121.9033192164697
 30
0.0
 11
126.4521209797231
 21
121.8305823186498
 31
0.0
  0
LINE
  5
101F
330
1F
100
AcDbEntity
  8
0
  6
Continuous
100
AcDbLine
 10
126.3262519730831
 20
122.8724126254097
 30
0.0
 11
126.3278572017632
 21
122.8712877087498
 31
0.0
  0
LINE
  5
1020
330
1F
100
AcDbEntity
  8
0
  6
Continuous
100
AcDbLine
 10
126.5138232122031
 20
122.8383042206097
 30
0.0
 11
126.5121407804432
 21
122.8394835031097
 31
0.0
  0
LINE
  5
1021
330
1F
100
AcDbEntity
  8
0
  6
Continuous
100
AcDbLine
 10
126.7069054252632
 20
116.7967556986097
 30
0.0
 11
126.6770359884831
 21
116.7967226595097
 31
0.0
  0
LINE
  5
1022
330
1F
100
AcDbEntity
  8
0
  6
Continuous
100
AcDbLine
 10
126.2989849841632
 20
117.1846579483298
 30
0.0
 11
125.8677846517032
 21
117.1846579483298
 31
0.0
  0
LINE
  5
1023
330
1F
100
AcDbEntity
  8
0
  6
Continuous
100
AcDbLine
 10
125.8677846517032
 20
117.1186329483297
 30
0.0
 11
126.2989849841632
 21
117.1186329483297
 31
0.0
  0
LINE
  5
1024
330
1F
100
AcDbEntity
  8
ALL_FEATURES
  6
Continuous
100
AcDbLine
 10
125.4223249925232
 20
116.9085352123098
 30
0.0
 11
125.1371249753432
 21
116.9085352123098
 31
0.0
  0
LINE
  5
1025
330
1F
100
AcDbEntity
  8
0
  6
Continuous
100
AcDbLine
 10
125.4428491588431
 20
116.8991848186897
 30
0.0
 11
125.4237193645231
 21
116.8991848186897
 31
0.0
  0
LINE
  5
1026
330
1F
100
AcDbEntity
  8
0
  6
Continuous
100
AcDbLine
 10
125.4616961750232
 20
116.8941358730697
 30
0.0
 11
125.5484274411431
 21
116.8940566282497
 31
0.0
  0
LINE
  5
1027
330
1F
100
AcDbEntity
  8
0
  6
Continuous
100
AcDbLine
 10
125.5242312744031
 20
116.8980749789097
 30
0.0
 11
125.4428491588431
 21
116.8991848186897
 31
0.0
  0
LINE
  5
1028
330
1F
100
AcDbEntity
  8
ALL_FEATURES
  6
Continuous
100
AcDbLine
 10
124.0580734086631
 20
117.7865508566097
 30
0.0
 11
124.9762708643832
 21
117.7025873459498
 31
0.0
  0
LINE
  5
1029
330
1F
100
AcDbEntity
  8
0
  6
Continuous
100
AcDbLine
 10
124.9712348395231
 20
117.6467114220498
 30
0.0
 11
124.1142316961232
 21
117.7250790891897
 31
0.0
  0
LINE
  5
102A
330
1F
100
AcDbEntity
  8
ALL_FEATURES
  6
Continuous
100
AcDbLine
 10
125.6138865573031
 20
116.5685376876697
 30
0.0
 11
126.5445912152231
 21
116.4834142315698
 31
0.0
  0
LINE
  5
102B
330
1F
100
AcDbEntity
  8
0
  6
Continuous
100
AcDbLine
 10
126.7165818265831
 20
121.7715817125098
 30
0.0
 11
126.6145264327031
 21
121.7300388908098
 31
0.0
  0
LINE
  5
102C
330
1F
100
AcDbEntity
  8
0
  6
Continuous
100
AcDbLine
 10
125.5484274411431
 20
116.8940566282497
 30
0.0
 11
125.5242312744031
 21
116.8980749789097
 31
0.0
  0
LINE
  5
102D
330
1F
100
AcDbEntity
  8
0
  6
Continuous
100
AcDbLine
 10
126.6145264327031
 20
117.8094724786497
 30
0.0
 11
126.7165818265831
 21
117.7679296565697
 31
0.0
  0
LINE
  5
102E
330
1F
100
AcDbEntity
  8
0
  6
Continuous
100
AcDbLine
 10
126.7380866722031
 20
117.4531412886097
 30
0.0
 11
126.7363303988431
 21
117.4460718799497
 31
0.0
  0
LINE
  5
102F
330
1F
100
AcDbEntity
  8
0
  6
Continuous
100
AcDbLine
 10
126.5138232122031
 20
121.9374276212698
 30
0.0
 11
126.5121407804432
 21
121.9362483387698
 31
0.0
  0
LINE
  5
1030
330
1F
100
AcDbEntity
  8
0
  6
Continuous
100
AcDbLine
 10
126.3262519730831
 20
121.9033192164697
 30
0.0
 11
126.3278572017632
 21
121.9044441331298
 31
0.0
  0
LINE
  5
1031
330
1F
100
AcDbEntity
  8
0
  6
Continuous
100
AcDbLine
 10
126.7325420500232
 20
122.0507275556298
 30
0.0
 11
126.7515821339431
 21
122.0634879077498
 31
0.0
  0
LINE
  5
1032
330
1F
100
AcDbEntity
  8
0
  6
Continuous
100
AcDbLine
 10
126.4521209797231
 20
122.9451495232297
 30
0.0
 11
126.3262519730831
 21
122.8724126254097
 31
0.0
  0
LINE
  5
1033
330
1F
100
AcDbEntity
  8
0
  6
Continuous
100
AcDbLine
 10
126.3876997214631
 20
122.7676374240897
 30
0.0
 11
126.5121407804432
 21
122.8394835031097
 31
0.0
  0
LINE
  5
1034
330
1F
100
AcDbEntity
  8
0
  6
Continuous
100
AcDbLine
 10
126.4522982607431
 20
122.9431337877698
 30
0.0
 11
126.3278572017632
 21
122.8712877087498
 31
0.0
  0
LINE
  5
1035
330
1F
100
AcDbEntity
  8
0
  6
Continuous
100
AcDbLine
 10
126.3878740973832
 20
122.7656539004698
 30
0.0
 11
126.5138232122031
 21
122.8383042206097
 31
0.0
  0
LINE
  5
1036
330
1F
100
AcDbEntity
  8
0
  6
Continuous
100
AcDbLine
 10
126.5138232122031
 20
116.7012071488498
 30
0.0
 11
126.3878740973832
 21
116.7738574689897
 31
0.0
  0
LINE
  5
1037
330
1F
100
AcDbEntity
  8
0
  6
Continuous
100
AcDbLine
 10
126.5121407804432
 20
116.7000278659697
 30
0.0
 11
126.3876997214631
 21
116.7718739453698
 31
0.0
  0
LINE
  5
1038
330
1F
100
AcDbEntity
  8
0
  6
Continuous
100
AcDbLine
 10
126.3278572017632
 20
116.6682236607098
 30
0.0
 11
126.4522982607431
 21
116.5963775816898
 31
0.0
  0
LINE
  5
1039
330
1F
100
AcDbEntity
  8
0
  6
Continuous
100
AcDbLine
 10
126.3262519730831
 20
116.6670987440497
 30
0.0
 11
126.4521209797231
 21
116.5943618462298
 31
0.0
  0
LINE
  5
103A
330
1F
100
AcDbEntity
  8
0
  6
Continuous
100
AcDbLine
 10
126.7515821339431
 20
117.4760234613297
 30
0.0
 11
126.7325420500232
 21
117.4887838134497
 31
0.0
  0
LINE
  5
103B
330
1F
100
AcDbEntity
  8
0
  6
Continuous
100
AcDbLine
 10
126.3262519730831
 20
117.6361921529897
 30
0.0
 11
126.3278572017632
 21
117.6350672363297
 31
0.0
  0
LINE
  5
103C
330
1F
100
AcDbEntity
  8
0
  6
Continuous
100
AcDbLine
 10
126.5138232122031
 20
117.6020837478098
 30
0.0
 11
126.5121407804432
 21
117.6032630306897
 31
0.0
  0
LINE
  5
103D
330
1F
100
AcDbEntity
  8
0
  6
Continuous
100
AcDbLine
 10
126.4521209797231
 20
122.9451495232297
 30
0.0
 11
126.4522982607431
 21
122.9431337877698
 31
0.0
  0
LINE
  5
103E
330
1F
100
AcDbEntity
  8
0
  6
Continuous
100
AcDbLine
 10
126.3878740973832
 20
122.7656539004698
 30
0.0
 11
126.3876997214631
 21
122.7676374240897
 31
0.0
  0
LWPOLYLINE
  5
103F
330
1F
100
AcDbEntity
  8
0
  6
Continuous
100
AcDbPolyline
 90
        7
 70
     0
 43
0.0
 10
126.7357849578631
 20
122.1009130034697
 10
126.7357938118631
 20
122.0999670626297
 10
126.7364617017632
 20
122.0925993064698
 10
126.7383345568431
 20
122.0857278124497
 10
126.7415655326832
 20
122.0797857539698
 10
126.7463476844831
 20
122.0749812748898
 10
126.7521370156431
 20
122.0719998347898
  0
LINE
  5
1040
330
1F
100
AcDbEntity
  8
0
  6
Continuous
100
AcDbLine
 10
126.7915254623031
 20
121.4181733167897
 30
0.0
 11
126.7917433166832
 21
119.7697557063898
 31
0.0
  0
LINE
  5
1041
330
1F
100
AcDbEntity
  8
0
  6
Continuous
100
AcDbLine
 10
127.3483653980631
 20
119.7697556847298
 30
0.0
 11
127.3483447218831
 21
121.4388185066497
 31
0.0
  0
LINE
  5
1042
330
1F
100
AcDbEntity
  8
0
  6
Continuous
100
AcDbLine
 10
127.3483653980631
 20
119.7697556847298
 30
0.0
 11
127.3483447218831
 21
118.1006928628097
 31
0.0
  0
LINE
  5
1043
330
1F
100
AcDbEntity
  8
0
  6
Continuous
100
AcDbLine
 10
126.7515821339431
 20
122.9198361568698
 30
0.0
 11
126.7515821339431
 21
122.0634879077498
 31
0.0
  0
LINE
  5
1044
330
1F
100
AcDbEntity
  8
0
  6
Continuous
100
AcDbLine
 10
126.7515821339431
 20
117.4760234613297
 30
0.0
 11
126.7515821339431
 21
116.6196752122097
 31
0.0
  0
LINE
  5
1045
330
1F
100
AcDbEntity
  8
0
  6
Continuous
100
AcDbLine
 10
126.7357809044031
 20
122.7285219500498
 30
0.0
 11
126.7357809044031
 21
122.1009128529898
 31
0.0
  0
LINE
  5
1046
330
1F
100
AcDbEntity
  8
0
  6
Continuous
100
AcDbLine
 10
126.7357809044031
 20
117.4385999217097
 30
0.0
 11
126.7357809044031
 21
116.8109894194098
 31
0.0
  0
LINE
  5
1047
330
1F
100
AcDbEntity
  8
0
  6
Continuous
100
AcDbLine
 10
126.7165818265831
 20
117.5738287630698
 30
0.0
 11
126.7165818265831
 21
118.1016454483297
 31
0.0
  0
LINE
  5
1048
330
1F
100
AcDbEntity
  8
0
  6
Continuous
100
AcDbLine
 10
126.7165818265831
 20
121.9656826063897
 30
0.0
 11
126.7165818265831
 21
121.4378659207497
 31
0.0
  0
LINE
  5
1049
330
1F
100
AcDbEntity
  8
0
  6
Continuous
100
AcDbLine
 10
126.6749629418031
 20
116.2332710653698
 30
0.0
 11
126.6749629543432
 21
116.3444968096298
 31
0.0
  0
LINE
  5
104A
330
1F
100
AcDbEntity
  8
0
  6
Continuous
100
AcDbLine
 10
126.6749629418031
 20
123.3062403040897
 30
0.0
 11
126.6749629543432
 21
123.1950145594497
 31
0.0
  0
LINE
  5
104B
330
1F
100
AcDbEntity
  8
0
  6
Continuous
100
AcDbLine
 10
126.7917433166832
 20
119.7697556626897
 30
0.0
 11
126.7915254623031
 21
118.1213380522897
 31
0.0
  0
LINE
  5
104C
330
1F
100
AcDbEntity
  8
0
  6
Continuous
100
AcDbLine
 10
126.7363303988431
 20
117.4460718799497
 30
0.0
 11
126.7357812015631
 21
117.4387693667497
 31
0.0
  0
LINE
  5
104D
330
1F
100
AcDbEntity
  8
0
  6
Continuous
100
AcDbLine
 10
126.4521209797231
 20
116.5943618462298
 30
0.0
 11
126.4522982607431
 21
116.5963775816898
 31
0.0
  0
LINE
  5
104E
330
1F
100
AcDbEntity
  8
0
  6
Continuous
100
AcDbLine
 10
126.3878740973832
 20
116.7738574689897
 30
0.0
 11
126.3876997214631
 21
116.7718739453698
 31
0.0
  0
LINE
  5
104F
330
1F
100
AcDbEntity
  8
0
  6
Continuous
100
AcDbLine
 10
126.4521209797231
 20
117.7089290508097
 30
0.0
 11
126.4522982607431
 21
117.7069133153498
 31
0.0
  0
LINE
  5
1050
330
1F
100
AcDbEntity
  8
0
  6
Continuous
100
AcDbLine
 10
126.3878740973832
 20
117.5294334276697
 30
0.0
 11
126.3876997214631
 21
117.5314169516697
 31
0.0
  0
LINE
  5
1051
330
1F
100
AcDbEntity
  8
0
  6
Continuous
100
AcDbLine
 10
126.4521209797231
 20
121.8305823186498
 30
0.0
 11
126.4522982607431
 21
121.8325980541098
 31
0.0
  0
LINE
  5
1052
330
1F
100
AcDbEntity
  8
0
  6
Continuous
100
AcDbLine
 10
126.3878740973832
 20
122.0100779414097
 30
0.0
 11
126.3876997214631
 21
122.0080944177897
 31
0.0
  0
LINE
  5
1053
330
1F
100
AcDbEntity
  8
0
  6
Continuous
100
AcDbLine
 10
125.5484274411431
 20
116.8940566282497
 30
0.0
 11
125.5484274411431
 21
117.4092342687897
 31
0.0
  0
LINE
  5
1054
330
1F
100
AcDbEntity
  8
0
  6
Continuous
100
AcDbLine
 10
125.5484274411431
 20
122.1302771006697
 30
0.0
 11
125.5484274411431
 21
122.6454547412097
 31
0.0
  0
LINE
  5
1055
330
1F
100
AcDbEntity
  8
0
  6
Continuous
100
AcDbLine
 10
125.5242312744031
 20
122.6414363905497
 30
0.0
 11
125.5242312744031
 21
122.1342954513297
 31
0.0
  0
LINE
  5
1056
330
1F
100
AcDbEntity
  8
0
  6
Continuous
100
AcDbLine
 10
125.5242312744031
 20
117.4052159181298
 30
0.0
 11
125.5242312744031
 21
116.8980749789097
 31
0.0
  0
LINE
  5
1057
330
1F
100
AcDbEntity
  8
0
  6
Continuous
100
AcDbLine
 10
125.4428491588431
 20
122.6403265507697
 30
0.0
 11
125.4428491588431
 21
122.1354052911097
 31
0.0
  0
LINE
  5
1058
330
1F
100
AcDbEntity
  8
0
  6
Continuous
100
AcDbLine
 10
125.4428491588431
 20
117.4041060783497
 30
0.0
 11
125.4428491588431
 21
116.8991848186897
 31
0.0
  0
LINE
  5
1059
330
1F
100
AcDbEntity
  8
ALL_FEATURES
  6
Continuous
100
AcDbLine
 10
125.4049180680431
 20
116.9085352123098
 30
0.0
 11
125.4049180680431
 21
117.3947556847298
 31
0.0
  0
LINE
  5
105A
330
1F
100
AcDbEntity
  8
ALL_FEATURES
  6
Continuous
100
AcDbLine
 10
125.4049180680431
 20
122.1447556847298
 30
0.0
 11
125.4049180680431
 21
122.6309761571498
 31
0.0
  0
LINE
  5
105B
330
1F
100
AcDbEntity
  8
ALL_FEATURES
  6
Continuous
100
AcDbLine
 10
125.1576958413831
 20
116.9085352123098
 30
0.0
 11
125.1576958413831
 21
117.3947556847298
 31
0.0
  0
LINE
  5
105C
330
1F
100
AcDbEntity
  8
ALL_FEATURES
  6
Continuous
100
AcDbLine
 10
125.1576958413831
 20
122.1447556847298
 30
0.0
 11
125.1576958413831
 21
122.6309761571498
 31
0.0
  0
LINE
  5
105D
330
1F
100
AcDbEntity
  8
ALL_FEATURES
  6
Continuous
100
AcDbLine
 10
125.1371249753432
 20
116.9085352123098
 30
0.0
 11
125.1371249753432
 21
117.3947556847298
 31
0.0
  0
LINE
  5
105E
330
1F
100
AcDbEntity
  8
ALL_FEATURES
  6
Continuous
100
AcDbLine
 10
125.1371249753432
 20
122.1447556847298
 30
0.0
 11
125.1371249753432
 21
122.6309761571498
 31
0.0
  0
LINE
  5
105F
330
1F
100
AcDbEntity
  8
0
  6
Continuous
100
AcDbLine
 10
124.0734241881031
 20
122.9240533885097
 30
0.0
 11
124.0734241881031
 21
121.8516784533697
 31
0.0
  0
LINE
  5
1060
330
1F
100
AcDbEntity
  8
0
  6
Continuous
100
AcDbLine
 10
124.0734241881031
 20
117.6878329160897
 30
0.0
 11
124.0734241881031
 21
116.6154579805698
 31
0.0
  0
LINE
  5
1061
330
1F
100
AcDbEntity
  8
ALL_FEATURES
  6
Continuous
100
AcDbLine
 10
124.0173218256231
 20
116.5539351688898
 30
0.0
 11
124.0173218256231
 21
117.7493557281498
 31
0.0
  0
LINE
  5
1062
330
1F
100
AcDbEntity
  8
ALL_FEATURES
  6
Continuous
100
AcDbLine
 10
124.0173218256231
 20
121.7901556413098
 30
0.0
 11
124.0173218256231
 21
122.9855762005698
 31
0.0
  0
ARC
  5
1063
330
1F
100
AcDbEntity
  8
0
  6
Continuous
100
AcDbCircle
 10
146.2261956135231
 20
123.1913372815897
 30
0.0
 40
19.55122725406
100
AcDbArc
 50
179.9892235660004
 51
180.3567516580991
  0
ARC
  5
1064
330
1F
100
AcDbEntity
  8
0
  6
Continuous
100
AcDbCircle
 10
144.4285255897031
 20
121.4232031738698
 30
0.0
 40
1.087755657059999
100
AcDbArc
 50
195.6058187503002
 51
196.4022611670004
  0
ARC
  5
1065
330
1F
100
AcDbEntity
  8
0
  6
Continuous
100
AcDbCircle
 10
144.3976165044631
 20
121.4144290506297
 30
0.0
 40
1.055626791579999
100
AcDbArc
 50
195.6939894862995
 51
196.4206607489997
  0
ARC
  5
1066
330
1F
100
AcDbEntity
  8
0
  6
Continuous
100
AcDbCircle
 10
144.3618604181431
 20
121.4043597912498
 30
0.0
 40
1.018479958839999
100
AcDbArc
 50
195.5062310894994
 51
195.6927587770005
  0
ARC
  5
1067
330
1F
100
AcDbEntity
  8
0
  6
Continuous
100
AcDbCircle
 10
144.3169519619031
 20
121.3920284093497
 30
0.0
 40
0.97190860132
100
AcDbArc
 50
194.7485494436006
 51
195.6052150095999
  0
ARC
  5
1068
330
1F
100
AcDbEntity
  8
0
  6
Continuous
100
AcDbCircle
 10
144.3108999967831
 20
121.3903214588498
 30
0.0
 40
0.96562137858
100
AcDbArc
 50
194.6580644651998
 51
195.5119607817004
  0
ARC
  5
1069
330
1F
100
AcDbEntity
  8
0
  6
Continuous
100
AcDbCircle
 10
144.2086936285232
 20
121.3637658466497
 30
0.0
 40
0.8600213465999999
100
AcDbArc
 50
193.3329272032004
 51
194.6695233782
  0
ARC
  5
106A
330
1F
100
AcDbEntity
  8
0
  6
Continuous
100
AcDbCircle
 10
144.1877858085032
 20
121.3583639733698
 30
0.0
 40
0.83842802216
100
AcDbArc
 50
192.8336879423006
 51
194.7709311641993
  0
ARC
  5
106B
330
1F
100
AcDbEntity
  8
0
  6
Continuous
100
AcDbCircle
 10
144.1269728375831
 20
121.3441026573497
 30
0.0
 40
0.7759665766600001
100
AcDbArc
 50
192.5105113316995
 51
192.8043620317994
  0
ARC
  5
106C
330
1F
100
AcDbEntity
  8
0
  6
Continuous
100
AcDbCircle
 10
144.1109235193431
 20
121.3404888372097
 30
0.0
 40
0.75951666888
100
AcDbArc
 50
192.5066314395
 51
192.8063778415994
  0
ARC
  5
106D
330
1F
100
AcDbEntity
  8
0
  6
Continuous
100
AcDbCircle
 10
144.0893096623631
 20
121.3352680715497
 30
0.0
 40
0.73728330512
100
AcDbArc
 50
192.7830616276996
 51
193.317489986499
  0
ARC
  5
106E
330
1F
100
AcDbEntity
  8
0
  6
Continuous
100
AcDbCircle
 10
144.0341962867432
 20
121.3235357592698
 30
0.0
 40
0.6809377110999999
100
AcDbArc
 50
192.1007041749999
 51
192.5120741993005
  0
ARC
  5
106F
330
1F
100
AcDbEntity
  8
0
  6
Continuous
100
AcDbCircle
 10
144.0164922953631
 20
121.3195379384897
 30
0.0
 40
0.6627892363800001
100
AcDbArc
 50
192.0836142276994
 51
192.5062488468002
  0
ARC
  5
1070
330
1F
100
AcDbEntity
  8
0
  6
Continuous
100
AcDbCircle
 10
144.0119781701031
 20
121.3185592306297
 30
0.0
 40
0.65817024898
100
AcDbArc
 50
191.7016230011006
 51
192.0825660632
  0
ARC
  5
1071
330
1F
100
AcDbEntity
  8
0
  6
Continuous
100
AcDbCircle
 10
142.6801266246631
 20
121.2631834030698
 30
0.0
 40
0.6531835865
100
AcDbArc
 50
17.84689847590075
 51
19.12859942840012
  0
ARC
  5
1072
330
1F
100
AcDbEntity
  8
0
  6
Continuous
100
AcDbCircle
 10
142.6942020762232
 20
121.2676305784097
 30
0.0
 40
0.6384220684999999
100
AcDbArc
 50
17.60388588809913
 51
17.85413196830049
  0
ARC
  5
1073
330
1F
100
AcDbEntity
  8
0
  6
Continuous
100
AcDbCircle
 10
143.9873263810831
 20
121.3134353144297
 30
0.0
 40
0.6329918639400001
100
AcDbArc
 50
191.7000233273992
 51
192.0961191868
  0
ARC
  5
1074
330
1F
100
AcDbEntity
  8
0
  6
Continuous
100
AcDbCircle
 10
143.9786275727032
 20
121.3116305105098
 30
0.0
 40
0.624107801
100
AcDbArc
 50
191.2656227242005
 51
191.6997209581001
  0
ARC
  5
1075
330
1F
100
AcDbEntity
  8
0
  6
Continuous
100
AcDbCircle
 10
143.9760363375031
 20
121.3111409899498
 30
0.0
 40
0.62147086244
100
AcDbArc
 50
191.2680316913005
 51
191.7039717489991
  0
ARC
  5
1076
330
1F
100
AcDbEntity
  8
0
  6
Continuous
100
AcDbCircle
 10
142.7182210740431
 20
121.2756286534897
 30
0.0
 40
0.61310815722
100
AcDbArc
 50
17.57030279530034
 51
17.83088171520043
  0
ARC
  5
1077
330
1F
100
AcDbEntity
  8
0
  6
Continuous
100
AcDbCircle
 10
142.7387514100431
 20
121.2816740658897
 30
0.0
 40
0.59171174346
100
AcDbArc
 50
16.62132798099978
 51
17.61235121669991
  0
ARC
  5
1078
330
1F
100
AcDbEntity
  8
0
  6
Continuous
100
AcDbCircle
 10
142.7424888989032
 20
121.2832462463497
 30
0.0
 40
0.5876729294200001
100
AcDbArc
 50
16.57868124110041
 51
17.57650917620022
  0
ARC
  5
1079
330
1F
100
AcDbEntity
  8
0
  6
Continuous
100
AcDbCircle
 10
142.7802889584832
 20
121.2945209649097
 30
0.0
 40
0.54822722816
100
AcDbArc
 50
15.90113218460068
 51
16.57654322759971
  0
ARC
  5
107A
330
1F
100
AcDbEntity
  8
0
  6
Continuous
100
AcDbCircle
 10
142.7868512571431
 20
121.2960881529298
 30
0.0
 40
0.5414986167999999
100
AcDbArc
 50
15.93189394459945
 51
16.61571089349947
  0
ARC
  5
107B
330
1F
100
AcDbEntity
  8
0
  6
Continuous
100
AcDbCircle
 10
142.8040729586032
 20
121.3013158649897
 30
0.0
 40
0.5234916472400001
100
AcDbArc
 50
15.4634016989998
 51
15.89909629390071
  0
ARC
  5
107C
330
1F
100
AcDbEntity
  8
0
  6
Continuous
100
AcDbCircle
 10
142.8131994657232
 20
121.3036312190497
 30
0.0
 40
0.51409194786
100
AcDbArc
 50
15.48589425029936
 51
15.92956600880066
  0
ARC
  5
107D
330
1F
100
AcDbEntity
  8
0
  6
Continuous
100
AcDbCircle
 10
142.8282048415031
 20
121.3079616922098
 30
0.0
 40
0.4984613873399999
100
AcDbArc
 50
14.59386247509975
 51
15.4667184952993
  0
ARC
  5
107E
330
1F
100
AcDbEntity
  8
0
  6
Continuous
100
AcDbCircle
 10
142.8395963097431
 20
121.3109113540497
 30
0.0
 40
0.48670960614
100
AcDbArc
 50
14.59524729699978
 51
15.48967882699953
  0
ARC
  5
107F
330
1F
100
AcDbEntity
  8
0
  6
Continuous
100
AcDbCircle
 10
142.5594613995831
 20
121.2181440132698
 30
0.0
 40
0.7820052881400001
100
AcDbArc
 50
22.05025849740035
 51
23.30693380420001
  0
ARC
  5
1080
330
1F
100
AcDbEntity
  8
0
  6
Continuous
100
AcDbCircle
 10
142.5604762982631
 20
121.2186070603698
 30
0.0
 40
0.7808900010600001
100
AcDbArc
 50
22.04672454800036
 51
23.305194067299
  0
ARC
  5
1081
330
1F
100
AcDbEntity
  8
0
  6
Continuous
100
AcDbCircle
 10
142.5738529590831
 20
121.2240709097498
 30
0.0
 40
0.766440544
100
AcDbArc
 50
21.80209583390058
 51
22.04349331009919
  0
ARC
  5
1082
330
1F
100
AcDbEntity
  8
0
  6
Continuous
100
AcDbCircle
 10
142.5795623393832
 20
121.2263551266098
 30
0.0
 40
0.7602920220199999
100
AcDbArc
 50
21.80206885459908
 51
22.04541879069922
  0
ARC
  5
1083
330
1F
100
AcDbEntity
  8
0
  6
Continuous
100
AcDbCircle
 10
142.5943108898831
 20
121.2321942700698
 30
0.0
 40
0.74442889504
100
AcDbArc
 50
20.5926719947993
 51
21.80639034139991
  0
ARC
  5
1084
330
1F
100
AcDbEntity
  8
0
  6
Continuous
100
AcDbCircle
 10
142.5976146703031
 20
121.2335186323897
 30
0.0
 40
0.7408703971999998
100
AcDbArc
 50
20.5866607282009
 51
21.80620963259972
  0
ARC
  5
1085
330
1F
100
AcDbEntity
  8
0
  6
Continuous
100
AcDbCircle
 10
142.6275999151232
 20
121.2447602548497
 30
0.0
 40
0.70884715728
100
AcDbArc
 50
19.14423749379991
 51
20.58825911859937
  0
ARC
  5
1086
330
1F
100
AcDbEntity
  8
0
  6
Continuous
100
AcDbCircle
 10
142.6351078654432
 20
121.2475509018898
 30
0.0
 40
0.7008373869399999
100
AcDbArc
 50
19.1300041758995
 51
20.59052827360047
  0
ARC
  5
1087
330
1F
100
AcDbEntity
  8
0
  6
Continuous
100
AcDbCircle
 10
142.6734168875231
 20
121.2608721283097
 30
0.0
 40
0.66027835332
100
AcDbArc
 50
17.85936756940023
 51
19.12729324219993
  0
ARC
  5
1088
330
1F
100
AcDbEntity
  8
0
  6
Continuous
100
AcDbCircle
 10
139.1990876875031
 20
119.7703702560698
 30
0.0
 40
4.4414752032
100
AcDbArc
 50
328.4508989508997
 51
336.6774836347001
  0
ARC
  5
1089
330
1F
100
AcDbEntity
  8
0
  6
Continuous
100
AcDbCircle
 10
139.1853522192831
 20
119.7742851205698
 30
0.0
 40
4.411112651059999
100
AcDbArc
 50
352.8360268478002
 51
353.4133270408993
  0
ARC
  5
108A
330
1F
100
AcDbEntity
  8
0
  6
Continuous
100
AcDbCircle
 10
139.1877412770031
 20
119.7728899490497
 30
0.0
 40
4.40852555406
100
AcDbArc
 50
346.8489689716006
 51
348.1044049391995
  0
ARC
  5
108B
330
1F
100
AcDbEntity
  8
0
  6
Continuous
100
AcDbCircle
 10
139.1882457365031
 20
119.7739223721898
 30
0.0
 40
4.408198339859999
100
AcDbArc
 50
352.8360147284005
 51
353.4136968224994
  0
ARC
  5
108C
330
1F
100
AcDbEntity
  8
0
  6
Continuous
100
AcDbCircle
 10
139.1970616909031
 20
119.7729711656897
 30
0.0
 40
4.399329749759999
100
AcDbArc
 50
353.412833888799
 51
355.0527020724998
  0
ARC
  5
108D
330
1F
100
AcDbEntity
  8
0
  6
Continuous
100
AcDbCircle
 10
139.1977922887831
 20
119.7728515390298
 30
0.0
 40
4.398591968739999
100
AcDbArc
 50
353.4132901480993
 51
355.0534338910006
  0
ARC
  5
108E
330
1F
100
AcDbEntity
  8
0
  6
Continuous
100
AcDbCircle
 10
139.2084095685831
 20
119.7719001877498
 30
0.0
 40
4.387932201139999
100
AcDbArc
 50
355.0538558528994
 51
355.6041704820998
  0
ARC
  5
108F
330
1F
100
AcDbEntity
  8
0
  6
Continuous
100
AcDbCircle
 10
139.2158620392831
 20
119.7713366876498
 30
0.0
 40
4.3804584626
100
AcDbArc
 50
355.6040480170003
 51
356.6242809305003
  0
ARC
  5
1090
330
1F
100
AcDbEntity
  8
0
  6
Continuous
100
AcDbCircle
 10
139.2425895304231
 20
119.7699680218897
 30
0.0
 40
4.353696760439999
100
AcDbArc
 50
356.6215500075007
 51
359.9972055886995
  0
ARC
  5
1091
330
1F
100
AcDbEntity
  8
0
  6
Continuous
100
AcDbCircle
 10
139.1251611704231
 20
120.3448919448498
 30
0.0
 40
4.324702114059999
100
AcDbArc
 50
11.2649503652006
 51
12.37373926799959
  0
ARC
  5
1092
330
1F
100
AcDbEntity
  8
0
  6
Continuous
100
AcDbCircle
 10
139.1253506247431
 20
120.3449315902498
 30
0.0
 40
4.324508564859999
100
AcDbArc
 50
11.26492555299926
 51
12.37376408259991
  0
ARC
  5
1093
330
1F
100
AcDbEntity
  8
0
  6
Continuous
100
AcDbCircle
 10
139.1353772363431
 20
120.3471259124098
 30
0.0
 40
4.314244649339999
100
AcDbArc
 50
12.37383359829959
 51
13.48160849330005
  0
ARC
  5
1094
330
1F
100
AcDbEntity
  8
0
  6
Continuous
100
AcDbCircle
 10
139.1363181684031
 20
120.3473418941497
 30
0.0
 40
4.313279292399999
100
AcDbArc
 50
12.37370962560053
 51
13.48173245989957
  0
ARC
  5
1095
330
1F
100
AcDbEntity
  8
0
  6
Continuous
100
AcDbCircle
 10
139.1482481167831
 20
120.3502023228698
 30
0.0
 40
4.301011214699999
100
AcDbArc
 50
13.48172825999995
 51
14.58900679999967
  0
ARC
  5
1096
330
1F
100
AcDbEntity
  8
0
  6
Continuous
100
AcDbCircle
 10
139.1517907013631
 20
120.3510879117298
 30
0.0
 40
4.2973597871
100
AcDbArc
 50
13.48125781889955
 51
14.58947723280064
  0
ARC
  5
1097
330
1F
100
AcDbEntity
  8
0
  6
Continuous
100
AcDbCircle
 10
139.1487841060232
 20
119.8008720029698
 30
0.0
 40
4.50032675928
100
AcDbArc
 50
320.2600358543
 51
322.1503351972007
  0
ARC
  5
1098
330
1F
100
AcDbEntity
  8
0
  6
Continuous
100
AcDbCircle
 10
139.1498077941031
 20
119.8000876939897
 30
0.0
 40
4.499037185579999
100
AcDbArc
 50
322.1502229027998
 51
324.3609229060996
  0
ARC
  5
1099
330
1F
100
AcDbEntity
  8
0
  6
Continuous
100
AcDbCircle
 10
139.1538293097831
 20
119.7972126941697
 30
0.0
 40
4.494093688439999
100
AcDbArc
 50
324.3608371829002
 51
326.4411200934
  0
ARC
  5
109A
330
1F
100
AcDbEntity
  8
0
  6
Continuous
100
AcDbCircle
 10
139.1605858538031
 20
119.7927376902897
 30
0.0
 40
4.485989583479999
100
AcDbArc
 50
326.4410450905003
 51
328.4647430571998
  0
ARC
  5
109B
330
1F
100
AcDbEntity
  8
0
  6
Continuous
100
AcDbCircle
 10
139.1598645773232
 20
119.7910050251898
 30
0.0
 40
4.485498415239999
100
AcDbArc
 50
312.0791073744998
 51
320.2664667921993
  0
ARC
  5
109C
330
1F
100
AcDbEntity
  8
0
  6
Continuous
100
AcDbCircle
 10
139.1381118022231
 20
119.7852156784498
 30
0.0
 40
4.459657822059999
100
AcDbArc
 50
342.4949777169995
 51
346.8398364345004
  0
ARC
  5
109D
330
1F
100
AcDbEntity
  8
0
  6
Continuous
100
AcDbCircle
 10
139.1676598114431
 20
119.7770318912898
 30
0.0
 40
4.4290227571
100
AcDbArc
 50
346.8558976560992
 51
348.1055226041003
  0
ARC
  5
109E
330
1F
100
AcDbEntity
  8
0
  6
Continuous
100
AcDbCircle
 10
139.1682110603431
 20
119.7769169295098
 30
0.0
 40
4.428459649159999
100
AcDbArc
 50
348.1055080593003
 51
349.0418824917001
  0
ARC
  5
109F
330
1F
100
AcDbEntity
  8
0
  6
Continuous
100
AcDbCircle
 10
139.1699050631031
 20
119.7763710500098
 30
0.0
 40
4.426700446759999
100
AcDbArc
 50
350.3602883941007
 51
351.2290758563998
  0
ARC
  5
10A0
330
1F
100
AcDbEntity
  8
0
  6
Continuous
100
AcDbCircle
 10
139.1702282021831
 20
119.7765304869897
 30
0.0
 40
4.42640582782
100
AcDbArc
 50
349.0418301303005
 51
350.3575529047004
  0
ARC
  5
10A1
330
1F
100
AcDbEntity
  8
0
  6
Continuous
100
AcDbCircle
 10
139.1714343411831
 20
119.7760792753698
 30
0.0
 40
4.425130490059999
100
AcDbArc
 50
342.4780191191
 51
346.8567952924002
  0
ARC
  5
10A2
330
1F
100
AcDbEntity
  8
0
  6
Continuous
100
AcDbCircle
 10
139.1735125323031
 20
119.7759697236497
 30
0.0
 40
4.423073970719999
100
AcDbArc
 50
350.3575881189994
 51
351.2270880984998
  0
ARC
  5
10A3
330
1F
100
AcDbEntity
  8
0
  6
Continuous
100
AcDbCircle
 10
139.1751967538632
 20
119.7755909772698
 30
0.0
 40
4.421351689119999
100
AcDbArc
 50
351.2286099936006
 51
352.8356487042995
  0
ARC
  5
10A4
330
1F
100
AcDbEntity
  8
0
  6
Continuous
100
AcDbCircle
 10
139.1802694878631
 20
119.7749476589298
 30
0.0
 40
4.41624018334
100
AcDbArc
 50
351.2268227253991
 51
352.8357219336999
  0
ARC
  5
10A5
330
1F
100
AcDbEntity
  8
0
  6
Continuous
100
AcDbCircle
 10
133.6280663701832
 20
125.9287688802898
 30
0.0
 40
12.74816363824
100
AcDbArc
 50
311.3428199984002
 51
312.0456389874996
  0
ARC
  5
10A6
330
1F
100
AcDbEntity
  8
0
  6
Continuous
100
AcDbCircle
 10
133.6280682705631
 20
125.9287668108098
 30
0.0
 40
12.74816094176
100
AcDbArc
 50
311.3426545495998
 51
311.3428199984002
  0
ARC
  5
10A7
330
1F
100
AcDbEntity
  8
0
  6
Continuous
100
AcDbCircle
 10
134.0380049893831
 20
124.5725281839697
 30
0.0
 40
11.51340228393999
100
AcDbArc
 50
258.1681514944006
 51
286.8169099095003
  0
ARC
  5
10A8
330
1F
100
AcDbEntity
  8
0
  6
Continuous
100
AcDbCircle
 10
134.0405208272631
 20
124.5098076058298
 30
0.0
 40
11.45262491674
100
AcDbArc
 50
237.2921226024996
 51
258.0914941161005
  0
ARC
  5
10A9
330
1F
100
AcDbEntity
  8
0
  6
Continuous
100
AcDbCircle
 10
127.0115218183231
 20
128.2255750992497
 30
0.0
 40
6.8020765624
100
AcDbArc
 50
269.3158788492996
 51
269.6041999030995
  0
ARC
  5
10AA
330
1F
100
AcDbEntity
  8
0
  6
Continuous
100
AcDbCircle
 10
127.0087739786631
 20
127.7191984023497
 30
0.0
 40
6.295693281239999
100
AcDbArc
 50
269.5973719823005
 51
270.8332440890998
  0
ARC
  5
10AB
330
1F
100
AcDbEntity
  8
0
  6
Continuous
100
AcDbCircle
 10
126.9057061663631
 20
120.1728950718498
 30
0.0
 40
2.057516850639999
100
AcDbArc
 50
270.3094121651998
 51
270.6837337744992
  0
ARC
  5
10AC
330
1F
100
AcDbEntity
  8
ALL_FEATURES
  6
Continuous
100
AcDbCircle
 10
127.0846242803231
 20
122.3878659207498
 30
0.0
 40
1.681948123739999
100
AcDbArc
 50
164.0533452671994
 51
171.6893074074996
  0
ARC
  5
10AD
330
1F
100
AcDbEntity
  8
ALL_FEATURES
  6
Continuous
100
AcDbCircle
 10
127.0846242803231
 20
122.3878659207498
 30
0.0
 40
1.681948123739999
100
AcDbArc
 50
188.3106925925004
 51
195.9466547328005
  0
ARC
  5
10AE
330
1F
100
AcDbEntity
  8
0
  6
Continuous
100
AcDbCircle
 10
127.0846242803231
 20
122.3878659207498
 30
0.0
 40
1.679982591599999
100
AcDbArc
 50
171.3570934770995
 51
171.6795152420006
  0
ARC
  5
10AF
330
1F
100
AcDbEntity
  8
0
  6
Continuous
100
AcDbCircle
 10
127.0846242803231
 20
122.3878659207498
 30
0.0
 40
1.679982591599999
100
AcDbArc
 50
188.3204847579993
 51
188.6429065229004
  0
CIRCLE
  5
10B0
330
1F
100
AcDbEntity
  8
AXIS
  6
Continuous
100
AcDbCircle
 10
126.0833848177431
 20
122.3878659207498
 30
0.0
 40
0.3487696851799999
  0
CIRCLE
  5
10B1
330
1F
100
AcDbEntity
  8
0
  6
Continuous
100
AcDbCircle
 10
126.0833848177431
 20
122.3878659207498
 30
0.0
 40
0.2657625
  0
ARC
  5
10B2
330
1F
100
AcDbEntity
  8
0
  6
Continuous
100
AcDbCircle
 10
126.0833848177431
 20
122.3878659207498
 30
0.0
 40
0.2181129453
100
AcDbArc
 50
171.2945370141007
 51
188.7054629858993
  0
ARC
  5
10B3
330
1F
100
AcDbEntity
  8
0
  6
Continuous
100
AcDbCircle
 10
126.0833848177431
 20
122.3878659207498
 30
0.0
 40
0.2181129453
100
AcDbArc
 50
351.2945370141005
 51
8.705462985899298
  0
ARC
  5
10B4
330
1F
100
AcDbEntity
  8
0
  6
Continuous
100
AcDbCircle
 10
126.4199989911031
 20
121.9203462359497
 30
0.0
 40
0.09350393696
100
AcDbArc
 50
290.2081805003997
 51
9.791819499599293
  0
ARC
  5
10B5
330
1F
100
AcDbEntity
  8
0
  6
Continuous
100
AcDbCircle
 10
126.4199989911031
 20
121.9203462359497
 30
0.0
 40
0.09350393696
100
AcDbArc
 50
110.2081805003997
 51
189.7918194995993
  0
ARC
  5
10B6
330
1F
100
AcDbEntity
  8
0
  6
Continuous
100
AcDbCircle
 10
126.4199989911031
 20
122.8553856059297
 30
0.0
 40
0.09350393696
100
AcDbArc
 50
350.2081805004007
 51
69.79181949960031
  0
ARC
  5
10B7
330
1F
100
AcDbEntity
  8
0
  6
Continuous
100
AcDbCircle
 10
126.4199989911031
 20
122.8553856059297
 30
0.0
 40
0.09350393696
100
AcDbArc
 50
170.2081805004007
 51
249.7918194996003
  0
ARC
  5
10B8
330
1F
100
AcDbEntity
  8
0
  6
Continuous
100
AcDbCircle
 10
124.9639461419831
 20
122.8032250841498
 30
0.0
 40
0.08003936998
100
AcDbArc
 50
15.89367932510048
 51
84.77518424899976
  0
ARC
  5
10B9
330
1F
100
AcDbEntity
  8
0
  6
Continuous
100
AcDbCircle
 10
124.9639461419831
 20
121.9725067577298
 30
0.0
 40
0.08003936998
100
AcDbArc
 50
275.2248157510002
 51
344.1063206748995
  0
ARC
  5
10BA
330
1F
100
AcDbEntity
  8
0
  6
Continuous
100
AcDbCircle
 10
144.4285255897031
 20
118.1163081955897
 30
0.0
 40
1.087755657059999
100
AcDbArc
 50
163.5977388329995
 51
164.3941812496998
  0
ARC
  5
10BB
330
1F
100
AcDbEntity
  8
0
  6
Continuous
100
AcDbCircle
 10
144.3976165040831
 20
118.1250823184498
 30
0.0
 40
1.055626791579999
100
AcDbArc
 50
163.5793392510002
 51
164.3060105137002
  0
ARC
  5
10BC
330
1F
100
AcDbEntity
  8
0
  6
Continuous
100
AcDbCircle
 10
144.3618604196631
 20
118.1351515774497
 30
0.0
 40
1.018479960359999
100
AcDbArc
 50
164.3072412231008
 51
164.4937689104007
  0
ARC
  5
10BD
330
1F
100
AcDbEntity
  8
0
  6
Continuous
100
AcDbCircle
 10
144.3169519619031
 20
118.1474829601098
 30
0.0
 40
0.97190860132
100
AcDbArc
 50
164.3947849903002
 51
165.2514505563994
  0
ARC
  5
10BE
330
1F
100
AcDbEntity
  8
0
  6
Continuous
100
AcDbCircle
 10
144.3138703671031
 20
118.1483777924698
 30
0.0
 40
0.9687007446799999
100
AcDbArc
 50
164.4887405870001
 51
165.2562323060002
  0
ARC
  5
10BF
330
1F
100
AcDbEntity
  8
0
  6
Continuous
100
AcDbCircle
 10
144.2217933548432
 20
118.1724830411698
 30
0.0
 40
0.8735207405799998
100
AcDbArc
 50
165.2482464680001
 51
166.6569958047007
  0
ARC
  5
10C0
330
1F
100
AcDbEntity
  8
0
  6
Continuous
100
AcDbCircle
 10
144.1877858085032
 20
118.1811473957098
 30
0.0
 40
0.83842802216
100
AcDbArc
 50
165.2290688358006
 51
167.1663120576994
  0
ARC
  5
10C1
330
1F
100
AcDbEntity
  8
0
  6
Continuous
100
AcDbCircle
 10
144.1269728372031
 20
118.1954087121097
 30
0.0
 40
0.77596657628
100
AcDbArc
 50
167.1956379681003
 51
167.4894886683003
  0
ARC
  5
10C2
330
1F
100
AcDbEntity
  8
0
  6
Continuous
100
AcDbCircle
 10
144.1109235189631
 20
118.1990225322498
 30
0.0
 40
0.75951666888
100
AcDbArc
 50
167.1936221583003
 51
167.4933685604997
  0
ARC
  5
10C3
330
1F
100
AcDbEntity
  8
0
  6
Continuous
100
AcDbCircle
 10
144.0893096623631
 20
118.2042432975298
 30
0.0
 40
0.73728330512
100
AcDbArc
 50
166.6825100135008
 51
167.2169383723004
  0
ARC
  5
10C4
330
1F
100
AcDbEntity
  8
0
  6
Continuous
100
AcDbCircle
 10
144.0341962863631
 20
118.2159756101897
 30
0.0
 40
0.6809377110999999
100
AcDbArc
 50
167.4879258006995
 51
167.8992958251
  0
ARC
  5
10C5
330
1F
100
AcDbEntity
  8
0
  6
Continuous
100
AcDbCircle
 10
144.0164922953631
 20
118.2199734309698
 30
0.0
 40
0.6627892363800001
100
AcDbArc
 50
167.4937511531995
 51
167.9163857723004
  0
ARC
  5
10C6
330
1F
100
AcDbEntity
  8
0
  6
Continuous
100
AcDbCircle
 10
144.0119781701031
 20
118.2209521388297
 30
0.0
 40
0.6581702486
100
AcDbArc
 50
167.9174339367001
 51
168.2983769989992
  0
ARC
  5
10C7
330
1F
100
AcDbEntity
  8
0
  6
Continuous
100
AcDbCircle
 10
142.6801266246631
 20
118.2763279663897
 30
0.0
 40
0.6531835865
100
AcDbArc
 50
340.8714005715999
 51
342.1531015240991
  0
ARC
  5
10C8
330
1F
100
AcDbEntity
  8
0
  6
Continuous
100
AcDbCircle
 10
142.6942020758431
 20
118.2718807910497
 30
0.0
 40
0.6384220688800001
100
AcDbArc
 50
342.1458680318004
 51
342.3961141118992
  0
ARC
  5
10C9
330
1F
100
AcDbEntity
  8
0
  6
Continuous
100
AcDbCircle
 10
143.9873263791831
 20
118.2260760554098
 30
0.0
 40
0.63299186204
100
AcDbArc
 50
167.9038808126002
 51
168.2999766731992
  0
ARC
  5
10CA
330
1F
100
AcDbEntity
  8
0
  6
Continuous
100
AcDbCircle
 10
143.9786275723231
 20
118.2278808589498
 30
0.0
 40
0.624107801
100
AcDbArc
 50
168.3002790418998
 51
168.7343772758991
  0
ARC
  5
10CB
330
1F
100
AcDbEntity
  8
0
  6
Continuous
100
AcDbCircle
 10
143.9760363371231
 20
118.2283703795098
 30
0.0
 40
0.62147086244
100
AcDbArc
 50
168.2960282509992
 51
168.7319683086994
  0
ARC
  5
10CC
330
1F
100
AcDbEntity
  8
0
  6
Continuous
100
AcDbCircle
 10
142.7182210736632
 20
118.2638827159697
 30
0.0
 40
0.6131081576
100
AcDbArc
 50
342.1691182849997
 51
342.4296972046004
  0
ARC
  5
10CD
330
1F
100
AcDbEntity
  8
0
  6
Continuous
100
AcDbCircle
 10
142.7387514100431
 20
118.2578373035698
 30
0.0
 40
0.59171174346
100
AcDbArc
 50
342.3876487833991
 51
343.3786720190003
  0
ARC
  5
10CE
330
1F
100
AcDbEntity
  8
0
  6
Continuous
100
AcDbCircle
 10
142.7424888989032
 20
118.2562651231097
 30
0.0
 40
0.5876729294200001
100
AcDbArc
 50
342.4234908237998
 51
343.4213187588994
  0
ARC
  5
10CF
330
1F
100
AcDbEntity
  8
0
  6
Continuous
100
AcDbCircle
 10
142.7802889584832
 20
118.2449904041698
 30
0.0
 40
0.54822722816
100
AcDbArc
 50
343.4234567724003
 51
344.0988678152992
  0
ARC
  5
10D0
330
1F
100
AcDbEntity
  8
0
  6
Continuous
100
AcDbCircle
 10
142.7868512571431
 20
118.2434232165297
 30
0.0
 40
0.5414986167999999
100
AcDbArc
 50
343.3842891065006
 51
344.0681060553004
  0
ARC
  5
10D1
330
1F
100
AcDbEntity
  8
0
  6
Continuous
100
AcDbCircle
 10
142.8040729589831
 20
118.2381955040898
 30
0.0
 40
0.5234916468600001
100
AcDbArc
 50
344.1009037059994
 51
344.5365983010002
  0
ARC
  5
10D2
330
1F
100
AcDbEntity
  8
0
  6
Continuous
100
AcDbCircle
 10
142.8131994657232
 20
118.2358801504098
 30
0.0
 40
0.51409194786
100
AcDbArc
 50
344.0704339910994
 51
344.5141057497004
  0
ARC
  5
10D3
330
1F
100
AcDbEntity
  8
0
  6
Continuous
100
AcDbCircle
 10
142.8282048415031
 20
118.2315496772498
 30
0.0
 40
0.4984613873399999
100
AcDbArc
 50
344.5332815047003
 51
345.4061375249002
  0
ARC
  5
10D4
330
1F
100
AcDbEntity
  8
0
  6
Continuous
100
AcDbCircle
 10
142.8395963097431
 20
118.2286000154098
 30
0.0
 40
0.48670960614
100
AcDbArc
 50
344.5103211730002
 51
345.4047527030003
  0
ARC
  5
10D5
330
1F
100
AcDbEntity
  8
0
  6
Continuous
100
AcDbCircle
 10
146.2261956135231
 20
116.3481740874898
 30
0.0
 40
19.55122725406
100
AcDbArc
 50
179.6432483418992
 51
180.0107764339995
  0
ARC
  5
10D6
330
1F
100
AcDbEntity
  8
0
  6
Continuous
100
AcDbCircle
 10
142.5594613995831
 20
118.3213673561897
 30
0.0
 40
0.7820052881400001
100
AcDbArc
 50
336.6930661958991
 51
337.9497415025996
  0
ARC
  5
10D7
330
1F
100
AcDbEntity
  8
0
  6
Continuous
100
AcDbCircle
 10
142.5604762982631
 20
118.3209043087097
 30
0.0
 40
0.7808900010600001
100
AcDbArc
 50
336.6948059327008
 51
337.9532754519995
  0
ARC
  5
10D8
330
1F
100
AcDbEntity
  8
0
  6
Continuous
100
AcDbCircle
 10
142.5738529590831
 20
118.3154404597098
 30
0.0
 40
0.7664405443800001
100
AcDbArc
 50
337.9565066899989
 51
338.1979041660994
  0
ARC
  5
10D9
330
1F
100
AcDbEntity
  8
0
  6
Continuous
100
AcDbCircle
 10
142.5795623401431
 20
118.3131562420898
 30
0.0
 40
0.7602920212599999
100
AcDbArc
 50
337.9545812091005
 51
338.1979311453991
  0
ARC
  5
10DA
330
1F
100
AcDbEntity
  8
0
  6
Continuous
100
AcDbCircle
 10
142.5943108898831
 20
118.3073170990097
 30
0.0
 40
0.74442889504
100
AcDbArc
 50
338.1936096586001
 51
339.4073280050996
  0
ARC
  5
10DB
330
1F
100
AcDbEntity
  8
0
  6
Continuous
100
AcDbCircle
 10
142.5976146703031
 20
118.3059927370697
 30
0.0
 40
0.7408703971999998
100
AcDbArc
 50
338.1937903674002
 51
339.4133392717993
  0
ARC
  5
10DC
330
1F
100
AcDbEntity
  8
0
  6
Continuous
100
AcDbCircle
 10
142.6275999151232
 20
118.2947511146098
 30
0.0
 40
0.70884715728
100
AcDbArc
 50
339.4117408814007
 51
340.8557625062001
  0
ARC
  5
10DD
330
1F
100
AcDbEntity
  8
0
  6
Continuous
100
AcDbCircle
 10
142.6351078654432
 20
118.2919604671897
 30
0.0
 40
0.7008373869399999
100
AcDbArc
 50
339.4094717263996
 51
340.8699958240005
  0
ARC
  5
10DE
330
1F
100
AcDbEntity
  8
0
  6
Continuous
100
AcDbCircle
 10
142.6734168879032
 20
118.2786392411498
 30
0.0
 40
0.66027835332
100
AcDbArc
 50
340.8727067578001
 51
342.1406324307004
  0
ARC
  5
10DF
330
1F
100
AcDbEntity
  8
0
  6
Continuous
100
AcDbCircle
 10
139.1990876875031
 20
119.7691411130097
 30
0.0
 40
4.4414752032
100
AcDbArc
 50
23.32251636529994
 51
31.54910104910027
  0
ARC
  5
10E0
330
1F
100
AcDbEntity
  8
0
  6
Continuous
100
AcDbCircle
 10
139.1853522192831
 20
119.7652262485097
 30
0.0
 40
4.411112651059999
100
AcDbArc
 50
6.586672959100713
 51
7.163973152199867
  0
ARC
  5
10E1
330
1F
100
AcDbEntity
  8
0
  6
Continuous
100
AcDbCircle
 10
139.1877412770031
 20
119.7666214200297
 30
0.0
 40
4.40852555406
100
AcDbArc
 50
11.89559506080054
 51
13.15103102839936
  0
ARC
  5
10E2
330
1F
100
AcDbEntity
  8
0
  6
Continuous
100
AcDbCircle
 10
139.1882457365031
 20
119.7655889968897
 30
0.0
 40
4.408198339859999
100
AcDbArc
 50
6.586303177500621
 51
7.163985271599488
  0
ARC
  5
10E3
330
1F
100
AcDbEntity
  8
0
  6
Continuous
100
AcDbCircle
 10
139.1970616909031
 20
119.7665402033898
 30
0.0
 40
4.399329749759999
100
AcDbArc
 50
4.947297927499983
 51
6.587166111199119
  0
ARC
  5
10E4
330
1F
100
AcDbEntity
  8
0
  6
Continuous
100
AcDbCircle
 10
139.1977922887831
 20
119.7666598304297
 30
0.0
 40
4.398591968739999
100
AcDbArc
 50
4.946566108999452
 51
6.586709851900709
  0
ARC
  5
10E5
330
1F
100
AcDbEntity
  8
0
  6
Continuous
100
AcDbCircle
 10
139.2084095682031
 20
119.7676111817097
 30
0.0
 40
4.387932201139999
100
AcDbArc
 50
4.395829517900202
 51
4.946144147100572
  0
ARC
  5
10E6
330
1F
100
AcDbEntity
  8
0
  6
Continuous
100
AcDbCircle
 10
139.2158620392831
 20
119.7681746818097
 30
0.0
 40
4.3804584626
100
AcDbArc
 50
3.375719069499706
 51
4.395951982999495
  0
ARC
  5
10E7
330
1F
100
AcDbEntity
  8
0
  6
Continuous
100
AcDbCircle
 10
139.2425895304231
 20
119.7695433475697
 30
0.0
 40
4.353696760439999
100
AcDbArc
 50
0.0027944113002661
 51
3.37844999249927
  0
ARC
  5
10E8
330
1F
100
AcDbEntity
  8
0
  6
Continuous
100
AcDbCircle
 10
139.1487841060232
 20
119.7386393664897
 30
0.0
 40
4.50032675928
100
AcDbArc
 50
37.84966480279926
 51
39.73996414569995
  0
ARC
  5
10E9
330
1F
100
AcDbEntity
  8
0
  6
Continuous
100
AcDbCircle
 10
139.1498077941031
 20
119.7394236754698
 30
0.0
 40
4.499037185579999
100
AcDbArc
 50
35.63907709390037
 51
37.84977709720018
  0
ARC
  5
10EA
330
1F
100
AcDbEntity
  8
0
  6
Continuous
100
AcDbCircle
 10
139.1538293097831
 20
119.7422986749097
 30
0.0
 40
4.494093688439999
100
AcDbArc
 50
33.55887990660003
 51
35.63916281709978
  0
ARC
  5
10EB
330
1F
100
AcDbEntity
  8
0
  6
Continuous
100
AcDbCircle
 10
139.1605858538031
 20
119.7467736791697
 30
0.0
 40
4.485989583479999
100
AcDbArc
 50
31.53525694280014
 51
33.55895490949972
  0
ARC
  5
10EC
330
1F
100
AcDbEntity
  8
0
  6
Continuous
100
AcDbCircle
 10
139.1598645773232
 20
119.7485063438898
 30
0.0
 40
4.485498415239999
100
AcDbArc
 50
39.7335332078005
 51
47.9208926255002
  0
ARC
  5
10ED
330
1F
100
AcDbEntity
  8
0
  6
Continuous
100
AcDbCircle
 10
139.1381118022231
 20
119.7542956910098
 30
0.0
 40
4.459657822059999
100
AcDbArc
 50
13.16016356549968
 51
17.50502228300051
  0
ARC
  5
10EE
330
1F
100
AcDbEntity
  8
0
  6
Continuous
100
AcDbCircle
 10
139.1676598114431
 20
119.7624794777897
 30
0.0
 40
4.4290227571
100
AcDbArc
 50
11.89447739589973
 51
13.14410234390056
  0
ARC
  5
10EF
330
1F
100
AcDbEntity
  8
0
  6
Continuous
100
AcDbCircle
 10
139.1682110603431
 20
119.7625944399498
 30
0.0
 40
4.428459649159999
100
AcDbArc
 50
10.95811750829992
 51
11.89449194069948
  0
ARC
  5
10F0
330
1F
100
AcDbEntity
  8
0
  6
Continuous
100
AcDbCircle
 10
139.1699050631031
 20
119.7631403194497
 30
0.0
 40
4.426700446379999
100
AcDbArc
 50
8.770924143600161
 51
9.639711605899343
  0
ARC
  5
10F1
330
1F
100
AcDbEntity
  8
0
  6
Continuous
100
AcDbCircle
 10
139.1702282021831
 20
119.7629808820898
 30
0.0
 40
4.42640582782
100
AcDbArc
 50
9.642447095299615
 51
10.95816986969949
  0
ARC
  5
10F2
330
1F
100
AcDbEntity
  8
0
  6
Continuous
100
AcDbCircle
 10
139.1714343411831
 20
119.7634320940897
 30
0.0
 40
4.425130490059999
100
AcDbArc
 50
13.14320470759983
 51
17.5219808808998
  0
ARC
  5
10F3
330
1F
100
AcDbEntity
  8
0
  6
Continuous
100
AcDbCircle
 10
139.1735125323031
 20
119.7635416454298
 30
0.0
 40
4.423073970339999
100
AcDbArc
 50
8.772911901500226
 51
9.642411881000638
  0
ARC
  5
10F4
330
1F
100
AcDbEntity
  8
0
  6
Continuous
100
AcDbCircle
 10
139.1751967538632
 20
119.7639203921898
 30
0.0
 40
4.421351689119999
100
AcDbArc
 50
7.164351295700257
 51
8.771390006399391
  0
ARC
  5
10F5
330
1F
100
AcDbEntity
  8
0
  6
Continuous
100
AcDbCircle
 10
139.1802694878631
 20
119.7645637101498
 30
0.0
 40
4.41624018334
100
AcDbArc
 50
7.164278066300091
 51
8.773177274600714
  0
ARC
  5
10F6
330
1F
100
AcDbEntity
  8
0
  6
Continuous
100
AcDbCircle
 10
139.1804735281032
 20
119.7650817956898
 30
0.0
 40
4.415954587879999
100
AcDbArc
 50
10.95667714179917
 51
11.89570491920048
  0
ARC
  5
10F7
330
1F
100
AcDbEntity
  8
0
  6
Continuous
100
AcDbCircle
 10
139.1251611704231
 20
119.1946194246097
 30
0.0
 40
4.324702114059999
100
AcDbArc
 50
347.6262607320002
 51
348.7350496347994
  0
ARC
  5
10F8
330
1F
100
AcDbEntity
  8
0
  6
Continuous
100
AcDbCircle
 10
139.1253506247431
 20
119.1945797788298
 30
0.0
 40
4.324508564859999
100
AcDbArc
 50
347.6262359173999
 51
348.7350744470007
  0
ARC
  5
10F9
330
1F
100
AcDbEntity
  8
0
  6
Continuous
100
AcDbCircle
 10
139.1353772363431
 20
119.1923854570498
 30
0.0
 40
4.314244649339999
100
AcDbArc
 50
346.5183915067
 51
347.6261664017004
  0
ARC
  5
10FA
330
1F
100
AcDbEntity
  8
0
  6
Continuous
100
AcDbCircle
 10
139.1363181684031
 20
119.1921694753098
 30
0.0
 40
4.313279292399999
100
AcDbArc
 50
346.5182675401004
 51
347.6262903743994
  0
ARC
  5
10FB
330
1F
100
AcDbEntity
  8
0
  6
Continuous
100
AcDbCircle
 10
139.1482481167831
 20
119.1893090462097
 30
0.0
 40
4.301011214699999
100
AcDbArc
 50
345.4109932000004
 51
346.5182717400001
  0
ARC
  5
10FC
330
1F
100
AcDbEntity
  8
0
  6
Continuous
100
AcDbCircle
 10
139.1517907013631
 20
119.1884234573497
 30
0.0
 40
4.2973597871
100
AcDbArc
 50
345.4105227671994
 51
346.5187421811005
  0
ARC
  5
10FD
330
1F
100
AcDbEntity
  8
ALL_FEATURES
  6
Continuous
100
AcDbCircle
 10
127.0846242803231
 20
117.1516454483298
 30
0.0
 40
1.681948123739999
100
AcDbArc
 50
164.0533452671994
 51
171.6893074074996
  0
ARC
  5
10FE
330
1F
100
AcDbEntity
  8
ALL_FEATURES
  6
Continuous
100
AcDbCircle
 10
127.0846242803231
 20
117.1516454483298
 30
0.0
 40
1.681948123739999
100
AcDbArc
 50
188.3106925925004
 51
195.9466547328005
  0
ARC
  5
10FF
330
1F
100
AcDbEntity
  8
0
  6
Continuous
100
AcDbCircle
 10
127.0846242803231
 20
117.1516454483298
 30
0.0
 40
1.679982591599999
100
AcDbArc
 50
171.3570934770995
 51
171.6795152420006
  0
ARC
  5
1100
330
1F
100
AcDbEntity
  8
0
  6
Continuous
100
AcDbCircle
 10
127.0846242803231
 20
117.1516454483298
 30
0.0
 40
1.679982591599999
100
AcDbArc
 50
188.3204847579993
 51
188.6429065229004
  0
CIRCLE
  5
1101
330
1F
100
AcDbEntity
  8
AXIS
  6
Continuous
100
AcDbCircle
 10
126.0833848177431
 20
117.1516454483298
 30
0.0
 40
0.3487696851799999
  0
CIRCLE
  5
1102
330
1F
100
AcDbEntity
  8
0
  6
Continuous
100
AcDbCircle
 10
126.0833848177431
 20
117.1516454483298
 30
0.0
 40
0.2657625
  0
ARC
  5
1103
330
1F
100
AcDbEntity
  8
0
  6
Continuous
100
AcDbCircle
 10
126.0833848177431
 20
117.1516454483298
 30
0.0
 40
0.2181129453
100
AcDbArc
 50
171.2945370141007
 51
188.7054629858993
  0
ARC
  5
1104
330
1F
100
AcDbEntity
  8
0
  6
Continuous
100
AcDbCircle
 10
126.0833848177431
 20
117.1516454483298
 30
0.0
 40
0.2181129453
100
AcDbArc
 50
351.2945370141005
 51
8.705462985899298
  0
ARC
  5
1105
330
1F
100
AcDbEntity
  8
0
  6
Continuous
100
AcDbCircle
 10
126.4199989911031
 20
116.6841257635297
 30
0.0
 40
0.09350393696
100
AcDbArc
 50
290.2081805003997
 51
9.791819499599293
  0
ARC
  5
1106
330
1F
100
AcDbEntity
  8
0
  6
Continuous
100
AcDbCircle
 10
126.4199989911031
 20
116.6841257635297
 30
0.0
 40
0.09350393696
100
AcDbArc
 50
110.2081805003997
 51
189.7918194995993
  0
ARC
  5
1107
330
1F
100
AcDbEntity
  8
0
  6
Continuous
100
AcDbCircle
 10
126.4199989911031
 20
117.6191651335097
 30
0.0
 40
0.09350393696
100
AcDbArc
 50
350.2081805004007
 51
69.79181949960031
  0
ARC
  5
1108
330
1F
100
AcDbEntity
  8
0
  6
Continuous
100
AcDbCircle
 10
126.4199989911031
 20
117.6191651335097
 30
0.0
 40
0.09350393696
100
AcDbArc
 50
170.2081805004007
 51
249.7918194996003
  0
ARC
  5
1109
330
1F
100
AcDbEntity
  8
0
  6
Continuous
100
AcDbCircle
 10
124.9639461419831
 20
117.5670046117298
 30
0.0
 40
0.08003936998
100
AcDbArc
 50
15.89367932510048
 51
84.77518424899976
  0
ARC
  5
110A
330
1F
100
AcDbEntity
  8
0
  6
Continuous
100
AcDbCircle
 10
124.9639461419831
 20
116.7362862853098
 30
0.0
 40
0.08003936998
100
AcDbArc
 50
275.2248157510002
 51
344.1063206748995
  0
ARC
  5
110B
330
1F
100
AcDbEntity
  8
0
  6
Continuous
100
AcDbCircle
 10
133.6280663701832
 20
113.6107424891698
 30
0.0
 40
12.74816363824
100
AcDbArc
 50
47.95436101249922
 51
48.65718000159984
  0
ARC
  5
110C
330
1F
100
AcDbEntity
  8
0
  6
Continuous
100
AcDbCircle
 10
133.6280682705631
 20
113.6107445582697
 30
0.0
 40
12.74816094176
100
AcDbArc
 50
48.65718000159984
 51
48.6573454504002
  0
ARC
  5
110D
330
1F
100
AcDbEntity
  8
0
  6
Continuous
100
AcDbCircle
 10
134.0380049893831
 20
114.9669831851097
 30
0.0
 40
11.51340228393999
100
AcDbArc
 50
73.18309009049961
 51
101.8318485055993
  0
ARC
  5
110E
330
1F
100
AcDbEntity
  8
0
  6
Continuous
100
AcDbCircle
 10
134.0405208272631
 20
115.0297037636298
 30
0.0
 40
11.45262491674
100
AcDbArc
 50
101.9085058836999
 51
122.7078773976994
  0
ARC
  5
110F
330
1F
100
AcDbEntity
  8
0
  6
Continuous
100
AcDbCircle
 10
127.0123696481031
 20
111.2471234036697
 30
0.0
 40
6.8688921125
100
AcDbArc
 50
90.39899755820028
 51
90.68493127329951
  0
ARC
  5
1110
330
1F
100
AcDbEntity
  8
0
  6
Continuous
100
AcDbCircle
 10
127.0093613530231
 20
111.9623055181497
 30
0.0
 40
6.153704388839999
100
AcDbArc
 50
89.14808019090061
 51
90.41735969080034
  0
ARC
  5
1111
330
1F
100
AcDbEntity
  8
0
  6
Continuous
100
AcDbCircle
 10
102.0829406345431
 20
122.8262081776498
 30
0.0
 40
24.66877987108
100
AcDbArc
 50
0.2174611386005676
 51
0.5325237350993025
  0
ARC
  5
1112
330
1F
100
AcDbEntity
  8
0
  6
Continuous
100
AcDbCircle
 10
124.1048362956832
 20
129.1515846610898
 30
0.0
 40
6.009604407579999
100
AcDbArc
 50
304.0243795628991
 51
304.2111336839007
  0
ARC
  5
1113
330
1F
100
AcDbEntity
  8
ALL_FEATURES
  6
Continuous
100
AcDbCircle
 10
123.5052057242431
 20
122.3878659207498
 30
0.0
 40
1.652864132899999
100
AcDbArc
 50
344.0945718453004
 51
351.5252240582993
  0
ARC
  5
1114
330
1F
100
AcDbEntity
  8
ALL_FEATURES
  6
Continuous
100
AcDbCircle
 10
123.5052057242431
 20
122.3878659207498
 30
0.0
 40
1.652864132899999
100
AcDbArc
 50
8.47477594160026
 51
15.90542808609992
  0
ARC
  5
1115
330
1F
100
AcDbEntity
  8
0
  6
Continuous
100
AcDbCircle
 10
123.5052057242431
 20
122.3878659207498
 30
0.0
 40
1.596761770799999
100
AcDbArc
 50
344.1063206748995
 51
15.89367932510048
  0
CIRCLE
  5
1116
330
1F
100
AcDbEntity
  8
0
  6
Continuous
100
AcDbCircle
 10
124.1403730068632
 20
121.9203462359497
 30
0.0
 40
0.0617125985
  0
CIRCLE
  5
1117
330
1F
100
AcDbEntity
  8
0
  6
Continuous
100
AcDbCircle
 10
124.1403730068632
 20
122.8553856059297
 30
0.0
 40
0.0617125985
  0
CIRCLE
  5
1118
330
1F
100
AcDbEntity
  8
0
  6
Continuous
100
AcDbCircle
 10
124.1403730068632
 20
122.8553856059297
 30
0.0
 40
0.06040557976
  0
CIRCLE
  5
1119
330
1F
100
AcDbEntity
  8
0
  6
Continuous
100
AcDbCircle
 10
124.1403730068632
 20
121.9203462359497
 30
0.0
 40
0.06040557976
  0
ARC
  5
111A
330
1F
100
AcDbEntity
  8
0
  6
Continuous
100
AcDbCircle
 10
124.1108257625832
 20
122.9240533885097
 30
0.0
 40
0.03740157486
100
AcDbArc
 50
84.77518424899976
 51
180.0
  0
ARC
  5
111B
330
1F
100
AcDbEntity
  8
0
  6
Continuous
100
AcDbCircle
 10
124.1108257625832
 20
121.8516784533697
 30
0.0
 40
0.03740157486
100
AcDbArc
 50
180.0
 51
275.2248157510002
  0
ARC
  5
111C
330
1F
100
AcDbEntity
  8
0
  6
Continuous
100
AcDbCircle
 10
102.0829406341631
 20
116.7133031750897
 30
0.0
 40
24.66877987108
100
AcDbArc
 50
359.4674763034997
 51
359.7825389000997
  0
ARC
  5
111D
330
1F
100
AcDbEntity
  8
0
  6
Continuous
100
AcDbCircle
 10
124.1048362956832
 20
110.3879267083698
 30
0.0
 40
6.009604407579999
100
AcDbArc
 50
55.78886631609924
 51
55.9756204370998
  0
ARC
  5
111E
330
1F
100
AcDbEntity
  8
ALL_FEATURES
  6
Continuous
100
AcDbCircle
 10
123.5052057242431
 20
117.1516454483298
 30
0.0
 40
1.652864132899999
100
AcDbArc
 50
344.0945718453004
 51
351.5252240582993
  0
ARC
  5
111F
330
1F
100
AcDbEntity
  8
ALL_FEATURES
  6
Continuous
100
AcDbCircle
 10
123.5052057242431
 20
117.1516454483298
 30
0.0
 40
1.652864132899999
100
AcDbArc
 50
8.47477594160026
 51
15.90542808609992
  0
ARC
  5
1120
330
1F
100
AcDbEntity
  8
0
  6
Continuous
100
AcDbCircle
 10
123.5052057242431
 20
117.1516454483298
 30
0.0
 40
1.596761770799999
100
AcDbArc
 50
344.1063206748995
 51
15.89367932510048
  0
CIRCLE
  5
1121
330
1F
100
AcDbEntity
  8
0
  6
Continuous
100
AcDbCircle
 10
124.1403730068632
 20
116.6841257635297
 30
0.0
 40
0.0617125985
  0
CIRCLE
  5
1122
330
1F
100
AcDbEntity
  8
0
  6
Continuous
100
AcDbCircle
 10
124.1403730068632
 20
117.6191651335097
 30
0.0
 40
0.0617125985
  0
CIRCLE
  5
1123
330
1F
100
AcDbEntity
  8
0
  6
Continuous
100
AcDbCircle
 10
124.1403730068632
 20
117.6191651335097
 30
0.0
 40
0.06040557976
  0
CIRCLE
  5
1124
330
1F
100
AcDbEntity
  8
0
  6
Continuous
100
AcDbCircle
 10
124.1403730068632
 20
116.6841257635297
 30
0.0
 40
0.06040557976
  0
ARC
  5
1125
330
1F
100
AcDbEntity
  8
0
  6
Continuous
100
AcDbCircle
 10
124.1108257625832
 20
117.6878329160897
 30
0.0
 40
0.03740157486
100
AcDbArc
 50
84.77518424899976
 51
180.0
  0
ARC
  5
1126
330
1F
100
AcDbEntity
  8
0
  6
Continuous
100
AcDbCircle
 10
124.1108257625832
 20
116.6154579805698
 30
0.0
 40
0.03740157486
100
AcDbArc
 50
180.0
 51
275.2248157510002
  0
SPLINE
  5
1127
330
1F
100
AcDbEntity
  8
ALL_FEATURES
  6
Continuous
100
AcDbSpline
210
0.0
220
0.0
230
1.0
 70
     8
 71
     3
 72
    13
 73
     9
 74
     7
 42
0.0000000001
 43
0.0000000001
 44
0.0000000001
 12
3.784211193075841
 22
0.3460428386768177
 32
0.0
 13
1.041391262349082
 23
3.654518331969753
 33
0.0
 40
0.0
 40
0.0
 40
0.0
 40
0.0
 40
0.0071418212591427
 40
0.014370527911909
 40
0.0215150706580112
 40
0.0286517752696458
 40
0.0358506741512092
 40
0.0429395961962202
 40
0.0429395961962202
 40
0.0429395961962202
 40
0.0429395961962202
 10
124.9762708643832
 20
121.8369240235097
 30
0.0
 10
124.9852795843657
 20
121.8377478155437
 30
0.0
 10
125.0032926595454
 20
121.8412155413195
 30
0.0
 10
125.0286579184356
 20
121.851656874277
 30
0.0
 10
125.0514322012671
 20
121.8669441380998
 30
0.0
 10
125.0706847192712
 20
121.8864289782587
 30
0.0
 10
125.0856135290549
 20
121.9093046851408
 30
0.0
 10
125.0923297529707
 20
121.926262424474
 30
0.0
 10
125.0947905334632
 20
121.9348979563298
 30
0.0
 11
124.9762708643832
 21
121.8369240235097
 31
0.0
 11
125.0029192543432
 21
121.8420605918097
 31
0.0
 11
125.0283202479431
 21
121.8525171768297
 31
0.0
 11
125.0508597404631
 21
121.8676516978898
 31
0.0
 11
125.0699202330431
 21
121.8869432422497
 31
0.0
 11
125.0848677298831
 21
121.9098542220098
 31
0.0
 11
125.0947905334632
 21
121.9348979563298
 31
0.0
  0
SPLINE
  5
1128
330
1F
100
AcDbEntity
  8
ALL_FEATURES
  6
Continuous
100
AcDbSpline
210
0.0
220
0.0
230
1.0
 70
     8
 71
     3
 72
    13
 73
     9
 74
     7
 42
0.0000000001
 43
0.0000000001
 44
0.0000000001
 12
-1.041391258872095
 22
3.654518332960554
 32
0.0
 13
-3.784211192713628
 23
0.3460428426378658
 33
0.0
 40
0.0
 40
0.0
 40
0.0
 40
0.0
 40
0.0070871643363367
 40
0.0142830124010205
 40
0.0214182416897927
 40
0.0285641171377231
 40
0.0357958349707594
 40
0.0429395967341794
 40
0.0429395967341794
 40
0.0429395967341794
 40
0.0429395967341794
 10
125.0947905342231
 20
122.8408338836497
 30
0.0
 10
125.0923303638931
 20
122.8494672743151
 30
0.0
 10
125.0856168405144
 20
122.8664194118854
 30
0.0
 10
125.0706946192924
 20
122.8892896544994
 30
0.0
 10
125.0514480662034
 20
122.9087745535361
 30
0.0
 10
125.0286731014756
 20
122.9240674937339
 30
0.0
 10
125.0033012913958
 20
122.9345143845117
 30
0.0
 10
124.9852820321242
 20
122.9379838024938
 30
0.0
 10
124.9762708643832
 20
122.9388078183698
 30
0.0
 11
125.0947905342231
 21
122.8408338836497
 31
0.0
 11
125.0848708116832
 21
122.8658716542498
 31
0.0
 11
125.0699317698432
 21
122.8887743078298
 31
0.0
 11
125.0508782297431
 21
122.9080648398697
 31
0.0
 11
125.0283369212031
 21
122.9232057403698
 31
0.0
 11
125.0029263557831
 21
122.9336691323297
 31
0.0
 11
124.9762708643832
 21
122.9388078183698
 31
0.0
  0
SPLINE
  5
1129
330
1F
100
AcDbEntity
  8
ALL_FEATURES
  6
Continuous
100
AcDbSpline
210
0.0
220
0.0
230
1.0
 70
     8
 71
     3
 72
    13
 73
     9
 74
     7
 42
0.0000000001
 43
0.0000000001
 44
0.0000000001
 12
-3.784205204675417
 22
0.3461083196161033
 32
0.0
 13
-1.04402059639005
 23
3.653768054257599
 33
0.0
 40
0.0
 40
0.0
 40
0.0
 40
0.0
 40
0.0088336674533067
 40
0.0177640486042346
 40
0.026586591273741
 40
0.0353976150811534
 40
0.0442873720819534
 40
0.0530523472884173
 40
0.0530523472884173
 40
0.0530523472884173
 40
0.0530523472884173
 10
125.6138865573031
 20
121.8047581600897
 30
0.0
 10
125.6027437538521
 20
121.8057772953558
 30
0.0
 10
125.5804770653275
 20
121.8100654720472
 30
0.0
 10
125.5491337022016
 20
121.8229694641574
 30
0.0
 10
125.5210062471881
 20
121.8418445753099
 30
0.0
 10
125.4972247817395
 20
121.8658945890006
 30
0.0
 10
125.4787656114177
 20
121.8941408362294
 30
0.0
 10
125.4704513044906
 20
121.9150886415345
 30
0.0
 10
125.4674010329431
 20
121.9257637036697
 30
0.0
 11
125.6138865573031
 21
121.8047581600897
 31
0.0
 11
125.5809257886031
 21
121.8111137934697
 31
0.0
 11
125.5495459076832
 21
121.8240334579297
 31
0.0
 11
125.5217101742831
 21
121.8427187989297
 31
0.0
 11
125.4981688349431
 21
121.8665272497697
 31
0.0
 11
125.4796926144031
 21
121.8948078157298
 31
0.0
 11
125.4674010329431
 21
121.9257637036697
 31
0.0
  0
SPLINE
  5
112A
330
1F
100
AcDbEntity
  8
ALL_FEATURES
  6
Continuous
100
AcDbSpline
210
0.0
220
0.0
230
1.0
 70
     8
 71
     3
 72
    13
 73
     9
 74
     7
 42
0.0000000001
 43
0.0000000001
 44
0.0000000001
 12
1.044020587875804
 22
3.653768056690443
 32
0.0
 13
3.784205204675417
 23
0.3461083196161023
 33
0.0
 40
0.0
 40
0.0
 40
0.0
 40
0.0
 40
0.0087630687049682
 40
0.0176509142424986
 40
0.0264609579523398
 40
0.0352843405871721
 40
0.0442165311830066
 40
0.0530523472702372
 40
0.0530523472702372
 40
0.0530523472702372
 40
0.0530523472702372
 10
125.4674010329431
 20
122.8499681382097
 30
0.0
 10
125.4704506409901
 20
122.8606408783807
 30
0.0
 10
125.4787626683617
 20
122.881584262838
 30
0.0
 10
125.497216592242
 20
122.9098265145697
 30
0.0
 10
125.5209938182568
 20
122.9338769652524
 30
0.0
 10
125.5491212016538
 20
122.952756089226
 30
0.0
 10
125.5804694121467
 20
122.9656646125608
 30
0.0
 10
125.6027410435615
 20
122.969954298257
 30
0.0
 10
125.6138865573031
 20
122.9709736814098
 30
0.0
 11
125.4674010329431
 21
122.8499681382097
 31
0.0
 11
125.4796892677431
 21
122.8809175600698
 31
0.0
 11
125.4981596697231
 21
122.9091932510098
 31
0.0
 11
125.5216960550031
 21
122.9330013625097
 31
0.0
 11
125.5495325799431
 21
122.9516912509697
 31
0.0
 11
125.5809179256431
 21
122.9646157026697
 31
0.0
 11
125.6138865573031
 21
122.9709736814098
 31
0.0
  0
LINE
  5
112B
330
1F
100
AcDbEntity
  8
0
  6
Continuous
100
AcDbLine
 10
125.4616961769231
 20
122.6453754960098
 30
0.0
 11
125.4545355838432
 21
122.6452585677298
 31
0.0
  0
LINE
  5
112C
330
1F
100
AcDbEntity
  8
0
  6
Continuous
100
AcDbLine
 10
125.4545355895431
 20
122.1304732741498
 30
0.0
 11
125.4616961750232
 21
122.1303563454897
 31
0.0
  0
LINE
  5
112D
330
1F
100
AcDbEntity
  8
0
  6
Continuous
100
AcDbLine
 10
125.4237193645231
 20
122.6403265507697
 30
0.0
 11
125.4545355838432
 21
122.6452585677298
 31
0.0
  0
LINE
  5
112E
330
1F
100
AcDbEntity
  8
0
  6
Continuous
100
AcDbLine
 10
125.4545355895431
 20
122.1304732741498
 30
0.0
 11
125.4237193645231
 21
122.1354052911097
 31
0.0
  0
LINE
  5
112F
330
1F
100
AcDbEntity
  8
ALL_FEATURES
  6
Continuous
100
AcDbLine
 10
125.1617764349032
 20
122.1449405634698
 30
0.0
 11
125.1637586752631
 21
122.1469228038298
 31
0.0
  0
LINE
  5
1130
330
1F
100
AcDbEntity
  8
ALL_FEATURES
  6
Continuous
100
AcDbLine
 10
125.1637586752631
 20
122.1469228038298
 30
0.0
 11
125.1653066976032
 21
122.1484708261697
 31
0.0
  0
LINE
  5
1131
330
1F
100
AcDbEntity
  8
ALL_FEATURES
  6
Continuous
100
AcDbLine
 10
125.1653066976032
 20
122.1484708261697
 30
0.0
 11
125.1802923434031
 21
122.1634564719698
 31
0.0
  0
LINE
  5
1132
330
1F
100
AcDbEntity
  8
ALL_FEATURES
  6
Continuous
100
AcDbLine
 10
125.3621203921031
 20
122.1519431175897
 30
0.0
 11
125.3506070377231
 21
122.1634564719698
 31
0.0
  0
LINE
  5
1133
330
1F
100
AcDbEntity
  8
ALL_FEATURES
  6
Continuous
100
AcDbLine
 10
125.1617764349032
 20
122.6307912780297
 30
0.0
 11
125.1637586752631
 21
122.6288090380498
 31
0.0
  0
LINE
  5
1134
330
1F
100
AcDbEntity
  8
ALL_FEATURES
  6
Continuous
100
AcDbLine
 10
125.1637586752631
 20
122.6288090380498
 30
0.0
 11
125.1653066976032
 21
122.6272610157098
 31
0.0
  0
LINE
  5
1135
330
1F
100
AcDbEntity
  8
ALL_FEATURES
  6
Continuous
100
AcDbLine
 10
125.1653066976032
 20
122.6272610157098
 30
0.0
 11
125.1802923434031
 21
122.6122753695297
 31
0.0
  0
LINE
  5
1136
330
1F
100
AcDbEntity
  8
ALL_FEATURES
  6
Continuous
100
AcDbLine
 10
125.3621203921031
 20
122.6237887239098
 30
0.0
 11
125.3506070377231
 21
122.6122753695297
 31
0.0
  0
SPLINE
  5
1137
330
1F
100
AcDbEntity
  8
ALL_FEATURES
  6
Continuous
100
AcDbSpline
210
0.0
220
0.0
230
1.0
 70
     8
 71
     3
 72
    13
 73
     9
 74
     7
 42
0.0000000001
 43
0.0000000001
 44
0.0000000001
 12
3.784211193075841
 22
0.3460428386768177
 32
0.0
 13
1.041391262349082
 23
3.654518331969753
 33
0.0
 40
0.0
 40
0.0
 40
0.0
 40
0.0
 40
0.007141821259143
 40
0.0143705279119086
 40
0.0215150706580108
 40
0.0286517752696454
 40
0.0358506741512103
 40
0.0429395961962213
 40
0.0429395961962213
 40
0.0429395961962213
 40
0.0429395961962213
 10
124.9762708643832
 20
116.6007035510897
 30
0.0
 10
124.9852795843657
 20
116.6015273431237
 30
0.0
 10
125.0032926595454
 20
116.6049950688995
 30
0.0
 10
125.0286579184356
 20
116.615436401857
 30
0.0
 10
125.0514322012671
 20
116.6307236656799
 30
0.0
 10
125.0706847192712
 20
116.6502085058387
 30
0.0
 10
125.0856135290549
 20
116.6730842127209
 30
0.0
 10
125.0923297529707
 20
116.6900419520539
 30
0.0
 10
125.0947905334632
 20
116.6986774839098
 30
0.0
 11
124.9762708643832
 21
116.6007035510897
 31
0.0
 11
125.0029192543432
 21
116.6058401193897
 31
0.0
 11
125.0283202479431
 21
116.6162967044097
 31
0.0
 11
125.0508597404631
 21
116.6314312254698
 31
0.0
 11
125.0699202330431
 21
116.6507227698297
 31
0.0
 11
125.0848677298831
 21
116.6736337495898
 31
0.0
 11
125.0947905334632
 21
116.6986774839098
 31
0.0
  0
SPLINE
  5
1138
330
1F
100
AcDbEntity
  8
ALL_FEATURES
  6
Continuous
100
AcDbSpline
210
0.0
220
0.0
230
1.0
 70
     8
 71
     3
 72
    13
 73
     9
 74
     7
 42
0.0000000001
 43
0.0000000001
 44
0.0000000001
 12
-1.041391258872095
 22
3.654518332960554
 32
0.0
 13
-3.784211192713628
 23
0.3460428426378658
 33
0.0
 40
0.0
 40
0.0
 40
0.0
 40
0.0
 40
0.0070871643363384
 40
0.0142830124010207
 40
0.0214182416186478
 40
0.0285641171223368
 40
0.0357958349553732
 40
0.0429395967187932
 40
0.0429395967187932
 40
0.0429395967187932
 40
0.0429395967187932
 10
125.0947905342231
 20
117.6046134112297
 30
0.0
 10
125.0923303638931
 20
117.6132468018951
 30
0.0
 10
125.0856168404881
 20
117.6301989394371
 30
0.0
 10
125.070694619435
 20
117.6530691821039
 30
0.0
 10
125.0514480659453
 20
117.6725540806734
 30
0.0
 10
125.0286731016225
 20
117.6878470213981
 30
0.0
 10
125.0033012913727
 20
117.6982939120602
 30
0.0
 10
124.9852820321242
 20
117.7017633300738
 30
0.0
 10
124.9762708643832
 20
117.7025873459498
 30
0.0
 11
125.0947905342231
 21
117.6046134112297
 31
0.0
 11
125.0848708116832
 21
117.6296511818298
 31
0.0
 11
125.0699317698432
 21
117.6525538354098
 31
0.0
 11
125.0508782297431
 21
117.6718443670698
 31
0.0
 11
125.0283369212031
 21
117.6869852679498
 31
0.0
 11
125.0029263557831
 21
117.6974486599097
 31
0.0
 11
124.9762708643832
 21
117.7025873459498
 31
0.0
  0
SPLINE
  5
1139
330
1F
100
AcDbEntity
  8
ALL_FEATURES
  6
Continuous
100
AcDbSpline
210
0.0
220
0.0
230
1.0
 70
     8
 71
     3
 72
    13
 73
     9
 74
     7
 42
0.0000000001
 43
0.0000000001
 44
0.0000000001
 12
-3.784205204675417
 22
0.3461083196161033
 32
0.0
 13
-1.04402059639005
 23
3.653768054257599
 33
0.0
 40
0.0
 40
0.0
 40
0.0
 40
0.0
 40
0.0088336674533063
 40
0.0177640486042349
 40
0.0265865912737413
 40
0.0353976150811525
 40
0.0442873719982353
 40
0.0530523472976422
 40
0.0530523472976422
 40
0.0530523472976422
 40
0.0530523472976422
 10
125.6138865573031
 20
116.5685376876697
 30
0.0
 10
125.6027437538521
 20
116.5695568229359
 30
0.0
 10
125.580477065326
 20
116.5738449996263
 30
0.0
 10
125.549133702207
 20
116.5867489917405
 30
0.0
 10
125.5210062471683
 20
116.6056241028782
 30
0.0
 10
125.4972247818888
 20
116.6296741165487
 30
0.0
 10
125.4787656111834
 20
116.6579203635585
 30
0.0
 10
125.470451304523
 20
116.6788681690013
 30
0.0
 10
125.4674010329431
 20
116.6895432312497
 30
0.0
 11
125.6138865573031
 21
116.5685376876697
 31
0.0
 11
125.5809257886031
 21
116.5748933210497
 31
0.0
 11
125.5495459076832
 21
116.5878129855097
 31
0.0
 11
125.5217101742831
 21
116.6064983265097
 31
0.0
 11
125.4981688349431
 21
116.6303067773497
 31
0.0
 11
125.4796926144031
 21
116.6585873429297
 31
0.0
 11
125.4674010329431
 21
116.6895432312497
 31
0.0
  0
SPLINE
  5
113A
330
1F
100
AcDbEntity
  8
ALL_FEATURES
  6
Continuous
100
AcDbSpline
210
0.0
220
0.0
230
1.0
 70
     8
 71
     3
 72
    13
 73
     9
 74
     7
 42
0.0000000001
 43
0.0000000001
 44
0.0000000001
 12
1.044020587875804
 22
3.653768056690443
 32
0.0
 13
3.784205204675417
 23
0.3461083196161023
 33
0.0
 40
0.0
 40
0.0
 40
0.0
 40
0.0
 40
0.0087630687049682
 40
0.0176509142424971
 40
0.0264609579523383
 40
0.0352843405871706
 40
0.0442165311830057
 40
0.053052347270236
 40
0.053052347270236
 40
0.053052347270236
 40
0.053052347270236
 10
125.4674010329431
 20
117.6137476657897
 30
0.0
 10
125.4704506409901
 20
117.6244204059607
 30
0.0
 10
125.4787626683617
 20
117.645363790418
 30
0.0
 10
125.497216592242
 20
117.6736060421498
 30
0.0
 10
125.5209938182568
 20
117.6976564928324
 30
0.0
 10
125.5491212016538
 20
117.716535616806
 30
0.0
 10
125.5804694121467
 20
117.7294441401408
 30
0.0
 10
125.6027410435615
 20
117.733733825837
 30
0.0
 10
125.6138865573031
 20
117.7347532089898
 30
0.0
 11
125.4674010329431
 21
117.6137476657897
 31
0.0
 11
125.4796892677431
 21
117.6446970876497
 31
0.0
 11
125.4981596697231
 21
117.6729727785897
 31
0.0
 11
125.5216960550031
 21
117.6967808900898
 31
0.0
 11
125.5495325799431
 21
117.7154707785497
 31
0.0
 11
125.5809179256431
 21
117.7283952302497
 31
0.0
 11
125.6138865573031
 21
117.7347532089898
 31
0.0
  0
LINE
  5
113B
330
1F
100
AcDbEntity
  8
0
  6
Continuous
100
AcDbLine
 10
125.4616961769231
 20
117.4091550235898
 30
0.0
 11
125.4545355838432
 21
117.4090380953098
 31
0.0
  0
LINE
  5
113C
330
1F
100
AcDbEntity
  8
0
  6
Continuous
100
AcDbLine
 10
125.4545355895431
 20
116.8942528017297
 30
0.0
 11
125.4616961750232
 21
116.8941358730697
 31
0.0
  0
LINE
  5
113D
330
1F
100
AcDbEntity
  8
0
  6
Continuous
100
AcDbLine
 10
125.4237193645231
 20
117.4041060783497
 30
0.0
 11
125.4545355838432
 21
117.4090380953098
 31
0.0
  0
LINE
  5
113E
330
1F
100
AcDbEntity
  8
0
  6
Continuous
100
AcDbLine
 10
125.4545355895431
 20
116.8942528017297
 30
0.0
 11
125.4237193645231
 21
116.8991848186897
 31
0.0
  0
LINE
  5
113F
330
1F
100
AcDbEntity
  8
ALL_FEATURES
  6
Continuous
100
AcDbLine
 10
125.1617764349032
 20
116.9087200910498
 30
0.0
 11
125.1637586752631
 21
116.9107023314098
 31
0.0
  0
LINE
  5
1140
330
1F
100
AcDbEntity
  8
ALL_FEATURES
  6
Continuous
100
AcDbLine
 10
125.1637586752631
 20
116.9107023314098
 30
0.0
 11
125.1653066976032
 21
116.9122503537497
 31
0.0
  0
LINE
  5
1141
330
1F
100
AcDbEntity
  8
ALL_FEATURES
  6
Continuous
100
AcDbLine
 10
125.1653066976032
 20
116.9122503537497
 30
0.0
 11
125.1802923434031
 21
116.9272359995497
 31
0.0
  0
LINE
  5
1142
330
1F
100
AcDbEntity
  8
ALL_FEATURES
  6
Continuous
100
AcDbLine
 10
125.3621203921031
 20
116.9157226451697
 30
0.0
 11
125.3506070377231
 21
116.9272359995497
 31
0.0
  0
LINE
  5
1143
330
1F
100
AcDbEntity
  8
ALL_FEATURES
  6
Continuous
100
AcDbLine
 10
125.1617764349032
 20
117.3945708056097
 30
0.0
 11
125.1637586752631
 21
117.3925885656297
 31
0.0
  0
LINE
  5
1144
330
1F
100
AcDbEntity
  8
ALL_FEATURES
  6
Continuous
100
AcDbLine
 10
125.1637586752631
 20
117.3925885656297
 30
0.0
 11
125.1653066976032
 21
117.3910405432898
 31
0.0
  0
LINE
  5
1145
330
1F
100
AcDbEntity
  8
ALL_FEATURES
  6
Continuous
100
AcDbLine
 10
125.1653066976032
 20
117.3910405432898
 30
0.0
 11
125.1802923434031
 21
117.3760548971097
 31
0.0
  0
LINE
  5
1146
330
1F
100
AcDbEntity
  8
ALL_FEATURES
  6
Continuous
100
AcDbLine
 10
125.3621203921031
 20
117.3875682514898
 30
0.0
 11
125.3506070377231
 21
117.3760548971097
 31
0.0
  0
SPLINE
  5
1147
330
1F
100
AcDbEntity
  8
0
  6
Continuous
100
AcDbSpline
210
0.0
220
0.0
230
1.0
 70
     8
 71
     3
 72
    13
 73
     9
 74
     7
 42
0.0000000001
 43
0.0000000001
 44
0.0000000001
 12
-0.0000003861767091
 22
-3.79999999999998
 32
0.0
 13
-2.846165669120329
 23
-2.517804794641718
 33
0.0
 40
0.0
 40
0.0
 40
0.0
 40
0.0
 40
0.1736765310952802
 40
0.3473666553124667
 40
0.5211011465784316
 40
0.6949082309109885
 40
0.8686522247460571
 40
1.041077804473824
 40
1.041077804473824
 40
1.041077804473824
 40
1.041077804473824
 10
143.8118955886831
 20
119.7697556847298
 30
0.0
 10
143.8118955663265
 20
119.5497654120091
 30
0.0
 10
143.7802749305073
 20
119.1091521337304
 30
0.0
 10
143.6408685241696
 20
118.4618933328401
 30
0.0
 10
143.4121789674936
 20
117.8401338062805
 30
0.0
 10
143.0969728933228
 20
117.2573840936197
 30
0.0
 10
142.7046538394352
 20
116.7257820085119
 30
0.0
 10
142.3961875842162
 20
116.4117569173889
 30
0.0
 10
142.2326036623831
 20
116.2670456002698
 30
0.0
 11
143.8118955886831
 21
119.7697556847298
 31
0.0
 11
143.7649504065431
 21
119.1114566412097
 31
0.0
 11
143.6260121921431
 21
118.4662234770298
 31
0.0
 11
143.3978006180232
 21
117.8467303599297
 31
0.0
 11
143.0839122352231
 21
117.2656188076697
 31
0.0
 11
142.6917480084832
 21
116.7344812134898
 31
0.0
 11
142.2326036623831
 21
116.2670456002698
 31
0.0
  0
SPLINE
  5
1148
330
1F
100
AcDbEntity
  8
0
  6
Continuous
100
AcDbSpline
210
0.0
220
0.0
230
1.0
 70
     8
 71
     3
 72
    11
 73
     7
 74
     5
 42
0.0000000001
 43
0.0000000001
 44
0.0000000001
 12
-2.84733051738602
 22
-2.51648741796224
 32
0.0
 13
-3.635902475470287
 23
-1.104632603569637
 33
0.0
 40
0.0
 40
0.0
 40
0.0
 40
0.0
 40
0.368653380694841
 40
0.7378562823495774
 40
1.107130688397898
 40
1.476465713484081
 40
1.476465713484081
 40
1.476465713484081
 40
1.476465713484081
 10
142.2326036623831
 20
116.2670456002698
 30
0.0
 10
141.8827109886531
 20
115.9578084022338
 30
0.0
 10
141.1483785062262
 20
115.3762455103714
 30
0.0
 10
139.9603252135773
 20
114.6263156111175
 30
0.0
 10
138.6979941317444
 20
114.0075245988186
 30
0.0
 10
137.8166483503594
 20
113.6874035016266
 30
0.0
 10
137.3690263063631
 20
113.5514103315098
 30
0.0
 11
142.2326036623831
 21
116.2670456002698
 31
0.0
 11
141.1345829574031
 21
115.3970896925097
 31
0.0
 11
139.9481476638231
 21
114.6482913252897
 31
0.0
 11
138.6881362397631
 21
114.0306657048897
 31
0.0
 11
137.3690263063631
 21
113.5514103315098
 31
0.0
  0
SPLINE
  5
1149
330
1F
100
AcDbEntity
  8
0
  6
Continuous
100
AcDbSpline
210
0.0
220
0.0
230
1.0
 70
     8
 71
     3
 72
    11
 73
     7
 74
     5
 42
0.0000000001
 43
0.0000000001
 44
0.0000000001
 12
-3.000999350437872
 22
2.331094785432687
 32
0.0
 13
-0.0038545258503811
 23
3.799998045082453
 33
0.0
 40
0.0
 40
0.0
 40
0.0
 40
0.0
 40
0.0552751840759785
 40
0.1129852473962211
 40
0.171415682369634
 40
0.2285203820468787
 40
0.2285203820468787
 40
0.2285203820468787
 40
0.2285203820468787
 10
127.0408885177631
 20
115.4757706852297
 30
0.0
 10
126.985594920594
 20
115.5187212496842
 30
0.0
 10
126.8827361492039
 20
115.6203988026119
 30
0.0
 10
126.7661318663155
 20
115.8056589331783
 30
0.0
 10
126.692175843704
 20
116.0141312536311
 30
0.0
 10
126.6750412348368
 20
116.1609556373303
 30
0.0
 10
126.6749678643231
 20
116.2332882197098
 30
0.0
 11
127.0408885177631
 21
115.4757706852297
 31
0.0
 11
126.8911759900832
 21
115.6230980585497
 31
0.0
 11
126.7738871554431
 21
115.8083952458097
 31
0.0
 11
126.6998420692432
 21
116.0177207253097
 31
0.0
 11
126.6749678643231
 21
116.2332882197098
 31
0.0
  0
LINE
  5
114A
330
1F
100
AcDbEntity
  8
0
  6
Continuous
100
AcDbLine
 10
126.6768540452432
 20
116.7795487468497
 30
0.0
 11
126.6765999517832
 21
116.7151081215098
 31
0.0
  0
LINE
  5
114B
330
1F
100
AcDbEntity
  8
0
  6
Continuous
100
AcDbLine
 10
126.6765999517832
 20
116.7151081215098
 30
0.0
 11
126.6753446027831
 21
116.4699088601897
 31
0.0
  0
SPLINE
  5
114C
330
1F
100
AcDbEntity
  8
0
  6
Continuous
100
AcDbSpline
210
0.0
220
0.0
230
1.0
 70
     8
 71
     3
 72
    10
 73
     6
 74
     4
 42
0.0000000001
 43
0.0000000001
 44
0.0000000001
 12
-3.096522325084943
 22
2.202623320100496
 32
0.0
 13
-3.007466158253903
 23
2.322745639745666
 33
0.0
 40
0.0
 40
0.0
 40
0.0
 40
0.0
 40
0.0223247667897341
 40
0.0451201998659923
 40
0.0684201908631352
 40
0.0684201908631352
 40
0.0684201908631352
 40
0.0684201908631352
 10
127.8327314940431
 20
114.8869257389097
 30
0.0
 10
127.8096884477875
 20
114.9033167562254
 30
0.0
 10
127.7633516602725
 20
114.9367763401268
 30
0.0
 10
127.6938007990991
 20
114.9884870208076
 30
0.0
 10
127.6473802219604
 20
115.0239049664648
 30
0.0
 10
127.6240222438232
 20
115.0419449506298
 30
0.0
 11
127.8327314940431
 21
114.8869257389097
 31
0.0
 11
127.7639503133831
 21
114.9365843338497
 31
0.0
 11
127.6944204666031
 21
114.9882475040298
 31
0.0
 11
127.6240222438232
 21
115.0419449506298
 31
0.0
  0
SPLINE
  5
114D
330
1F
100
AcDbEntity
  8
0
  6
Continuous
100
AcDbSpline
210
0.0
220
0.0
230
1.0
 70
     8
 71
     3
 72
    10
 73
     6
 74
     4
 42
0.0000000001
 43
0.0000000001
 44
0.0000000001
 12
-3.008194080133532
 22
2.321802828891714
 32
0.0
 13
-3.089674099720399
 23
2.212219238121968
 33
0.0
 40
0.0
 40
0.0
 40
0.0
 40
0.0
 40
0.0262694498215535
 40
0.0529597615507395
 40
0.0799401389446485
 40
0.0799401389446485
 40
0.0799401389446485
 40
0.0799401389446485
 10
127.6240222438232
 20
115.0419449506298
 30
0.0
 10
127.5976810426759
 20
115.0622757782661
 30
0.0
 10
127.5443026983596
 20
115.1029093666017
 30
0.0
 10
127.4629946111646
 20
115.1632623209929
 30
0.0
 10
127.407951862688
 20
115.2031648273023
 30
0.0
 10
127.3801650049431
 20
115.2230603306097
 30
0.0
 11
127.6240222438232
 21
115.0419449506298
 31
0.0
 11
127.5446068984431
 21
115.1024264832697
 31
0.0
 11
127.4631774535031
 21
115.1628905872098
 31
0.0
 11
127.3801650049431
 21
115.2230603306097
 31
0.0
  0
SPLINE
  5
114E
330
1F
100
AcDbEntity
  8
0
  6
Continuous
100
AcDbSpline
210
0.0
220
0.0
230
1.0
 70
     8
 71
     3
 72
    10
 73
     6
 74
     4
 42
0.0000000001
 43
0.0000000001
 44
0.0000000001
 12
-3.088936346842811
 22
2.213249250571067
 32
0.0
 13
-3.003771880571194
 23
2.327521103983761
 33
0.0
 40
0.0
 40
0.0
 40
0.0
 40
0.0
 40
0.0372240011835573
 40
0.0744471662704319
 40
0.1116734176010558
 40
0.1116734176010558
 40
0.1116734176010558
 40
0.1116734176010558
 10
127.3811051697832
 20
115.2221653527098
 30
0.0
 10
127.3427776463728
 20
115.2496273502841
 30
0.0
 10
127.2665036071692
 20
115.3050831319603
 30
0.0
 10
127.1531245252212
 20
115.389669322302
 30
0.0
 10
127.0781615734184
 20
115.4468890566983
 30
0.0
 10
127.0408885177631
 20
115.4757706852297
 30
0.0
 11
127.3811051697832
 21
115.2221653527098
 31
0.0
 11
127.2666752020631
 21
115.3053171761498
 31
0.0
 11
127.1532835410232
 21
115.3898741134298
 31
0.0
 11
127.0408885177631
 21
115.4757706852297
 31
0.0
  0
LINE
  5
114F
330
1F
100
AcDbEntity
  8
0
  6
Continuous
100
AcDbLine
 10
127.8325081205431
 20
114.8864763034097
 30
0.0
 11
127.8520143869432
 21
114.8731733371298
 31
0.0
  0
LINE
  5
1150
330
1F
100
AcDbEntity
  8
0
  6
Continuous
100
AcDbLine
 10
127.8325081205431
 20
124.6530350656697
 30
0.0
 11
127.8520143869432
 21
124.6663380319497
 31
0.0
  0
SPLINE
  5
1151
330
1F
100
AcDbEntity
  8
0
  6
Continuous
100
AcDbSpline
210
0.0
220
0.0
230
1.0
 70
     8
 71
     3
 72
    10
 73
     6
 74
     4
 42
0.0000000001
 43
0.0000000001
 44
0.0000000001
 12
-3.008194080133533
 22
-2.321802828891713
 32
0.0
 13
-3.089674099720399
 23
-2.212219238121967
 33
0.0
 40
0.0
 40
0.0
 40
0.0
 40
0.0
 40
0.0262694498215546
 40
0.0529597616103562
 40
0.0799401390042652
 40
0.0799401390042652
 40
0.0799401390042652
 40
0.0799401390042652
 10
127.6240222438232
 20
124.4975664188298
 30
0.0
 10
127.5976810426759
 20
124.4772355911934
 30
0.0
 10
127.5443026982278
 20
124.4366020029085
 30
0.0
 10
127.4629946112993
 20
124.3762490480319
 30
0.0
 10
127.407951862688
 20
124.3363465417773
 30
0.0
 10
127.3801650049431
 20
124.3164510384697
 30
0.0
 11
127.6240222438232
 21
124.4975664188298
 31
0.0
 11
127.5446068984431
 21
124.4370848861898
 31
0.0
 11
127.4631774535031
 21
124.3766207818697
 31
0.0
 11
127.3801650049431
 21
124.3164510384697
 31
0.0
  0
SPLINE
  5
1152
330
1F
100
AcDbEntity
  8
0
  6
Continuous
100
AcDbSpline
210
0.0
220
0.0
230
1.0
 70
     8
 71
     3
 72
    10
 73
     6
 74
     4
 42
0.0000000001
 43
0.0000000001
 44
0.0000000001
 12
-3.088936346842811
 22
-2.213249250571066
 32
0.0
 13
-3.003771880571195
 23
-2.32752110398376
 33
0.0
 40
0.0
 40
0.0
 40
0.0
 40
0.0
 40
0.0372240011835573
 40
0.074447166270433
 40
0.1116734176010558
 40
0.1116734176010558
 40
0.1116734176010558
 40
0.1116734176010558
 10
127.3811051697832
 20
124.3173460167497
 30
0.0
 10
127.3427776463728
 20
124.2898840191755
 30
0.0
 10
127.2665036071692
 20
124.2344282374991
 30
0.0
 10
127.1531245252212
 20
124.1498420471575
 30
0.0
 10
127.0781615734184
 20
124.0926223127611
 30
0.0
 10
127.0408885177631
 20
124.0637406842298
 30
0.0
 11
127.3811051697832
 21
124.3173460167497
 31
0.0
 11
127.2666752020631
 21
124.2341941933097
 31
0.0
 11
127.1532835410232
 21
124.1496372560297
 31
0.0
 11
127.0408885177631
 21
124.0637406842298
 31
0.0
  0
SPLINE
  5
1153
330
1F
100
AcDbEntity
  8
0
  6
Continuous
100
AcDbSpline
210
0.0
220
0.0
230
1.0
 70
     8
 71
     3
 72
    10
 73
     6
 74
     4
 42
0.0000000001
 43
0.0000000001
 44
0.0000000001
 12
-3.096522325084944
 22
-2.202623320100495
 32
0.0
 13
-3.007466158253904
 23
-2.322745639745665
 33
0.0
 40
0.0
 40
0.0
 40
0.0
 40
0.0
 40
0.022324766789733
 40
0.0451201998659913
 40
0.0684201908024854
 40
0.0684201908024854
 40
0.0684201908024854
 40
0.0684201908024854
 10
127.8327314940431
 20
124.6525856301698
 30
0.0
 10
127.8096884477875
 20
124.6361946128542
 30
0.0
 10
127.7633516602494
 20
124.602735028983
 30
0.0
 10
127.6938007992443
 20
124.5510243482082
 30
0.0
 10
127.6473802218995
 20
124.5156064029477
 30
0.0
 10
127.6240222438232
 20
124.4975664188298
 30
0.0
 11
127.8327314940431
 21
124.6525856301698
 31
0.0
 11
127.7639503133831
 21
124.6029270352297
 31
0.0
 11
127.6944204666031
 21
124.5512638650498
 31
0.0
 11
127.6240222438232
 21
124.4975664188298
 31
0.0
  0
LINE
  5
1154
330
1F
100
AcDbEntity
  8
0
  6
Continuous
100
AcDbLine
 10
126.6768540452432
 20
122.7599626222297
 30
0.0
 11
126.6765999517832
 21
122.8244032475697
 31
0.0
  0
LINE
  5
1155
330
1F
100
AcDbEntity
  8
0
  6
Continuous
100
AcDbLine
 10
126.6765999517832
 20
122.8244032475697
 30
0.0
 11
126.6753446027831
 21
123.0696025092697
 31
0.0
  0
LINE
  5
1156
330
1F
100
AcDbEntity
  8
0
  6
Continuous
100
AcDbLine
 10
126.7298956414831
 20
122.7295918233297
 30
0.0
 11
126.7357791085231
 21
122.7284051509698
 31
0.0
  0
LINE
  5
1157
330
1F
100
AcDbEntity
  8
0
  6
Continuous
100
AcDbLine
 10
126.7357791085231
 20
122.7284051509698
 30
0.0
 11
126.7366565064831
 21
122.7283242915298
 31
0.0
  0
SPLINE
  5
1158
330
1F
100
AcDbEntity
  8
0
  6
Continuous
100
AcDbSpline
210
0.0
220
0.0
230
1.0
 70
     8
 71
     3
 72
    11
 73
     7
 74
     5
 42
0.0000000001
 43
0.0000000001
 44
0.0000000001
 12
-3.000999350437873
 22
-2.331094785432687
 32
0.0
 13
-0.003854525850382
 23
-3.799998045082453
 33
0.0
 40
0.0
 40
0.0
 40
0.0
 40
0.0
 40
0.0552751840759798
 40
0.1129852473962224
 40
0.1714156823696335
 40
0.2285203820468783
 40
0.2285203820468783
 40
0.2285203820468783
 40
0.2285203820468783
 10
127.0408885177631
 20
124.0637406842298
 30
0.0
 10
126.985594920594
 20
124.0207901197753
 30
0.0
 10
126.8827361492039
 20
123.9191125668476
 30
0.0
 10
126.7661318663155
 20
123.7338524362813
 30
0.0
 10
126.692175843704
 20
123.5253801158284
 30
0.0
 10
126.6750412348368
 20
123.3785557321292
 30
0.0
 10
126.6749678643231
 20
123.3062231497498
 30
0.0
 11
127.0408885177631
 21
124.0637406842298
 31
0.0
 11
126.8911759900832
 21
123.9164133109097
 31
0.0
 11
126.7738871554431
 21
123.7311161236497
 31
0.0
 11
126.6998420692432
 21
123.5217906441498
 31
0.0
 11
126.6749678643231
 21
123.3062231497498
 31
0.0
  0
SPLINE
  5
1159
330
1F
100
AcDbEntity
  8
0
  6
Continuous
100
AcDbSpline
210
0.0
220
0.0
230
1.0
 70
     8
 71
     3
 72
    13
 73
     9
 74
     7
 42
0.0000000001
 43
0.0000000001
 44
0.0000000001
 12
-0.0000003942068477
 22
3.799999999999979
 32
0.0
 13
-2.846165669120328
 23
2.517804794641719
 33
0.0
 40
0.0
 40
0.0
 40
0.0
 40
0.0
 40
0.1736765309955317
 40
0.3473666552127182
 40
0.5211011464786832
 40
0.6949082308112401
 40
0.8686522247267562
 40
1.041077804383182
 40
1.041077804383182
 40
1.041077804383182
 40
1.041077804383182
 10
143.8118955886831
 20
119.7697556847298
 30
0.0
 10
143.8118955658617
 20
119.9897459573241
 30
0.0
 10
143.78027493069
 20
120.4303592354743
 30
0.0
 10
143.6408685241071
 20
121.0776180362338
 30
0.0
 10
143.4121789675342
 20
121.6993775628195
 30
0.0
 10
143.0969728931741
 20
122.2821272754732
 30
0.0
 10
142.7046538397198
 20
122.81372936094
 30
0.0
 10
142.3961875841485
 20
123.1277544517504
 30
0.0
 10
142.2326036623831
 20
123.2724657688097
 30
0.0
 11
143.8118955886831
 21
119.7697556847298
 31
0.0
 11
143.7649504065431
 21
120.4280547278697
 31
0.0
 11
143.6260121921431
 21
121.0732878920497
 31
0.0
 11
143.3978006180232
 21
121.6927810091498
 31
0.0
 11
143.0839122352231
 21
122.2738925614097
 31
0.0
 11
142.6917480084832
 21
122.8050301559698
 31
0.0
 11
142.2326036623831
 21
123.2724657688097
 31
0.0
  0
SPLINE
  5
115A
330
1F
100
AcDbEntity
  8
0
  6
Continuous
100
AcDbSpline
210
0.0
220
0.0
230
1.0
 70
     8
 71
     3
 72
    11
 73
     7
 74
     5
 42
0.0000000001
 43
0.0000000001
 44
0.0000000001
 12
-2.847330517386019
 22
2.51648741796224
 32
0.0
 13
-3.635902475470286
 23
1.104632603569638
 33
0.0
 40
0.0
 40
0.0
 40
0.0
 40
0.0
 40
0.3686533807569412
 40
0.7378562824116781
 40
1.107130688415986
 40
1.476465713536316
 40
1.476465713536316
 40
1.476465713536316
 40
1.476465713536316
 10
142.2326036623831
 20
123.2724657688097
 30
0.0
 10
141.8827109885942
 20
123.5817029668977
 30
0.0
 10
141.1483785063571
 20
124.1632658591078
 30
0.0
 10
139.9603252136741
 20
124.9131957584421
 30
0.0
 10
138.6979941315443
 20
125.531986770032
 30
0.0
 10
137.8166483504008
 20
125.8521078678204
 30
0.0
 10
137.3690263063631
 20
125.9881010379497
 30
0.0
 11
142.2326036623831
 21
123.2724657688097
 31
0.0
 11
141.1345829574031
 21
124.1424216769497
 31
0.0
 11
139.9481476638231
 21
124.8912200441697
 31
0.0
 11
138.6881362397631
 21
125.5088456641897
 31
0.0
 11
137.3690263063631
 21
125.9881010379497
 31
0.0
  0
LINE
  5
115B
330
1F
100
AcDbEntity
  8
0
  6
Continuous
100
AcDbLine
 10
126.7305567632031
 20
116.3119558611297
 30
0.0
 11
126.7294254317631
 21
116.3198867978097
 31
0.0
  0
SPLINE
  5
115C
330
1F
100
AcDbEntity
  8
0
  6
Continuous
100
AcDbSpline
210
0.0
220
0.0
230
1.0
 70
     8
 71
     3
 72
     9
 73
     5
 74
     3
 42
0.0000000001
 43
0.0000000001
 44
0.0000000001
 12
1.147166634987663
 22
-3.622707373163209
 32
0.0
 13
3.207236839859877
 23
-2.038046087075958
 33
0.0
 40
0.0
 40
0.0
 40
0.0
 40
0.0
 40
0.0060896132370963
 40
0.0124269711251186
 40
0.0124269711251186
 40
0.0124269711251186
 40
0.0124269711251186
 10
126.7292905496232
 20
116.3198794223897
 30
0.0
 10
126.7316191499983
 20
116.3125257934652
 30
0.0
 10
126.7410960679227
 20
116.2991729152824
 30
0.0
 10
126.7534723899878
 20
116.2893492960252
 30
0.0
 10
126.7602475258831
 20
116.2850440202097
 30
0.0
 11
126.7292905496232
 21
116.3198794223897
 31
0.0
 11
126.7416033734631
 21
116.3002866045298
 31
0.0
 11
126.7602475258831
 21
116.2850440202097
 31
0.0
  0
LINE
  5
115D
330
1F
100
AcDbEntity
  8
0
  6
Continuous
100
AcDbLine
 10
126.7305567632031
 20
123.2275555083298
 30
0.0
 11
126.7294254317631
 21
123.2196245712698
 31
0.0
  0
SPLINE
  5
115E
330
1F
100
AcDbEntity
  8
0
  6
Continuous
100
AcDbSpline
210
0.0
220
0.0
230
1.0
 70
     8
 71
     3
 72
     9
 73
     5
 74
     3
 42
0.0000000001
 43
0.0000000001
 44
0.0000000001
 12
1.147166634987664
 22
3.622707373163209
 32
0.0
 13
3.207236839859878
 23
2.038046087075957
 33
0.0
 40
0.0
 40
0.0
 40
0.0
 40
0.0
 40
0.0060896131524274
 40
0.0124269711037432
 40
0.0124269711037432
 40
0.0124269711037432
 40
0.0124269711037432
 10
126.7292905496232
 20
123.2196319470698
 30
0.0
 10
126.7316191499659
 20
123.2269855758921
 30
0.0
 10
126.7410960682324
 20
123.2403384537683
 30
0.0
 10
126.7534723899202
 20
123.2501620733915
 30
0.0
 10
126.7602475258831
 20
123.2544673492497
 30
0.0
 11
126.7292905496232
 21
123.2196319470698
 31
0.0
 11
126.7416033734631
 21
123.2392247645497
 31
0.0
 11
126.7602475258831
 21
123.2544673492497
 31
0.0
  0
SPLINE
  5
115F
330
1F
100
AcDbEntity
  8
0
  6
Continuous
100
AcDbSpline
210
0.0
220
0.0
230
1.0
 70
     8
 71
     3
 72
    10
 73
     6
 74
     4
 42
0.0000000001
 43
0.0000000001
 44
0.0000000001
 12
-0.0410572262165945
 22
3.799778191444258
 32
0.0
 13
0.8440039517922917
 23
3.705085333613652
 33
0.0
 40
0.0
 40
0.0
 40
0.0
 40
0.0
 40
0.0289026870920543
 40
0.0581909943880263
 40
0.0856495399166619
 40
0.0856495399166619
 40
0.0856495399166619
 40
0.0856495399166619
 10
126.7503683816431
 20
123.0823072924698
 30
0.0
 10
126.7499728269223
 20
123.118915225832
 30
0.0
 10
126.7525796692392
 20
123.1926864739347
 30
0.0
 10
126.7653386600811
 20
123.3005396975637
 30
0.0
 10
126.7793892843309
 20
123.3710973287362
 30
0.0
 10
126.7871143246431
 20
123.4050094135098
 30
0.0
 11
126.7503683816431
 21
123.0823072924698
 31
0.0
 11
126.7540578058232
 21
123.1920755182297
 31
0.0
 11
126.7671022265631
 21
123.3026040054298
 31
0.0
 11
126.7871143246431
 21
123.4050094135098
 31
0.0
  0
SPLINE
  5
1160
330
1F
100
AcDbEntity
  8
0
  6
Continuous
100
AcDbSpline
210
0.0
220
0.0
230
1.0
 70
     8
 71
     3
 72
    10
 73
     6
 74
     4
 42
0.0000000001
 43
0.0000000001
 44
0.0000000001
 12
2.329637787702038
 22
3.002130539818472
 32
0.0
 13
2.988880648000169
 23
2.346612978744065
 33
0.0
 40
0.0
 40
0.0
 40
0.0
 40
0.0
 40
0.0200875310445293
 40
0.0400448212056611
 40
0.0603825581413965
 40
0.0603825581413965
 40
0.0603825581413965
 40
0.0603825581413965
 10
126.9421961523832
 20
123.7361350006297
 30
0.0
 10
126.9577950428442
 20
123.7562367974359
 30
0.0
 10
126.9905669857637
 20
123.7950424646688
 30
0.0
 10
127.0445963913732
 20
123.8492875877388
 30
0.0
 10
127.083518233026
 20
123.8824102575325
 30
0.0
 10
127.1037805891432
 20
123.8983185233498
 30
0.0
 11
126.9421961523832
 21
123.7361350006297
 31
0.0
 11
126.9914434463431
 21
123.7944562883697
 31
0.0
 11
127.0449591195631
 21
123.8481910988498
 31
0.0
 11
127.1037805891432
 21
123.8983185233498
 31
0.0
  0
LINE
  5
1161
330
1F
100
AcDbEntity
  8
0
  6
Continuous
100
AcDbLine
 10
126.7503682752431
 20
123.0823174958497
 30
0.0
 11
126.7506515952631
 21
123.0554837012298
 31
0.0
  0
SPLINE
  5
1162
330
1F
100
AcDbEntity
  8
0
  6
Continuous
100
AcDbSpline
210
0.0
220
0.0
230
1.0
 70
     8
 71
     3
 72
    10
 73
     6
 74
     4
 42
0.0000000001
 43
0.0000000001
 44
0.0000000001
 12
-2.329629098970614
 22
-3.00213728220902
 32
0.0
 13
-0.844003951431862
 23
-3.705085333695757
 33
0.0
 40
0.0
 40
0.0
 40
0.0
 40
0.0
 40
0.0377637214436866
 40
0.0702597097549605
 40
0.0969081853559297
 40
0.0969081853559297
 40
0.0969081853559297
 40
0.0969081853559297
 10
126.9421958609231
 20
123.7361350002498
 30
0.0
 10
126.9128707061363
 20
123.6983443748961
 30
0.0
 10
126.8644643292137
 20
123.6230208168516
 30
0.0
 10
126.8150881507887
 20
123.5101856036916
 30
0.0
 10
126.7946131973921
 20
123.4379196051413
 30
0.0
 10
126.7871160578231
 20
123.4050079797697
 30
0.0
 11
126.9421958609231
 21
123.7361350002498
 31
0.0
 11
126.8644774142831
 21
123.6155003963297
 31
0.0
 11
126.8150249077831
 21
123.5023503434697
 31
0.0
 11
126.7871160578231
 21
123.4050079797697
 31
0.0
  0
LINE
  5
1163
330
1F
100
AcDbEntity
  8
0
  6
Continuous
100
AcDbLine
 10
127.4582621877031
 20
124.1645715243097
 30
0.0
 11
127.4665522190632
 21
124.1700582040898
 31
0.0
  0
SPLINE
  5
1164
330
1F
100
AcDbEntity
  8
0
  6
Continuous
100
AcDbSpline
210
0.0
220
0.0
230
1.0
 70
     8
 71
     3
 72
    37
 73
    33
 74
    31
 42
0.0000000001
 43
0.0000000001
 44
0.0000000001
 12
3.142610187729196
 22
2.136352313636648
 32
0.0
 13
3.76550053309011
 23
0.5108872040853017
 33
0.0
 40
0.0
 40
0.0
 40
0.0
 40
0.0
 40
0.0054878196472851
 40
0.0174627205196525
 40
0.0304331896916657
 40
0.0445493008384386
 40
0.0598735875107284
 40
0.076488911188419
 40
0.0945386806828892
 40
0.1141036551492564
 40
0.1352951283377151
 40
0.1582641673052708
 40
0.1831935611592246
 40
0.2103033588535339
 40
0.2397710426509408
 40
0.2717964616370859
 40
0.3065626933309117
 40
0.3443488449094266
 40
0.3854592847416405
 40
0.4302053364846377
 40
0.478887073839759
 40
0.5317717794177607
 40
0.5892506119963917
 40
0.6518379768325539
 40
0.7200134232779324
 40
0.7943677467233645
 40
0.8757025726477666
 40
0.9650807909946234
 40
1.064015831076013
 40
1.174170669512659
 40
1.296825998282721
 40
1.43278308833924
 40
1.43278308833924
 40
1.43278308833924
 40
1.43278308833924
 10
127.4837008275231
 20
124.1818140816898
 30
0.0
 10
127.4894495201671
 20
124.1857220537565
 30
0.0
 10
127.5077230067435
 20
124.1981860476633
 30
0.0
 10
127.5394875439068
 20
124.220026917682
 30
0.0
 10
127.5802074082175
 20
124.2481330036626
 30
0.0
 10
127.624399981126
 20
124.2786764427996
 30
0.0
 10
127.6724073889717
 20
124.3118204308829
 30
0.0
 10
127.7245667212316
 20
124.3477205147985
 30
0.0
 10
127.7812437391023
 20
124.3865308204498
 30
0.0
 10
127.8428525137815
 20
124.4283976880525
 30
0.0
 10
127.9098353215925
 20
124.4734411963729
 30
0.0
 10
127.9827952632188
 20
124.5217705043285
 30
0.0
 10
128.0625489032288
 20
124.5734108174599
 30
0.0
 10
128.1498753100221
 20
124.6284889588077
 30
0.0
 10
128.2456187991066
 20
124.6870525437877
 30
0.0
 10
128.3505457597266
 20
124.7491648137728
 30
0.0
 10
128.4654955690896
 20
124.815003448198
 30
0.0
 10
128.5913648018652
 20
124.8849041289405
 30
0.0
 10
128.7291040503999
 20
124.9594481747974
 30
0.0
 10
128.8799537041275
 20
125.0387414598742
 30
0.0
 10
129.0452582779693
 20
125.1225515723389
 30
0.0
 10
129.2264898739155
 20
125.2105575331365
 30
0.0
 10
129.4255192532937
 20
125.3021392528557
 30
0.0
 10
129.6442980415127
 20
125.3969975403034
 30
0.0
 10
129.8848314356335
 20
125.4952724160192
 30
0.0
 10
130.1497134153642
 20
125.5965640257244
 30
0.0
 10
130.442467521801
 20
125.6999126186664
 30
0.0
 10
130.7678816911253
 20
125.8038365607648
 30
0.0
 10
131.1312218154742
 20
125.9084767602957
 30
0.0
 10
131.5384028071609
 20
126.0126416637386
 30
0.0
 10
131.995279889252
 20
126.1105187438518
 30
0.0
 10
132.318727661828
 20
126.1635323204716
 30
0.0
 10
132.4893764935231
 20
126.1866852330097
 30
0.0
 11
127.4837008275231
 21
124.1818140816898
 31
0.0
 11
127.5009301156831
 21
124.1935626579698
 31
0.0
 11
127.5384410024832
 21
124.2193231726097
 31
0.0
 11
127.5790103626031
 21
124.2473126806098
 31
0.0
 11
127.6231435268831
 21
124.2778027535297
 31
0.0
 11
127.6710692272032
 21
124.3108803406898
 31
0.0
 11
127.7230836538031
 21
124.3466705000898
 31
0.0
 11
127.7796821294631
 21
124.3854142801698
 31
0.0
 11
127.8411809722632
 21
124.4271917180497
 31
0.0
 11
127.9080167208832
 21
124.4721102750697
 31
0.0
 11
127.9808049627831
 21
124.5202774851498
 31
0.0
 11
128.0603276965431
 21
124.5717578616497
 31
0.0
 11
128.1474684719431
 21
124.6267036093897
 31
0.0
 11
128.2429884282232
 21
124.6851401640497
 31
0.0
 11
128.3476984299031
 21
124.7471552919497
 31
0.0
 11
128.4623129355031
 21
124.8128592584497
 31
0.0
 11
128.5878033063432
 21
124.8826410710697
 31
0.0
 11
128.7251962446632
 21
124.9569900200898
 31
0.0
 11
128.8757244047231
 21
125.0360670275297
 31
0.0
 11
129.0407358927631
 21
125.1196895820498
 31
0.0
 11
129.2215409506832
 21
125.2074119208498
 31
0.0
 11
129.4199551550231
 21
125.2987295498498
 31
0.0
 11
129.6381162026232
 21
125.3934386362898
 31
0.0
 11
129.8779300689831
 21
125.4914430378897
 31
0.0
 11
130.1418573905232
 21
125.5923135169098
 31
0.0
 11
130.4333327060431
 21
125.6951135698097
 31
0.0
 11
130.7567955084231
 21
125.7986764168498
 31
0.0
 11
131.1180334340231
 21
125.9028298317697
 31
0.0
 11
131.5236612864831
 21
126.0061849586498
 31
0.0
 11
131.9794848608431
 21
126.1034731366297
 31
0.0
 11
132.4893764935231
 21
126.1866852330097
 31
0.0
  0
SPLINE
  5
1165
330
1F
100
AcDbEntity
  8
0
  6
Continuous
100
AcDbSpline
210
0.0
220
0.0
230
1.0
 70
     8
 71
     3
 72
    11
 73
     7
 74
     5
 42
0.0000000001
 43
0.0000000001
 44
0.0000000001
 12
2.988881997549511
 22
2.346611259822223
 32
0.0
 13
3.12809419895554
 23
2.157551084554128
 33
0.0
 40
0.0
 40
0.0
 40
0.0
 40
0.0
 40
0.0322809933674815
 40
0.0624917819640276
 40
0.0910279190681896
 40
0.1166677526378249
 40
0.1166677526378249
 40
0.1166677526378249
 40
0.1166677526378249
 10
127.1037805891432
 20
123.8983185233498
 30
0.0
 10
127.1359419491228
 20
123.9235688375212
 30
0.0
 10
127.1985206817817
 20
123.9720429193278
 30
0.0
 10
127.2903712556615
 20
124.0417541940635
 30
0.0
 10
127.3765673524695
 20
124.1049529638733
 30
0.0
 10
127.4315029238593
 20
124.1461147325878
 30
0.0
 10
127.4582375287432
 20
124.1645544828297
 30
0.0
 11
127.1037805891432
 21
123.8983185233498
 31
0.0
 11
127.2007212654831
 21
123.9734842618498
 31
0.0
 11
127.2922537442031
 21
124.0427740459098
 31
0.0
 11
127.3794142264031
 21
124.1072853079297
 31
0.0
 11
127.4582375287432
 21
124.1645544828297
 31
0.0
  0
SPLINE
  5
1166
330
1F
100
AcDbEntity
  8
0
  6
Continuous
100
AcDbSpline
210
0.0
220
0.0
230
1.0
 70
     8
 71
     3
 72
    12
 73
     8
 74
     6
 42
0.0000000001
 43
0.0000000001
 44
0.0000000001
 12
3.765390661176494
 22
0.5116963637987292
 32
0.0
 13
3.588037064653743
 23
-1.251395230401232
 33
0.0
 40
0.0
 40
0.0
 40
0.0
 40
0.0
 40
0.3563897553792683
 40
0.7075060929425164
 40
0.8826665750109649
 40
1.058396747637655
 40
1.414331672327495
 40
1.414331672327495
 40
1.414331672327495
 40
1.414331672327495
 10
132.4893879927031
 20
126.1866006149898
 30
0.0
 10
132.9367035449178
 20
126.2473883956306
 30
0.0
 10
133.8322674511641
 20
126.3190498829888
 30
0.0
 10
134.952236001777
 20
126.2773794726887
 30
0.0
 10
135.834853631734
 20
126.1653351538085
 30
0.0
 10
136.7150578768331
 20
125.9994125186014
 30
0.0
 10
137.3648459737191
 20
125.8146189233864
 30
0.0
 10
137.7905485411831
 20
125.6661471676898
 30
0.0
 11
132.4893879927031
 21
126.1866006149898
 31
0.0
 11
133.8394888287631
 21
126.2929253544697
 31
0.0
 11
135.1727868844832
 21
126.2427433859098
 31
0.0
 11
135.8330893803431
 21
126.1588561864697
 31
0.0
 11
136.4893076506431
 21
126.0351607019297
 31
0.0
 11
137.7905485411831
 21
125.6661471676898
 31
0.0
  0
SPLINE
  5
1167
330
1F
100
AcDbEntity
  8
0
  6
Continuous
100
AcDbSpline
210
0.0
220
0.0
230
1.0
 70
     8
 71
     3
 72
    11
 73
     7
 74
     5
 42
0.0000000001
 43
0.0000000001
 44
0.0000000001
 12
3.588047628771003
 22
-1.251364940243566
 32
0.0
 13
2.852931677433915
 23
-2.510135622609684
 33
0.0
 40
0.0
 40
0.0
 40
0.0
 40
0.0
 40
0.3362316186321927
 40
0.6736616054622533
 40
1.010613324694687
 40
1.304985969367989
 40
1.304985969367989
 40
1.304985969367989
 40
1.304985969367989
 10
137.7905896511031
 20
125.6662650402697
 30
0.0
 10
138.1927280050869
 20
125.5260155538172
 30
0.0
 10
138.9850970425792
 20
125.2048709939012
 30
0.0
 10
140.1193421992543
 20
124.6071212194222
 30
0.0
 10
141.1451477280528
 20
123.9300707300579
 30
0.0
 10
141.769089151677
 20
123.4279949516285
 30
0.0
 10
142.0490308326632
 20
123.1816898643897
 30
0.0
 11
137.7905896511031
 21
125.6662650402697
 31
0.0
 11
138.9746457437832
 21
125.1861840709098
 31
0.0
 11
140.1091677348431
 21
124.5887028961298
 31
0.0
 11
141.1775403184631
 21
123.8829787851898
 31
0.0
 11
142.0490308326632
 21
123.1816898643897
 31
0.0
  0
LINE
  5
1168
330
1F
100
AcDbEntity
  8
0
  6
Continuous
100
AcDbLine
 10
143.3914558161631
 20
121.0957134772897
 30
0.0
 11
143.3875865132831
 21
121.1074810976497
 31
0.0
  0
LINE
  5
1169
330
1F
100
AcDbEntity
  8
0
  6
Continuous
100
AcDbLine
 10
143.3875865132831
 20
121.1074810976497
 30
0.0
 11
143.3850465123431
 21
121.1160166945098
 31
0.0
  0
LINE
  5
116A
330
1F
100
AcDbEntity
  8
0
  6
Continuous
100
AcDbLine
 10
143.3914558161631
 20
118.4437978921698
 30
0.0
 11
143.3875865132831
 21
118.4320302714298
 31
0.0
  0
LINE
  5
116B
330
1F
100
AcDbEntity
  8
0
  6
Continuous
100
AcDbLine
 10
143.3875865132831
 20
118.4320302714298
 30
0.0
 11
143.3850465123431
 21
118.4234946749498
 31
0.0
  0
SPLINE
  5
116C
330
1F
100
AcDbEntity
  8
0
  6
Continuous
100
AcDbSpline
210
0.0
220
0.0
230
1.0
 70
     8
 71
     3
 72
    11
 73
     7
 74
     5
 42
0.0000000001
 43
0.0000000001
 44
0.0000000001
 12
3.588047628771003
 22
1.251364940243565
 32
0.0
 13
2.852931677433915
 23
2.510135622609683
 33
0.0
 40
0.0
 40
0.0
 40
0.0
 40
0.0
 40
0.3362316186321903
 40
0.6736616054622533
 40
1.010613324639571
 40
1.304985969375563
 40
1.304985969375563
 40
1.304985969375563
 40
1.304985969375563
 10
137.7905896511031
 20
113.8732463291898
 30
0.0
 10
138.1927280050869
 20
114.0134958156423
 30
0.0
 10
138.9850970426059
 20
114.3346403755202
 30
0.0
 10
140.1193421990989
 20
114.9323901501387
 30
0.0
 10
141.1451477283326
 20
115.6094406388955
 30
0.0
 10
141.7690891516173
 20
116.1115164177786
 30
0.0
 10
142.0490308326632
 20
116.3578215050698
 30
0.0
 11
137.7905896511031
 21
113.8732463291898
 31
0.0
 11
138.974645743783
 21
114.3533272985498
 31
0.0
 11
140.1091677348431
 21
114.9508084733298
 31
0.0
 11
141.1775403184631
 21
115.6565325838897
 31
0.0
 11
142.0490308326632
 21
116.3578215050698
 31
0.0
  0
SPLINE
  5
116D
330
1F
100
AcDbEntity
  8
0
  6
Continuous
100
AcDbSpline
210
0.0
220
0.0
230
1.0
 70
     8
 71
     3
 72
    12
 73
     8
 74
     6
 42
0.0000000001
 43
0.0000000001
 44
0.0000000001
 12
3.765390661176494
 22
-0.5116963637987301
 32
0.0
 13
3.588037064653743
 23
1.251395230401231
 33
0.0
 40
0.0
 40
0.0
 40
0.0
 40
0.0
 40
0.3563897553792683
 40
0.7075060929387535
 40
0.8826665750072017
 40
1.058396747633892
 40
1.414331672323734
 40
1.414331672323734
 40
1.414331672323734
 40
1.414331672323734
 10
132.4893879927031
 20
113.3529107544697
 30
0.0
 10
132.9367035449178
 20
113.2921229738288
 30
0.0
 10
133.8322674511531
 20
113.2204614866359
 30
0.0
 10
134.9522360017842
 20
113.2621318963245
 30
0.0
 10
135.8348536317335
 20
113.3741762152834
 30
0.0
 10
136.7150578768333
 20
113.5400988504704
 30
0.0
 10
137.3648459737191
 20
113.7248924456931
 30
0.0
 10
137.7905485411831
 20
113.8733642013898
 30
0.0
 11
132.4893879927031
 21
113.3529107544697
 31
0.0
 11
133.8394888287631
 21
113.2465860149897
 31
0.0
 11
135.1727868844831
 21
113.2967679831697
 31
0.0
 11
135.8330893803431
 21
113.3806551826098
 31
0.0
 11
136.4893076506431
 21
113.5043506671497
 31
0.0
 11
137.7905485411831
 21
113.8733642013898
 31
0.0
  0
SPLINE
  5
116E
330
1F
100
AcDbEntity
  8
0
  6
Continuous
100
AcDbSpline
210
0.0
220
0.0
230
1.0
 70
     8
 71
     3
 72
    37
 73
    33
 74
    31
 42
0.0000000001
 43
0.0000000001
 44
0.0000000001
 12
3.142610187729196
 22
-2.136352313636649
 32
0.0
 13
3.76550053309011
 23
-0.5108872040853026
 33
0.0
 40
0.0
 40
0.0
 40
0.0
 40
0.0
 40
0.0054878197036232
 40
0.0174627205759915
 40
0.0304331896912158
 40
0.0445493008379897
 40
0.0598735875670814
 40
0.076488911244773
 40
0.0945386807392432
 40
0.1141036552056094
 40
0.1352951283382868
 40
0.1582641673058434
 40
0.1831935611597972
 40
0.2103033588541066
 40
0.2397710427036996
 40
0.271796461638885
 40
0.3065626933327116
 40
0.3443488449598254
 40
0.3854592847444476
 40
0.4302053364874447
 40
0.4788870738877696
 40
0.5317717794657706
 40
0.5892506120025933
 40
0.6518379768387553
 40
0.7200134232841339
 40
0.7943677467295666
 40
0.8757025726872294
 40
0.9650807910035936
 40
1.064015831084983
 40
1.174170669521629
 40
1.296825998291691
 40
1.43278308834821
 40
1.43278308834821
 40
1.43278308834821
 40
1.43278308834821
 10
127.4837008275231
 20
115.3576972877697
 30
0.0
 10
127.4894495202262
 20
115.3537893156629
 30
0.0
 10
127.5077230065074
 20
115.3413253211964
 30
0.0
 10
127.5394875438598
 20
115.319484451457
 30
0.0
 10
127.580207408314
 20
115.2913783658097
 30
0.0
 10
127.6243999812285
 20
115.2608349266818
 30
0.0
 10
127.6724073888464
 20
115.2276909381416
 30
0.0
 10
127.7245667212485
 20
115.1917908543055
 30
0.0
 10
127.7812437391101
 20
115.1529805486415
 30
0.0
 10
127.8428525136665
 20
115.1111136809824
 30
0.0
 10
127.9098353217207
 20
115.0660701731506
 30
0.0
 10
127.9827952632014
 20
115.0177408651056
 30
0.0
 10
128.062548903219
 20
114.9661005519826
 30
0.0
 10
128.1498753101446
 20
114.911022410726
 30
0.0
 10
128.2456187988753
 20
114.8524588251617
 30
0.0
 10
128.3505457598547
 20
114.7903465557734
 30
0.0
 10
128.465495569182
 20
114.7245079213047
 30
0.0
 10
128.5913648016512
 20
114.6546072400016
 30
0.0
 10
128.7291040505234
 20
114.5800631947619
 30
0.0
 10
128.8799537042016
 20
114.5007699096077
 30
0.0
 10
129.0452582778749
 20
114.4169597966821
 30
0.0
 10
129.2264898738365
 20
114.328953835895
 30
0.0
 10
129.4255192533948
 20
114.2373721166976
 30
0.0
 10
129.644298041499
 20
114.1425138291282
 30
0.0
 10
129.8848314356273
 20
114.0442389534188
 30
0.0
 10
130.1497134154498
 20
113.9429473438547
 30
0.0
 10
130.4424675216402
 20
113.839598750189
 30
0.0
 10
130.7678816912227
 20
113.7356748088683
 30
0.0
 10
131.1312218154553
 20
113.6310346091061
 30
0.0
 10
131.5384028071668
 20
113.5268697057392
 30
0.0
 10
131.9952798892501
 20
113.4289926256016
 30
0.0
 10
132.318727661828
 20
113.3759790489879
 30
0.0
 10
132.4893764935231
 20
113.3528261364497
 30
0.0
 11
127.4837008275231
 21
115.3576972877697
 31
0.0
 11
127.5009301156831
 21
115.3459487111098
 31
0.0
 11
127.5384410024832
 21
115.3201881964698
 31
0.0
 11
127.5790103626031
 21
115.2921986888497
 31
0.0
 11
127.6231435268831
 21
115.2617086159297
 31
0.0
 11
127.6710692272032
 21
115.2286310283898
 31
0.0
 11
127.7230836538031
 21
115.1928408689897
 31
0.0
 11
127.7796821294631
 21
115.1540970889098
 31
0.0
 11
127.8411809722632
 21
115.1123196510298
 31
0.0
 11
127.9080167208832
 21
115.0674010943897
 31
0.0
 11
127.9808049627831
 21
115.0192338843097
 31
0.0
 11
128.0603276965431
 21
114.9677535078098
 31
0.0
 11
128.1474684719431
 21
114.9128077600698
 31
0.0
 11
128.2429884282232
 21
114.8543712050297
 31
0.0
 11
128.3476984299031
 21
114.7923560775097
 31
0.0
 11
128.4623129355031
 21
114.7266521110097
 31
0.0
 11
128.5878033063432
 21
114.6568702980097
 31
0.0
 11
128.7251962446632
 21
114.5825213493697
 31
0.0
 11
128.8757244047231
 21
114.5034443419298
 31
0.0
 11
129.0407358927631
 21
114.4198217870298
 31
0.0
 11
129.2215409506832
 21
114.3320994482297
 31
0.0
 11
129.4199551550231
 21
114.2407818196098
 31
0.0
 11
129.6381162026232
 21
114.1460727331697
 31
0.0
 11
129.8779300689831
 21
114.0480683315697
 31
0.0
 11
130.1418573905232
 21
113.9471978525497
 31
0.0
 11
130.4333327060431
 21
113.8443977992698
 31
0.0
 11
130.7567955084231
 21
113.7408349526097
 31
0.0
 11
131.1180334340231
 21
113.6366815376897
 31
0.0
 11
131.5236612864831
 21
113.5333264108097
 31
0.0
 11
131.9794848608431
 21
113.4360382328297
 31
0.0
 11
132.4893764935231
 21
113.3528261364497
 31
0.0
  0
SPLINE
  5
116F
330
1F
100
AcDbEntity
  8
0
  6
Continuous
100
AcDbSpline
210
0.0
220
0.0
230
1.0
 70
     8
 71
     3
 72
    11
 73
     7
 74
     5
 42
0.0000000001
 43
0.0000000001
 44
0.0000000001
 12
2.98888199754951
 22
-2.346611259822223
 32
0.0
 13
3.128094198955539
 23
-2.157551084554129
 33
0.0
 40
0.0
 40
0.0
 40
0.0
 40
0.0
 40
0.0322809933062057
 40
0.0624917819631082
 40
0.0910279190672702
 40
0.1166677525781254
 40
0.1166677525781254
 40
0.1166677525781254
 40
0.1166677525781254
 10
127.1037805891432
 20
115.6411928457297
 30
0.0
 10
127.1359419490618
 20
115.6159425316062
 30
0.0
 10
127.1985206820528
 20
115.5674684502316
 30
0.0
 10
127.2903712555441
 20
115.4977571749898
 30
0.0
 10
127.3765673523368
 20
115.4345584051489
 30
0.0
 10
127.4315029239206
 20
115.3933966368295
 30
0.0
 10
127.4582375287432
 20
115.3749568866297
 30
0.0
 11
127.1037805891432
 21
115.6411928457297
 31
0.0
 11
127.2007212654831
 21
115.5660271076097
 31
0.0
 11
127.2922537442031
 21
115.4967373231697
 31
0.0
 11
127.3794142264031
 21
115.4322260611497
 31
0.0
 11
127.4582375287432
 21
115.3749568866297
 31
0.0
  0
LINE
  5
1170
330
1F
100
AcDbEntity
  8
0
  6
Continuous
100
AcDbLine
 10
127.4582621877031
 20
115.3749398447698
 30
0.0
 11
127.4665522190632
 21
115.3694531649898
 31
0.0
  0
SPLINE
  5
1171
330
1F
100
AcDbEntity
  8
0
  6
Continuous
100
AcDbSpline
210
0.0
220
0.0
230
1.0
 70
     8
 71
     3
 72
    10
 73
     6
 74
     4
 42
0.0000000001
 43
0.0000000001
 44
0.0000000001
 12
-2.329629098970613
 22
3.002137282209021
 32
0.0
 13
-0.8440039514318613
 23
3.705085333695758
 33
0.0
 40
0.0
 40
0.0
 40
0.0
 40
0.0
 40
0.0377637214436851
 40
0.0702597097549573
 40
0.0969081854520554
 40
0.0969081854520554
 40
0.0969081854520554
 40
0.0969081854520554
 10
126.9421958609231
 20
115.8033763688298
 30
0.0
 10
126.9128707061363
 20
115.8411669941834
 30
0.0
 10
126.8644643292331
 20
115.9164905522333
 30
0.0
 10
126.8150881506864
 20
116.0293257654848
 30
0.0
 10
126.7946131974191
 20
116.1015917641995
 30
0.0
 10
126.7871160578231
 20
116.1345033896898
 30
0.0
 11
126.9421958609231
 21
115.8033763688298
 31
0.0
 11
126.8644774142831
 21
115.9240109727497
 31
0.0
 11
126.8150249077831
 21
116.0371610256097
 31
0.0
 11
126.7871160578231
 21
116.1345033896898
 31
0.0
  0
LINE
  5
1172
330
1F
100
AcDbEntity
  8
0
  6
Continuous
100
AcDbLine
 10
126.7503682752431
 20
116.4571938736097
 30
0.0
 11
126.7506515952631
 21
116.4840276682297
 31
0.0
  0
SPLINE
  5
1173
330
1F
100
AcDbEntity
  8
0
  6
Continuous
100
AcDbSpline
210
0.0
220
0.0
230
1.0
 70
     8
 71
     3
 72
    10
 73
     6
 74
     4
 42
0.0000000001
 43
0.0000000001
 44
0.0000000001
 12
2.329637787702037
 22
-3.002130539818472
 32
0.0
 13
2.988880648000168
 23
-2.346612978744066
 33
0.0
 40
0.0
 40
0.0
 40
0.0
 40
0.0
 40
0.020087531044532
 40
0.0400448212056638
 40
0.0603825582062598
 40
0.0603825582062598
 40
0.0603825582062598
 40
0.0603825582062598
 10
126.9421961523832
 20
115.8033763688298
 30
0.0
 10
126.9577950428442
 20
115.7832745720236
 30
0.0
 10
126.9905669857389
 20
115.7444689047616
 30
0.0
 10
127.0445963915182
 20
115.6902237817642
 30
0.0
 10
127.0835182329614
 20
115.6571011115977
 30
0.0
 10
127.1037805891432
 20
115.6411928457297
 30
0.0
 11
126.9421961523832
 21
115.8033763688298
 31
0.0
 11
126.9914434463431
 21
115.7450550810897
 31
0.0
 11
127.0449591195631
 21
115.6913202706097
 31
0.0
 11
127.1037805891432
 21
115.6411928457297
 31
0.0
  0
SPLINE
  5
1174
330
1F
100
AcDbEntity
  8
0
  6
Continuous
100
AcDbSpline
210
0.0
220
0.0
230
1.0
 70
     8
 71
     3
 72
    10
 73
     6
 74
     4
 42
0.0000000001
 43
0.0000000001
 44
0.0000000001
 12
-0.0410572262165954
 22
-3.799778191444258
 32
0.0
 13
0.844003951792291
 23
-3.705085333613653
 33
0.0
 40
0.0
 40
0.0
 40
0.0
 40
0.0
 40
0.0289026870920543
 40
0.0581909943880263
 40
0.0856495400148054
 40
0.0856495400148054
 40
0.0856495400148054
 40
0.0856495400148054
 10
126.7503683816431
 20
116.4572040769897
 30
0.0
 10
126.7499728269223
 20
116.4205961436276
 30
0.0
 10
126.7525796692282
 20
116.3468248955228
 30
0.0
 10
126.7653386601338
 20
116.2389716717796
 30
0.0
 10
126.7793892843033
 20
116.1684140404645
 30
0.0
 10
126.7871143246431
 20
116.1345019555698
 30
0.0
 11
126.7503683816431
 21
116.4572040769897
 31
0.0
 11
126.7540578058232
 21
116.3474358512297
 31
0.0
 11
126.7671022265631
 21
116.2369073640297
 31
0.0
 11
126.7871143246431
 21
116.1345019555698
 31
0.0
  0
SPLINE
  5
1175
330
1F
100
AcDbEntity
  8
0
  6
Continuous
100
AcDbSpline
210
0.0
220
0.0
230
1.0
 70
     8
 71
     3
 72
    13
 73
     9
 74
     7
 42
0.0000000001
 43
0.0000000001
 44
0.0000000001
 12
3.799571603042317
 22
-0.057058157650219
 32
0.0
 13
3.66029563192702
 23
-1.020899547896843
 33
0.0
 40
0.0
 40
0.0
 40
0.0
 40
0.0
 40
0.00853465126583
 40
0.0245035369883357
 40
0.0385129544542835
 40
0.0499893305072121
 40
0.058531639493854
 40
0.0637080126048008
 40
0.0637080126048008
 40
0.0637080126048008
 40
0.0637080126048008
 10
127.1008562201032
 20
118.1153299479098
 30
0.0
 10
127.1116655596336
 20
118.1151676240839
 30
0.0
 10
127.1426982200014
 20
118.1146143941333
 30
0.0
 10
127.1914684019025
 20
118.1133324198865
 30
0.0
 10
127.2439280412668
 20
118.1112043507956
 30
0.0
 10
127.2869833940897
 20
118.1086855313173
 30
0.0
 10
127.318714795243
 20
118.1057048730091
 30
0.0
 10
127.3360251524874
 20
118.1034069673193
 30
0.0
 10
127.3423408377831
 20
118.1016454483297
 30
0.0
 11
127.1008562201032
 21
118.1153299479098
 31
0.0
 11
127.1332827164031
 21
118.1147504061097
 31
0.0
 11
127.1939424048231
 21
118.1131136731497
 31
0.0
 11
127.2471321300031
 21
118.1108996077097
 31
0.0
 11
127.2906572897231
 21
118.1081770087898
 31
0.0
 11
127.3229666111232
 21
118.1050449792497
 31
0.0
 11
127.3423408377831
 21
118.1016454483297
 31
0.0
  0
SPLINE
  5
1176
330
1F
100
AcDbEntity
  8
0
  6
Continuous
100
AcDbSpline
210
0.0
220
0.0
230
1.0
 70
     8
 71
     3
 72
    13
 73
     9
 74
     7
 42
0.0000000001
 43
0.0000000001
 44
0.0000000001
 12
-3.660295631530915
 22
-1.020899549317019
 32
0.0
 13
-3.799576697644015
 23
-0.0567178871309285
 33
0.0
 40
0.0
 40
0.0
 40
0.0
 40
0.0
 40
0.0051895465601756
 40
0.013779802700307
 40
0.0253282059516139
 40
0.0393865299258422
 40
0.0553425052465368
 40
0.0638469966484562
 40
0.0638469966484562
 40
0.0638469966484562
 40
0.0638469966484562
 10
127.3423408377831
 20
121.4378659207497
 30
0.0
 10
127.3360090795818
 20
121.436099918835
 30
0.0
 10
127.3186209725886
 20
121.4337952640992
 30
0.0
 10
127.2867215001888
 20
121.4308047452772
 30
0.0
 10
127.2434517913476
 20
121.4282831621455
 30
0.0
 10
127.1908551177957
 20
121.4261588904733
 30
0.0
 10
127.1420773780647
 20
121.4248833895843
 30
0.0
 10
127.1110992100885
 20
121.4243342347443
 30
0.0
 10
127.1003280543032
 20
121.4241734491497
 30
0.0
 11
127.3423408377831
 21
121.4378659207497
 31
0.0
 11
127.3229168835632
 21
121.4344601426297
 31
0.0
 11
127.2904256386831
 21
121.4313164641898
 31
0.0
 11
127.2466267284831
 21
121.4285860824897
 31
0.0
 11
127.1932509002031
 21
121.4263743806498
 31
0.0
 11
127.1326400205032
 21
121.4247476276298
 31
0.0
 11
127.1003280543032
 21
121.4241734491497
 31
0.0
  0
SPLINE
  5
1177
330
1F
100
AcDbEntity
  8
0
  6
Continuous
100
AcDbSpline
210
0.0
220
0.0
230
1.0
 70
     8
 71
     3
 72
    14
 73
    10
 74
     8
 42
0.0000000001
 43
0.0000000001
 44
0.0000000001
 12
0.6179157907193899
 22
3.749423965835236
 32
0.0
 13
3.799726584528063
 23
-0.0455838000905625
 33
0.0
 40
0.0
 40
0.0
 40
0.0
 40
0.0
 40
0.0021447501789455
 40
0.0055171389891711
 40
0.0102085372288283
 40
0.015975813776423
 40
0.0225323334127684
 40
0.0295396963681764
 40
0.0366101787578914
 40
0.0366101787578914
 40
0.0366101787578914
 40
0.0366101787578914
 10
126.7915901276631
 20
121.4181645961697
 30
0.0
 10
126.7920318859974
 20
121.420845122077
 30
0.0
 10
126.8024765636303
 20
121.4196864267047
 30
0.0
 10
126.8131902627407
 20
121.4221839591497
 30
0.0
 10
126.8316165097588
 20
121.4225707935046
 30
0.0
 10
126.8528136737412
 20
121.4235571153277
 30
0.0
 10
126.877407635076
 20
121.4239865052209
 30
0.0
 10
126.9035105177518
 20
121.4241970371697
 30
0.0
 10
126.9213505209359
 20
121.4240908420217
 30
0.0
 10
126.9303058209031
 20
121.4239834088697
 30
0.0
 11
126.7915901276631
 21
121.4181645961697
 31
0.0
 11
126.7994490824631
 21
121.4203233355098
 31
0.0
 11
126.8122047712231
 21
121.4215556565097
 31
0.0
 11
126.8300012435832
 21
121.4226038317897
 31
0.0
 11
126.8519018823831
 21
121.4234148642697
 31
0.0
 11
126.8768111552231
 21
121.4239384297898
 31
0.0
 11
126.9034384126231
 21
121.4241344942097
 31
0.0
 11
126.9303058209031
 21
121.4239834088697
 31
0.0
  0
LINE
  5
1178
330
1F
100
AcDbEntity
  8
0
  6
Continuous
100
AcDbLine
 10
127.3483447218831
 20
121.4388185066497
 30
0.0
 11
127.3423408377831
 21
121.4378659207497
 31
0.0
  0
SPLINE
  5
1179
330
1F
100
AcDbEntity
  8
0
  6
Continuous
100
AcDbSpline
210
0.0
220
0.0
230
1.0
 70
     8
 71
     3
 72
     9
 73
     5
 74
     3
 42
0.0000000001
 43
0.0000000001
 44
0.0000000001
 12
3.783707165198368
 22
-0.3515111492207896
 32
0.0
 13
2.975443627494816
 23
-2.363627555178795
 33
0.0
 40
0.0
 40
0.0
 40
0.0
 40
0.0
 40
0.0012838122184279
 40
0.0015800683764144
 40
0.0015800683764144
 40
0.0015800683764144
 40
0.0015800683764144
 10
127.3423408377831
 20
118.1016454483297
 30
0.0
 10
127.343960027613
 20
118.1014950235604
 30
0.0
 10
127.3460955896197
 20
118.1017144973118
 30
0.0
 10
127.3478505174773
 20
118.1006740364425
 30
0.0
 10
127.3481443486431
 20
118.1004406233698
 30
0.0
 11
127.3423408377831
 21
118.1016454483297
 31
0.0
 11
127.3471790532632
 21
118.1010199079098
 31
0.0
 11
127.3481443486431
 21
118.1004406233698
 31
0.0
  0
SPLINE
  5
117A
330
1F
100
AcDbEntity
  8
0
  6
Continuous
100
AcDbSpline
210
0.0
220
0.0
230
1.0
 70
     8
 71
     3
 72
    14
 73
    10
 74
     8
 42
0.0000000001
 43
0.0000000001
 44
0.0000000001
 12
-3.799943905416213
 22
-0.0206474136436939
 32
0.0
 13
-0.6219777904615939
 23
3.748752276181037
 33
0.0
 40
0.0
 40
0.0
 40
0.0
 40
0.0
 40
0.0035234838516334
 40
0.0105293184560255
 40
0.0170898879998517
 40
0.0228587717830666
 40
0.0275484463700197
 40
0.0309174094636974
 40
0.0330603491697011
 40
0.0330603491697011
 40
0.0330603491697011
 40
0.0330603491697011
 10
126.9168172405831
 20
118.1154082229697
 30
0.0
 10
126.9123542269205
 20
118.1153839726936
 30
0.0
 10
126.899013265913
 20
118.115349481895
 30
0.0
 10
126.8773965418234
 20
118.1155253356022
 30
0.0
 10
126.8527967196058
 20
118.1159545642676
 30
0.0
 10
126.831594446478
 20
118.1169414759839
 30
0.0
 10
126.8131742553183
 20
118.1173291967587
 30
0.0
 10
126.8024642136855
 20
118.1198241803849
 30
0.0
 10
126.7920348915309
 20
118.1186690465429
 30
0.0
 10
126.7915906045631
 20
118.1213468299097
 30
0.0
 11
126.9168172405831
 21
118.1154082229697
 31
0.0
 11
126.9034280386231
 21
118.1153768839897
 31
0.0
 11
126.8768065895231
 21
118.1155730038898
 31
0.0
 11
126.8518819342832
 21
118.1160970759498
 31
0.0
 11
126.8299752078831
 21
118.1169087586098
 31
0.0
 11
126.8121853102831
 21
118.1179571634098
 31
0.0
 11
126.7994426414631
 21
118.1191888798298
 31
0.0
 11
126.7915906045631
 21
118.1213468299097
 31
0.0
  0
LINE
  5
117B
330
1F
100
AcDbEntity
  8
0
  6
Continuous
100
AcDbLine
 10
126.6770359884831
 20
122.7427887099497
 30
0.0
 11
126.6769676337031
 21
122.7599631732297
 31
0.0
  0
LINE
  5
117C
330
1F
100
AcDbEntity
  8
0
  6
Continuous
100
AcDbLine
 10
126.6769676337031
 20
122.7599631732297
 30
0.0
 11
126.6767863585031
 21
122.7959330182898
 31
0.0
  0
LINE
  5
117D
330
1F
100
AcDbEntity
  8
0
  6
Continuous
100
AcDbLine
 10
126.6767863585031
 20
122.7959330182898
 30
0.0
 11
126.6766129975631
 21
122.8244033357298
 31
0.0
  0
LINE
  5
117E
330
1F
100
AcDbEntity
  8
0
  6
Continuous
100
AcDbLine
 10
126.6766129975631
 20
122.8244033357298
 30
0.0
 11
126.6747878150031
 21
123.0690512178097
 31
0.0
  0
LINE
  5
117F
330
1F
100
AcDbEntity
  8
0
  6
Continuous
100
AcDbLine
 10
126.6770359884831
 20
116.7967226595097
 30
0.0
 11
126.6769676337031
 21
116.7795481958497
 31
0.0
  0
LINE
  5
1180
330
1F
100
AcDbEntity
  8
0
  6
Continuous
100
AcDbLine
 10
126.6769676337031
 20
116.7795481958497
 30
0.0
 11
126.6767863585031
 21
116.7435783507897
 31
0.0
  0
LINE
  5
1181
330
1F
100
AcDbEntity
  8
0
  6
Continuous
100
AcDbLine
 10
126.6767863585031
 20
116.7435783507897
 30
0.0
 11
126.6766129975631
 21
116.7151080333497
 31
0.0
  0
LINE
  5
1182
330
1F
100
AcDbEntity
  8
0
  6
Continuous
100
AcDbLine
 10
126.6766129975631
 20
116.7151080333497
 30
0.0
 11
126.6747878150031
 21
116.4704601512698
 31
0.0
  0
LINE
  5
1183
330
1F
100
AcDbEntity
  8
0
  6
Continuous
100
AcDbLine
 10
143.3914558161631
 20
118.4437978921698
 30
0.0
 11
143.3875828269031
 21
118.4320315421498
 31
0.0
  0
LINE
  5
1184
330
1F
100
AcDbEntity
  8
0
  6
Continuous
100
AcDbLine
 10
143.3875828269031
 20
118.4320315421498
 30
0.0
 11
143.3850385084031
 21
118.4234678936897
 31
0.0
  0
LINE
  5
1185
330
1F
100
AcDbEntity
  8
0
  6
Continuous
100
AcDbLine
 10
143.3914558161631
 20
121.0957134772897
 30
0.0
 11
143.3875828269031
 21
121.1074798269297
 31
0.0
  0
LINE
  5
1186
330
1F
100
AcDbEntity
  8
0
  6
Continuous
100
AcDbLine
 10
143.3875828269031
 20
121.1074798269297
 30
0.0
 11
143.3850385084031
 21
121.1160434757698
 31
0.0
  0
ELLIPSE
  5
1187
330
1F
100
AcDbEntity
  8
ALL_FEATURES
  6
Continuous
100
AcDbEllipse
 10
124.0547747286031
 20
121.7902680358097
 30
0.0
 11
0.02529006476
 21
0.02770820312
 31
0.0
210
0.0
220
0.0
230
1.0
 40
0.9969918804000002
 41
2.3120996427
 42
3.971085664399999
  0
ELLIPSE
  5
1188
330
1F
100
AcDbEntity
  8
ALL_FEATURES
  6
Continuous
100
AcDbEllipse
 10
124.0547747286031
 20
122.9854638060697
 30
0.0
 11
0.02529006476
 21
-0.02770820312
 31
0.0
210
0.0
220
0.0
230
1.0
 40
0.9969918803999998
 41
2.3120996427
 42
3.971085664399999
  0
ELLIPSE
  5
1189
330
1F
100
AcDbEntity
  8
ALL_FEATURES
  6
Continuous
100
AcDbEllipse
 10
126.5581367062432
 20
122.9068991203297
 30
0.0
 11
-0.02204648812
 21
-0.1481928385199999
 31
0.0
210
0.0
220
0.0
230
0.9999999999999998
 40
0.9985484243000001
 41
-3.380152178099999
 42
-2.9030331291
  0
ELLIPSE
  5
118A
330
1F
100
AcDbEntity
  8
ALL_FEATURES
  6
Continuous
100
AcDbEllipse
 10
126.5581367062432
 20
121.8688327215497
 30
0.0
 11
0.02204648812
 21
-0.1481928385199999
 31
0.0
210
0.0
220
0.0
230
1.0
 40
0.9985484243000001
 41
-0.2385595245
 42
0.2385595245
  0
ELLIPSE
  5
118B
330
1F
100
AcDbEntity
  8
0
  6
Continuous
100
AcDbEllipse
 10
126.4200425356831
 20
121.9203462359497
 30
0.0
 11
-0.09532360192
 21
0.0
 31
0.0
210
0.0
220
0.0
230
1.0
 40
0.9999998956999998
 41
-1.226573053199999
 42
0.1795871227
  0
ELLIPSE
  5
118C
330
1F
100
AcDbEntity
  8
0
  6
Continuous
100
AcDbEllipse
 10
126.4200425356831
 20
121.9203462359497
 30
0.0
 11
-0.09532360192
 21
0.0
 31
0.0
210
0.0
220
0.0
230
1.0
 40
0.9999998956999998
 41
1.914016857299999
 42
3.321759460299999
  0
ELLIPSE
  5
118D
330
1F
100
AcDbEntity
  8
0
  6
Continuous
100
AcDbEllipse
 10
126.4200425356831
 20
122.8553856059297
 30
0.0
 11
-0.09532360192
 21
0.0
 31
0.0
210
0.0
220
0.0
230
1.0
 40
0.9999998956999998
 41
2.9614258468
 42
4.3691684497
  0
ELLIPSE
  5
118E
330
1F
100
AcDbEntity
  8
0
  6
Continuous
100
AcDbEllipse
 10
126.4200425356831
 20
122.8553856059297
 30
0.0
 11
-0.09532360192
 21
0.0
 31
0.0
210
0.0
220
0.0
230
1.0
 40
0.9999998956999998
 41
-0.1795871222
 42
1.2265730537
  0
ELLIPSE
  5
118F
330
1F
100
AcDbEntity
  8
ALL_FEATURES
  6
Continuous
100
AcDbEllipse
 10
125.1614048310031
 20
122.1634564719698
 30
0.0
 11
0.0
 21
-0.01870078724
 31
0.0
210
0.0
220
0.0
230
1.0
 40
0.1416666667
 41
0.0
 42
0.140730194
  0
ELLIPSE
  5
1190
330
1F
100
AcDbEntity
  8
ALL_FEATURES
  6
Continuous
100
AcDbEllipse
 10
125.1614048310031
 20
122.6122753695297
 30
0.0
 11
0.0
 21
-0.01870078724
 31
0.0
210
0.0
220
0.0
230
1.0
 40
0.1416666667
 41
-3.282322847599999
 42
-3.1415926536
  0
ELLIPSE
  5
1191
330
1F
100
AcDbEntity
  8
ALL_FEATURES
  6
Continuous
100
AcDbEllipse
 10
125.3809821515232
 20
122.1634564719698
 30
0.0
 11
-0.02393591652
 21
0.0
 31
0.0
210
0.0
220
0.0
230
1.0
 40
0.7812856265000001
 41
0.6632251158
 42
1.5707963268
  0
ELLIPSE
  5
1192
330
1F
100
AcDbEntity
  8
ALL_FEATURES
  6
Continuous
100
AcDbEllipse
 10
125.3809821515232
 20
122.6122753695297
 30
0.0
 11
-0.02393591652
 21
0.0
 31
0.0
210
0.0
220
0.0
230
1.0
 40
0.7812856265000001
 41
-1.5707963268
 42
-0.6632251158
  0
ELLIPSE
  5
1193
330
1F
100
AcDbEntity
  8
ALL_FEATURES
  6
Continuous
100
AcDbEllipse
 10
124.0547747286031
 20
116.5540475630098
 30
0.0
 11
0.02529006476
 21
0.02770820312
 31
0.0
210
0.0
220
0.0
230
1.0
 40
0.9969918804000002
 41
2.3120996427
 42
3.971085664399999
  0
ELLIPSE
  5
1194
330
1F
100
AcDbEntity
  8
ALL_FEATURES
  6
Continuous
100
AcDbEllipse
 10
124.0547747286031
 20
117.7492433336497
 30
0.0
 11
0.02529006476
 21
-0.02770820312
 31
0.0
210
0.0
220
0.0
230
1.0
 40
0.9969918803999998
 41
2.3120996427
 42
3.971085664399999
  0
ELLIPSE
  5
1195
330
1F
100
AcDbEntity
  8
ALL_FEATURES
  6
Continuous
100
AcDbEllipse
 10
126.5581367062432
 20
117.6706786479097
 30
0.0
 11
-0.02204648812
 21
-0.1481928385199999
 31
0.0
210
0.0
220
0.0
230
0.9999999999999998
 40
0.9985484243000001
 41
-3.380152178099999
 42
-2.9030331291
  0
ELLIPSE
  5
1196
330
1F
100
AcDbEntity
  8
ALL_FEATURES
  6
Continuous
100
AcDbEllipse
 10
126.5581367062432
 20
116.6326122491297
 30
0.0
 11
0.02204648812
 21
-0.1481928385199999
 31
0.0
210
0.0
220
0.0
230
1.0
 40
0.9985484243000001
 41
-0.2385595245
 42
0.2385595245
  0
ELLIPSE
  5
1197
330
1F
100
AcDbEntity
  8
0
  6
Continuous
100
AcDbEllipse
 10
126.4200425356831
 20
116.6841257635297
 30
0.0
 11
-0.09532360192
 21
0.0
 31
0.0
210
0.0
220
0.0
230
1.0
 40
0.9999998956999998
 41
-1.226573053199999
 42
0.1795871227
  0
ELLIPSE
  5
1198
330
1F
100
AcDbEntity
  8
0
  6
Continuous
100
AcDbEllipse
 10
126.4200425356831
 20
116.6841257635297
 30
0.0
 11
-0.09532360192
 21
0.0
 31
0.0
210
0.0
220
0.0
230
1.0
 40
0.9999998956999998
 41
1.914016856699999
 42
3.3217594597
  0
ELLIPSE
  5
1199
330
1F
100
AcDbEntity
  8
0
  6
Continuous
100
AcDbEllipse
 10
126.4200425356831
 20
117.6191651335097
 30
0.0
 11
-0.09532360192
 21
0.0
 31
0.0
210
0.0
220
0.0
230
1.0
 40
0.9999998956999998
 41
2.9614258475
 42
4.3691684504
  0
ELLIPSE
  5
119A
330
1F
100
AcDbEntity
  8
0
  6
Continuous
100
AcDbEllipse
 10
126.4200425356831
 20
117.6191651335097
 30
0.0
 11
-0.09532360192
 21
0.0
 31
0.0
210
0.0
220
0.0
230
1.0
 40
0.9999998956999998
 41
-0.179587121
 42
1.226573055
  0
ELLIPSE
  5
119B
330
1F
100
AcDbEntity
  8
ALL_FEATURES
  6
Continuous
100
AcDbEllipse
 10
125.1614048310031
 20
116.9272359995497
 30
0.0
 11
0.0
 21
-0.01870078724
 31
0.0
210
0.0
220
0.0
230
1.0
 40
0.1416666667
 41
0.0
 42
0.140730194
  0
ELLIPSE
  5
119C
330
1F
100
AcDbEntity
  8
ALL_FEATURES
  6
Continuous
100
AcDbEllipse
 10
125.1614048310031
 20
117.3760548971097
 30
0.0
 11
0.0
 21
-0.01870078724
 31
0.0
210
0.0
220
0.0
230
1.0
 40
0.1416666667
 41
-3.282322847599999
 42
-3.1415926536
  0
ELLIPSE
  5
119D
330
1F
100
AcDbEntity
  8
ALL_FEATURES
  6
Continuous
100
AcDbEllipse
 10
125.3809821515232
 20
116.9272359995497
 30
0.0
 11
-0.02393591652
 21
0.0
 31
0.0
210
0.0
220
0.0
230
1.0
 40
0.7812856265000001
 41
0.6632251158
 42
1.5707963268
  0
ELLIPSE
  5
119E
330
1F
100
AcDbEntity
  8
ALL_FEATURES
  6
Continuous
100
AcDbEllipse
 10
125.3809821515232
 20
117.3760548971097
 30
0.0
 11
-0.02393591652
 21
0.0
 31
0.0
210
0.0
220
0.0
230
1.0
 40
0.7812856265000001
 41
-1.5707963268
 42
-0.6632251158
  0
ELLIPSE
  5
119F
330
1F
100
AcDbEntity
  8
0
  6
Continuous
100
AcDbEllipse
 10
126.8796312499831
 20
116.8096001732298
 30
0.0
 11
-0.15001034204
 21
0.0
 31
0.0
210
0.0
220
0.0
230
1.0
 40
0.0349524389
 41
5.9757051459
 42
6.2222376086
  0
ELLIPSE
  5
11A0
330
1F
100
AcDbEntity
  8
0
  6
Continuous
100
AcDbEllipse
 10
127.0296446605232
 20
118.1016454483297
 30
0.0
 11
-0.08976377936
 21
0.0
 31
0.0
210
0.0
220
0.0
230
1.0
 40
0.0174550649
 41
0.0
 42
3.1415926536
  0
ELLIPSE
  5
11A1
330
1F
100
AcDbEntity
  8
0
  6
Continuous
100
AcDbEllipse
 10
127.0296446605232
 20
121.4378659207497
 30
0.0
 11
-0.08976377936
 21
0.0
 31
0.0
210
0.0
220
0.0
230
1.0
 40
0.0174550649
 41
3.1415926536
 42
6.2831853072
  0
ELLIPSE
  5
11A2
330
1F
100
AcDbEntity
  8
0
  6
Continuous
100
AcDbEllipse
 10
126.7326494004031
 20
121.9759507547297
 30
0.0
 11
-0.0022851509
 21
-0.0755465954
 31
0.0
210
0.0
220
0.0
230
1.0
 40
0.2105223279
 41
3.290979009299999
 42
4.855094125599999
  0
ELLIPSE
  5
11A3
330
1F
100
AcDbEntity
  8
0
  6
Continuous
100
AcDbEllipse
 10
126.7326494004031
 20
117.5635606147297
 30
0.0
 11
0.0022851509
 21
-0.0755465954
 31
0.0
210
0.0
220
0.0
230
1.0
 40
0.2105223279
 41
-1.713501471999999
 42
-0.1493863557
  0
ELLIPSE
  5
11A4
330
1F
100
AcDbEntity
  8
0
  6
Continuous
100
AcDbEllipse
 10
127.0296446605232
 20
118.1016454483297
 30
0.0
 11
-0.08976377936
 21
0.0
 31
0.0
210
0.0
220
0.0
230
1.0
 40
0.0524077793
 41
-3.1415926536
 42
0.0
  0
ELLIPSE
  5
11A5
330
1F
100
AcDbEntity
  8
0
  6
Continuous
100
AcDbEllipse
 10
127.0296446605232
 20
121.4378659207497
 30
0.0
 11
-0.08976377936
 21
0.0
 31
0.0
210
0.0
220
0.0
230
1.0
 40
0.0524077793
 41
0.0
 42
3.1415926536
  0
ELLIPSE
  5
11A6
330
1F
100
AcDbEntity
  8
0
  6
Continuous
100
AcDbEllipse
 10
126.7914864549231
 20
121.5126804651498
 30
0.0
 11
-0.0710361873
 21
-0.0237963923
 31
0.0
210
0.0
220
0.0
230
1.0
 40
0.9984935395999999
 41
5.960398550999999
 42
7.5302867298
  0
ELLIPSE
  5
11A7
330
1F
100
AcDbEntity
  8
0
  6
Continuous
100
AcDbEllipse
 10
126.7914864549231
 20
118.0268309043097
 30
0.0
 11
-0.0710361873
 21
0.0237963923
 31
0.0
210
0.0
220
0.0
230
1.0
 40
0.9984935395999999
 41
-1.2471014226
 42
0.3227867562
  0
ENDSEC
  0
SECTION
  2
OBJECTS
  0
DICTIONARY
  5
C
330
0
100
AcDbDictionary
281
     1
  3
ACAD_COLOR
350
C9
  3
ACAD_GROUP
350
D
  3
ACAD_LAYOUT
350
1A
  3
ACAD_MATERIAL
350
C8
  3
ACAD_MLEADERSTYLE
350
2EC
  3
ACAD_MLINESTYLE
350
17
  3
ACAD_PLOTSETTINGS
350
19
  3
ACAD_PLOTSTYLENAME
350
E
  3
ACAD_SCALELIST
350
2CA
  3
ACAD_TABLESTYLE
350
123
  3
ACAD_VISUALSTYLE
350
296
  3
ACDB_RECOMPOSE_DATA
350
30D
  3
AcDbVariableDictionary
350
9E
  3
AcmDictionary
350
63
  3
AMG
350
49
  3
AMGSNAPSETTINGS
350
58A
  0
DICTIONARY
  5
DD9
330
8
100
AcDbDictionary
280
     1
281
     1
  0
DICTIONARY
  5
B0B
330
10
100
AcDbDictionary
280
     1
281
     1
  3
ADSK_XREC_LAYER_RECONCILED
360
B0C
  0
DICTIONARY
  5
B0D
330
38C
100
AcDbDictionary
280
     1
281
     1
  3
ADSK_XREC_LAYER_RECONCILED
360
B0E
  0
DICTIONARY
  5
790
330
78F
100
AcDbDictionary
280
     1
281
     1
  3
ADSK_XREC_LAYER_RECONCILED
360
B0F
  0
DICTIONARY
  5
E2D
330
E2C
100
AcDbDictionary
280
     1
281
     1
  0
DICTIONARY
  5
E2F
330
E2E
100
AcDbDictionary
280
     1
281
     1
  0
DICTIONARY
  5
99
330
1F
100
AcDbDictionary
280
     1
281
     1
  0
DICTIONARY
  5
C9
102
{ACAD_REACTORS
330
C
102
}
330
C
100
AcDbDictionary
281
     1
  0
DICTIONARY
  5
D
102
{ACAD_REACTORS
330
C
102
}
330
C
100
AcDbDictionary
281
     1
  0
DICTIONARY
  5
1A
102
{ACAD_REACTORS
330
C
102
}
330
C
100
AcDbDictionary
281
     1
  3
Layout1
350
1E
  3
Layout2
350
26
  3
Model
350
22
  0
DICTIONARY
  5
C8
102
{ACAD_REACTORS
330
C
102
}
330
C
100
AcDbDictionary
281
     1
  3
ByBlock
350
294
  3
ByLayer
350
293
  3
Global
350
295
  0
DICTIONARY
  5
2EC
102
{ACAD_REACTORS
330
C
102
}
330
C
100
AcDbDictionary
281
     1
  3
Standard
350
2ED
  0
DICTIONARY
  5
17
102
{ACAD_REACTORS
330
C
102
}
330
C
100
AcDbDictionary
281
     1
  3
Standard
350
18
  0
DICTIONARY
  5
19
102
{ACAD_REACTORS
330
C
102
}
330
C
100
AcDbDictionary
281
     1
  0
ACDBDICTIONARYWDFLT
  5
E
102
{ACAD_REACTORS
330
C
102
}
330
C
100
AcDbDictionary
281
     1
  3
Normal
350
F
100
AcDbDictionaryWithDefault
340
F
  0
DICTIONARY
  5
2CA
102
{ACAD_REACTORS
330
C
102
}
330
C
100
AcDbDictionary
281
     1
  3
A0
350
2CB
  3
A1
350
2CC
  3
A2
350
2CD
  3
A3
350
2CE
  3
A4
350
2CF
  3
A5
350
2D0
  3
A6
350
2D1
  3
A7
350
2D2
  3
A8
350
2D3
  3
A9
350
2D4
  3
B0
350
2D5
  3
B1
350
2D6
  3
B2
350
2D7
  3
B3
350
2D8
  3
B4
350
2D9
  3
B5
350
2DA
  3
B6
350
2DB
  3
B7
350
2DC
  3
B8
350
2DD
  3
B9
350
2DE
  3
C0
350
2DF
  3
C1
350
2E0
  3
C2
350
2E1
  3
C3
350
2E2
  3
C4
350
2E3
  3
C5
350
2E4
  3
C6
350
2E5
  3
C7
350
2E6
  3
C8
350
2E7
  3
C9
350
2E8
  3
D0
350
2E9
  3
D1
350
2EA
  3
D2
350
2EB
  0
DICTIONARY
  5
123
102
{ACAD_REACTORS
330
C
102
}
330
C
100
AcDbDictionary
281
     1
  3
Standard
350
124
  0
DICTIONARY
  5
296
102
{ACAD_REACTORS
330
C
102
}
330
C
100
AcDbDictionary
281
     1
  3
2dWireframe
350
29C
  3
3D Hidden
350
29E
  3
3dWireframe
350
29D
  3
Basic
350
29B
  3
Brighten
350
2A2
  3
ColorChange
350
2A6
  3
Conceptual
350
29F
  3
Dim
350
2A1
  3
Facepattern
350
2A5
  3
Flat
350
297
  3
FlatWithEdges
350
298
  3
Gouraud
350
299
  3
GouraudWithEdges
350
29A
  3
Linepattern
350
2A4
  3
Realistic
350
2A0
  3
Thicken
350
2A3
  0
XRECORD
  5
30D
102
{ACAD_REACTORS
330
C
102
}
330
C
100
AcDbXrecord
280
     1
 90
        1
330
124
  0
DICTIONARY
  5
9E
102
{ACAD_REACTORS
330
C
102
}
330
C
100
AcDbDictionary
281
     1
  3
CANNOSCALE
350
310
  3
CMLEADERSTYLE
350
30E
  3
CTABLESTYLE
350
144
  3
DIMASSOC
350
A0
  3
INDEXCTL
350
9F
  3
LAYEREVAL
350
36B
  3
LAYERNOTIFY
350
36C
  3
LIGHTINGUNITS
350
311
  3
MSLTSCALE
350
30F
  0
DICTIONARY
  5
63
102
{ACAD_REACTORS
330
C
102
}
330
C
100
AcDbDictionary
281
     1
  3
AcmStdDictionary
350
69
  3
AMDTSECTSYM_ARROWCOLOR
350
12C
  0
DICTIONARY
  5
49
102
{ACAD_REACTORS
330
C
102
}
330
C
100
AcDbDictionary
281
     1
  0
DICTIONARY
  5
58A
102
{ACAD_REACTORS
330
C
102
}
330
C
100
AcDbDictionary
281
     1
  0
XRECORD
  5
B0C
102
{ACAD_REACTORS
330
B0B
102
}
330
B0B
100
AcDbXrecord
280
     1
290
     1
  0
XRECORD
  5
B0E
102
{ACAD_REACTORS
330
B0D
102
}
330
B0D
100
AcDbXrecord
280
     1
290
     1
  0
XRECORD
  5
B0F
102
{ACAD_REACTORS
330
790
102
}
330
790
100
AcDbXrecord
280
     1
290
     1
  0
LAYOUT
  5
1E
102
{ACAD_REACTORS
330
1A
102
}
330
1A
100
AcDbPlotSettings
  1

  2

  4

  6

 40
0.0
 41
0.0
 42
0.0
 43
0.0
 44
0.0
 45
0.0
 46
0.0
 47
0.0
 48
0.0
 49
0.0
140
0.0
141
0.0
142
1.0
143
1.0
 70
   688
 72
     0
 73
     0
 74
     5
  7

 75
    16
147
1.0
 76
     0
 77
     2
 78
   300
148
0.0
149
0.0
100
AcDbLayout
  1
Layout1
 70
     1
 71
     1
 10
0.0
 20
0.0
 11
12.0
 21
9.0
 12
0.0
 22
0.0
 32
0.0
 14
1.000000000000000E+20
 24
1.000000000000000E+20
 34
1.000000000000000E+20
 15
-1.000000000000000E+20
 25
-1.000000000000000E+20
 35
-1.000000000000000E+20
146
0.0
 13
0.0
 23
0.0
 33
0.0
 16
1.0
 26
0.0
 36
0.0
 17
0.0
 27
1.0
 37
0.0
 76
     0
330
1B
  0
LAYOUT
  5
26
102
{ACAD_REACTORS
330
1A
102
}
330
1A
100
AcDbPlotSettings
  1

  2

  4

  6

 40
0.0
 41
0.0
 42
0.0
 43
0.0
 44
0.0
 45
0.0
 46
0.0
 47
0.0
 48
0.0
 49
0.0
140
0.0
141
0.0
142
1.0
143
1.0
 70
   688
 72
     0
 73
     0
 74
     5
  7

 75
    16
147
1.0
 76
     0
 77
     2
 78
   300
148
0.0
149
0.0
100
AcDbLayout
  1
Layout2
 70
     1
 71
     2
 10
0.0
 20
0.0
 11
12.0
 21
9.0
 12
0.0
 22
0.0
 32
0.0
 14
0.0
 24
0.0
 34
0.0
 15
0.0
 25
0.0
 35
0.0
146
0.0
 13
0.0
 23
0.0
 33
0.0
 16
1.0
 26
0.0
 36
0.0
 17
0.0
 27
1.0
 37
0.0
 76
     0
330
23
  0
LAYOUT
  5
22
102
{ACAD_REACTORS
330
1A
102
}
330
1A
100
AcDbPlotSettings
  1

  2

  4

  6

 40
0.0
 41
0.0
 42
0.0
 43
0.0
 44
0.0
 45
0.0
 46
0.0
 47
0.0
 48
0.0
 49
0.0
140
0.0
141
0.0
142
1.0
143
1.0
 70
  1712
 72
     0
 73
     0
 74
     0
  7

 75
     0
147
1.0
 76
     0
 77
     2
 78
   300
148
0.0
149
0.0
100
AcDbLayout
  1
Model
 70
     1
 71
     0
 10
0.0
 20
0.0
 11
12.0
 21
9.0
 12
0.0
 22
0.0
 32
0.0
 14
0.0
 24
0.0
 34
0.0
 15
0.0
 25
0.0
 35
0.0
146
0.0
 13
0.0
 23
0.0
 33
0.0
 16
1.0
 26
0.0
 36
0.0
 17
0.0
 27
1.0
 37
0.0
 76
     0
330
1F
331
291
  0
MATERIAL
  5
294
102
{ACAD_REACTORS
330
C8
102
}
330
C8
100
AcDbMaterial
  1
ByBlock
 73
     1
 78
     1
172
     1
176
     1
270
     1
274
     1
 94
       63
  0
MATERIAL
  5
293
102
{ACAD_REACTORS
330
C8
102
}
330
C8
100
AcDbMaterial
  1
ByLayer
 73
     1
 78
     1
172
     1
176
     1
270
     1
274
     1
 94
       63
  0
MATERIAL
  5
295
102
{ACAD_REACTORS
330
C8
102
}
330
C8
100
AcDbMaterial
  1
Global
 73
     1
 78
     1
172
     1
176
     1
270
     1
274
     1
 94
       63
  0
MLEADERSTYLE
  5
2ED
102
{ACAD_REACTORS
330
2EC
102
}
330
2EC
100
AcDbMLeaderStyle
170
     2
171
     1
172
     0
 90
        2
 40
0.0
 41
0.0
173
     1
 91
-1056964608
340
14
 92
       -2
290
     1
 42
0.09
291
     1
 43
0.36
  3
Standard
 44
0.18
300

342
11
174
     1
178
     6
175
     1
176
     0
 93
-1056964608
 45
0.18
292
     0
297
     0
 46
0.18
 94
-1056964608
 47
1.0
 49
1.0
140
1.0
293
     1
141
0.0
294
     1
177
     0
142
1.0
295
     0
296
     0
143
0.125
1001
ACAD_MLEADERVER
1070
     2
  0
MLINESTYLE
  5
18
102
{ACAD_REACTORS
330
17
102
}
330
17
100
AcDbMlineStyle
  2
STANDARD
 70
     0
  3

 62
   256
 51
90.0
 52
90.0
 71
     2
 49
0.5
 62
   256
  6
BYLAYER
 49
-0.5
 62
   256
  6
BYLAYER
  0
ACDBPLACEHOLDER
  5
F
102
{ACAD_REACTORS
330
E
102
}
330
E
  0
SCALE
  5
2CB
102
{ACAD_REACTORS
330
2CA
102
}
330
2CA
100
AcDbScale
 70
     0
300
1:1
140
1.0
141
1.0
290
     1
  0
SCALE
  5
2CC
102
{ACAD_REACTORS
330
2CA
102
}
330
2CA
100
AcDbScale
 70
     0
300
1:2
140
1.0
141
2.0
290
     0
  0
SCALE
  5
2CD
102
{ACAD_REACTORS
330
2CA
102
}
330
2CA
100
AcDbScale
 70
     0
300
1:4
140
1.0
141
4.0
290
     0
  0
SCALE
  5
2CE
102
{ACAD_REACTORS
330
2CA
102
}
330
2CA
100
AcDbScale
 70
     0
300
1:5
140
1.0
141
5.0
290
     0
  0
SCALE
  5
2CF
102
{ACAD_REACTORS
330
2CA
102
}
330
2CA
100
AcDbScale
 70
     0
300
1:8
140
1.0
141
8.0
290
     0
  0
SCALE
  5
2D0
102
{ACAD_REACTORS
330
2CA
102
}
330
2CA
100
AcDbScale
 70
     0
300
1:10
140
1.0
141
10.0
290
     0
  0
SCALE
  5
2D1
102
{ACAD_REACTORS
330
2CA
102
}
330
2CA
100
AcDbScale
 70
     0
300
1:16
140
1.0
141
16.0
290
     0
  0
SCALE
  5
2D2
102
{ACAD_REACTORS
330
2CA
102
}
330
2CA
100
AcDbScale
 70
     0
300
1:20
140
1.0
141
20.0
290
     0
  0
SCALE
  5
2D3
102
{ACAD_REACTORS
330
2CA
102
}
330
2CA
100
AcDbScale
 70
     0
300
1:30
140
1.0
141
30.0
290
     0
  0
SCALE
  5
2D4
102
{ACAD_REACTORS
330
2CA
102
}
330
2CA
100
AcDbScale
 70
     0
300
1:40
140
1.0
141
40.0
290
     0
  0
SCALE
  5
2D5
102
{ACAD_REACTORS
330
2CA
102
}
330
2CA
100
AcDbScale
 70
     0
300
1:50
140
1.0
141
50.0
290
     0
  0
SCALE
  5
2D6
102
{ACAD_REACTORS
330
2CA
102
}
330
2CA
100
AcDbScale
 70
     0
300
1:100
140
1.0
141
100.0
290
     0
  0
SCALE
  5
2D7
102
{ACAD_REACTORS
330
2CA
102
}
330
2CA
100
AcDbScale
 70
     0
300
2:1
140
2.0
141
1.0
290
     0
  0
SCALE
  5
2D8
102
{ACAD_REACTORS
330
2CA
102
}
330
2CA
100
AcDbScale
 70
     0
300
4:1
140
4.0
141
1.0
290
     0
  0
SCALE
  5
2D9
102
{ACAD_REACTORS
330
2CA
102
}
330
2CA
100
AcDbScale
 70
     0
300
8:1
140
8.0
141
1.0
290
     0
  0
SCALE
  5
2DA
102
{ACAD_REACTORS
330
2CA
102
}
330
2CA
100
AcDbScale
 70
     0
300
10:1
140
10.0
141
1.0
290
     0
  0
SCALE
  5
2DB
102
{ACAD_REACTORS
330
2CA
102
}
330
2CA
100
AcDbScale
 70
     0
300
100:1
140
100.0
141
1.0
290
     0
  0
SCALE
  5
2DC
102
{ACAD_REACTORS
330
2CA
102
}
330
2CA
100
AcDbScale
 70
     0
300
1/128" = 1'-0"
140
0.0078125
141
12.0
290
     0
  0
SCALE
  5
2DD
102
{ACAD_REACTORS
330
2CA
102
}
330
2CA
100
AcDbScale
 70
     0
300
1/64" = 1'-0"
140
0.015625
141
12.0
290
     0
  0
SCALE
  5
2DE
102
{ACAD_REACTORS
330
2CA
102
}
330
2CA
100
AcDbScale
 70
     0
300
1/32" = 1'-0"
140
0.03125
141
12.0
290
     0
  0
SCALE
  5
2DF
102
{ACAD_REACTORS
330
2CA
102
}
330
2CA
100
AcDbScale
 70
     0
300
1/16" = 1'-0"
140
0.0625
141
12.0
290
     0
  0
SCALE
  5
2E0
102
{ACAD_REACTORS
330
2CA
102
}
330
2CA
100
AcDbScale
 70
     0
300
3/32" = 1'-0"
140
0.09375
141
12.0
290
     0
  0
SCALE
  5
2E1
102
{ACAD_REACTORS
330
2CA
102
}
330
2CA
100
AcDbScale
 70
     0
300
1/8" = 1'-0"
140
0.125
141
12.0
290
     0
  0
SCALE
  5
2E2
102
{ACAD_REACTORS
330
2CA
102
}
330
2CA
100
AcDbScale
 70
     0
300
3/16" = 1'-0"
140
0.1875
141
12.0
290
     0
  0
SCALE
  5
2E3
102
{ACAD_REACTORS
330
2CA
102
}
330
2CA
100
AcDbScale
 70
     0
300
1/4" = 1'-0"
140
0.25
141
12.0
290
     0
  0
SCALE
  5
2E4
102
{ACAD_REACTORS
330
2CA
102
}
330
2CA
100
AcDbScale
 70
     0
300
3/8" = 1'-0"
140
0.375
141
12.0
290
     0
  0
SCALE
  5
2E5
102
{ACAD_REACTORS
330
2CA
102
}
330
2CA
100
AcDbScale
 70
     0
300
1/2" = 1'-0"
140
0.5
141
12.0
290
     0
  0
SCALE
  5
2E6
102
{ACAD_REACTORS
330
2CA
102
}
330
2CA
100
AcDbScale
 70
     0
300
3/4" = 1'-0"
140
0.75
141
12.0
290
     0
  0
SCALE
  5
2E7
102
{ACAD_REACTORS
330
2CA
102
}
330
2CA
100
AcDbScale
 70
     0
300
1" = 1'-0"
140
1.0
141
12.0
290
     0
  0
SCALE
  5
2E8
102
{ACAD_REACTORS
330
2CA
102
}
330
2CA
100
AcDbScale
 70
     0
300
1-1/2" = 1'-0"
140
1.5
141
12.0
290
     0
  0
SCALE
  5
2E9
102
{ACAD_REACTORS
330
2CA
102
}
330
2CA
100
AcDbScale
 70
     0
300
3" = 1'-0"
140
3.0
141
12.0
290
     0
  0
SCALE
  5
2EA
102
{ACAD_REACTORS
330
2CA
102
}
330
2CA
100
AcDbScale
 70
     0
300
6" = 1'-0"
140
6.0
141
12.0
290
     0
  0
SCALE
  5
2EB
102
{ACAD_REACTORS
330
2CA
102
}
330
2CA
100
AcDbScale
 70
     0
300
1'-0" = 1'-0"
140
12.0
141
12.0
290
     0
  0
TABLESTYLE
  5
124
102
{ACAD_XDICTIONARY
360
30B
102
}
102
{ACAD_REACTORS
330
123
102
}
330
123
100
AcDbTableStyle
  3
Standard
 70
     0
 71
     0
 40
0.06
 41
0.06
280
     0
281
     0
  7
STANDARD
140
0.18
170
     2
 62
     0
 63
     7
283
     0
 90
      512
 91
        0
  1

274
    -2
284
     1
 64
     0
275
    -2
285
     1
 65
     0
276
    -2
286
     1
 66
     0
277
    -2
287
     1
 67
     0
278
    -2
288
     1
 68
     0
279
    -2
289
     1
 69
     0
  7
STANDARD
140
0.25
170
     5
 62
     0
 63
     7
283
     0
 90
      512
 91
        0
  1

274
    -2
284
     1
 64
     0
275
    -2
285
     1
 65
     0
276
    -2
286
     1
 66
     0
277
    -2
287
     1
 67
     0
278
    -2
288
     1
 68
     0
279
    -2
289
     1
 69
     0
  7
STANDARD
140
0.18
170
     5
 62
     0
 63
     7
283
     0
 90
      512
 91
        0
  1

274
    -2
284
     1
 64
     0
275
    -2
285
     1
 65
     0
276
    -2
286
     1
 66
     0
277
    -2
287
     1
 67
     0
278
    -2
288
     1
 68
     0
279
    -2
289
     1
 69
     0
  0
VISUALSTYLE
  5
29C
102
{ACAD_REACTORS
330
296
102
}
330
296
100
AcDbVisualStyle
  2
2dWireframe
 70
     4
 71
     0
 72
     2
 73
     0
 90
        0
 40
-0.6
 41
-30.0
 62
     5
 63
     7
421
 16777215
 74
     1
 91
        4
 64
     7
 65
   257
 75
     1
175
     1
 42
1.0
 92
        0
 66
   257
 43
1.0
 76
     1
 77
     6
 78
     2
 67
     7
 79
     5
170
     0
171
     0
290
     0
174
     0
 93
        1
 44
0.0
173
     0
291
     0
 45
0.0
  0
VISUALSTYLE
  5
29E
102
{ACAD_REACTORS
330
296
102
}
330
296
100
AcDbVisualStyle
  2
3D Hidden
 70
     6
 71
     1
 72
     2
 73
     2
 90
        0
 40
-0.6
 41
-30.0
 62
     5
 63
     7
421
 16777215
 74
     2
 91
        2
 64
     7
 65
   257
 75
     2
175
     1
 42
40.0
 92
        0
 66
   257
 43
1.0
 76
     1
 77
     6
 78
     2
 67
     7
 79
     3
170
     0
171
     0
290
     0
174
     0
 93
        1
 44
0.0
173
     0
291
     0
 45
0.0
  0
VISUALSTYLE
  5
29D
102
{ACAD_REACTORS
330
296
102
}
330
296
100
AcDbVisualStyle
  2
3dWireframe
 70
     5
 71
     0
 72
     2
 73
     0
 90
        0
 40
-0.6
 41
-30.0
 62
     5
 63
     7
421
 16777215
 74
     1
 91
        4
 64
     7
 65
   257
 75
     1
175
     1
 42
1.0
 92
        0
 66
   257
 43
1.0
 76
     1
 77
     6
 78
     2
 67
     7
 79
     5
170
     0
171
     0
290
     0
174
     0
 93
        1
 44
0.0
173
     0
291
     0
 45
0.0
  0
VISUALSTYLE
  5
29B
102
{ACAD_REACTORS
330
296
102
}
330
296
100
AcDbVisualStyle
  2
Basic
 70
     7
 71
     1
 72
     0
 73
     1
 90
        0
 40
-0.6
 41
-30.0
 62
     5
 63
     7
421
 16777215
 74
     0
 91
        4
 64
     7
 65
   257
 75
     1
175
     1
 42
1.0
 92
        8
 66
     7
 43
1.0
 76
     1
 77
     6
 78
     2
 67
     7
 79
     5
170
     0
171
     0
290
     0
174
     0
 93
        1
 44
0.0
173
     0
291
     1
 45
0.0
  0
VISUALSTYLE
  5
2A2
102
{ACAD_REACTORS
330
296
102
}
330
296
100
AcDbVisualStyle
  2
Brighten
 70
    12
 71
     2
 72
     2
 73
     0
 90
        0
 40
-0.6
 41
-30.0
 62
     5
 63
     7
421
 16777215
 74
     1
 91
        4
 64
     7
 65
   257
 75
     1
175
     1
 42
1.0
 92
        8
 66
     7
 43
1.0
 76
     1
 77
     6
 78
     2
 67
     7
 79
     5
170
     0
171
     0
290
     0
174
     0
 93
        1
 44
50.0
173
     0
291
     1
 45
0.0
  0
VISUALSTYLE
  5
2A6
102
{ACAD_REACTORS
330
296
102
}
330
296
100
AcDbVisualStyle
  2
ColorChange
 70
    16
 71
     2
 72
     2
 73
     3
 90
        0
 40
-0.6
 41
-30.0
 62
     5
 63
     8
421
  8421504
 74
     1
 91
        4
 64
     7
 65
   257
 75
     1
175
     1
 42
1.0
 92
        8
 66
     8
424
  8421504
 43
1.0
 76
     1
 77
     6
 78
     2
 67
     7
 79
     5
170
     0
171
     0
290
     0
174
     0
 93
        1
 44
0.0
173
     0
291
     1
 45
0.0
  0
VISUALSTYLE
  5
29F
102
{ACAD_REACTORS
330
296
102
}
330
296
100
AcDbVisualStyle
  2
Conceptual
 70
     9
 71
     3
 72
     2
 73
     0
 90
        0
 40
-0.6
 41
-30.0
 62
     5
 63
     7
421
 16777215
 74
     2
 91
        2
 64
     7
 65
   257
 75
     1
175
     1
 42
40.0
 92
        8
 66
     7
 43
1.0
 76
     1
 77
     6
 78
     2
 67
     7
 79
     3
170
     0
171
     0
290
     0
174
     0
 93
        1
 44
0.0
173
     0
291
     0
 45
0.0
  0
VISUALSTYLE
  5
2A1
102
{ACAD_REACTORS
330
296
102
}
330
296
100
AcDbVisualStyle
  2
Dim
 70
    11
 71
     2
 72
     2
 73
     0
 90
        0
 40
-0.6
 41
-30.0
 62
     5
 63
     7
421
 16777215
 74
     1
 91
        4
 64
     7
 65
   257
 75
     1
175
     1
 42
1.0
 92
        8
 66
     7
 43
1.0
 76
     1
 77
     6
 78
     2
 67
     7
 79
     5
170
     0
171
     0
290
     0
174
     0
 93
        1
 44
-50.0
173
     0
291
     1
 45
0.0
  0
VISUALSTYLE
  5
2A5
102
{ACAD_REACTORS
330
296
102
}
330
296
100
AcDbVisualStyle
  2
Facepattern
 70
    15
 71
     2
 72
     2
 73
     0
 90
        0
 40
-0.6
 41
-30.0
 62
     5
 63
     7
421
 16777215
 74
     1
 91
        4
 64
     7
 65
   257
 75
     1
175
     1
 42
1.0
 92
        8
 66
     7
 43
1.0
 76
     1
 77
     6
 78
     2
 67
     7
 79
     5
170
     0
171
     0
290
     0
174
     0
 93
        1
 44
0.0
173
     0
291
     1
 45
0.0
  0
VISUALSTYLE
  5
297
102
{ACAD_REACTORS
330
296
102
}
330
296
100
AcDbVisualStyle
  2
Flat
 70
     0
 71
     2
 72
     1
 73
     1
 90
        2
 40
-0.6
 41
30.0
 62
     5
 63
     7
421
 16777215
 74
     0
 91
        4
 64
     7
 65
   257
 75
     1
175
     1
 42
1.0
 92
        8
 66
     7
 43
1.0
 76
     1
 77
     6
 78
     2
 67
     7
 79
     5
170
     0
171
     0
290
     0
174
     0
 93
       13
 44
0.0
173
     0
291
     1
 45
0.0
  0
VISUALSTYLE
  5
298
102
{ACAD_REACTORS
330
296
102
}
330
296
100
AcDbVisualStyle
  2
FlatWithEdges
 70
     1
 71
     2
 72
     1
 73
     1
 90
        2
 40
-0.6
 41
30.0
 62
     5
 63
     7
421
 16777215
 74
     1
 91
        4
 64
     7
 65
   257
 75
     1
175
     1
 42
1.0
 92
        0
 66
   257
 43
1.0
 76
     1
 77
     6
 78
     2
 67
     7
 79
     5
170
     0
171
     0
290
     0
174
     0
 93
       13
 44
0.0
173
     0
291
     1
 45
0.0
  0
VISUALSTYLE
  5
299
102
{ACAD_REACTORS
330
296
102
}
330
296
100
AcDbVisualStyle
  2
Gouraud
 70
     2
 71
     2
 72
     2
 73
     1
 90
        2
 40
-0.6
 41
30.0
 62
     5
 63
     7
421
 16777215
 74
     0
 91
        4
 64
     7
 65
   257
 75
     1
175
     1
 42
1.0
 92
        0
 66
     7
 43
1.0
 76
     1
 77
     6
 78
     2
 67
     7
 79
     5
170
     0
171
     0
290
     0
174
     0
 93
       13
 44
0.0
173
     0
291
     1
 45
0.0
  0
VISUALSTYLE
  5
29A
102
{ACAD_REACTORS
330
296
102
}
330
296
100
AcDbVisualStyle
  2
GouraudWithEdges
 70
     3
 71
     2
 72
     2
 73
     1
 90
        2
 40
-0.6
 41
30.0
 62
     5
 63
     7
421
 16777215
 74
     1
 91
        4
 64
     7
 65
   257
 75
     1
175
     1
 42
1.0
 92
        0
 66
   257
 43
1.0
 76
     1
 77
     6
 78
     2
 67
     7
 79
     5
170
     0
171
     0
290
     0
174
     0
 93
       13
 44
0.0
173
     0
291
     1
 45
0.0
  0
VISUALSTYLE
  5
2A4
102
{ACAD_REACTORS
330
296
102
}
330
296
100
AcDbVisualStyle
  2
Linepattern
 70
    14
 71
     2
 72
     2
 73
     0
 90
        0
 40
-0.6
 41
-30.0
 62
     5
 63
     7
421
 16777215
 74
     1
 91
        4
 64
     7
 65
   257
 75
     7
175
     7
 42
1.0
 92
        8
 66
     7
 43
1.0
 76
     1
 77
     6
 78
     2
 67
     7
 79
     5
170
     0
171
     0
290
     0
174
     0
 93
        1
 44
0.0
173
     0
291
     1
 45
0.0
  0
VISUALSTYLE
  5
2A0
102
{ACAD_REACTORS
330
296
102
}
330
296
100
AcDbVisualStyle
  2
Realistic
 70
     8
 71
     2
 72
     2
 73
     0
 90
        0
 40
-0.6
 41
-30.0
 62
     5
 63
     7
421
 16777215
 74
     1
 91
        0
 64
     7
 65
   257
 75
     1
175
     1
 42
1.0
 92
        8
 66
     8
424
  7895160
 43
1.0
 76
     1
 77
     6
 78
     2
 67
     7
 79
     5
170
     0
171
     0
290
     0
174
     0
 93
       13
 44
0.0
173
     0
291
     0
 45
0.0
  0
VISUALSTYLE
  5
2A3
102
{ACAD_REACTORS
330
296
102
}
330
296
100
AcDbVisualStyle
  2
Thicken
 70
    13
 71
     2
 72
     2
 73
     0
 90
        0
 40
-0.6
 41
-30.0
 62
     5
 63
     7
421
 16777215
 74
     1
 91
        4
 64
     7
 65
   257
 75
     1
175
     1
 42
1.0
 92
       12
 66
     7
 43
1.0
 76
     1
 77
     6
 78
     2
 67
     7
 79
     5
170
     0
171
     0
290
     0
174
     0
 93
        1
 44
0.0
173
     0
291
     1
 45
0.0
  0
DICTIONARYVAR
  5
310
102
{ACAD_REACTORS
330
9E
102
}
330
9E
100
DictionaryVariables
280
     0
  1
1:1
  0
DICTIONARYVAR
  5
30E
102
{ACAD_REACTORS
330
9E
102
}
330
9E
100
DictionaryVariables
280
     0
  1
STANDARD
  0
DICTIONARYVAR
  5
144
102
{ACAD_REACTORS
330
9E
102
}
330
9E
100
DictionaryVariables
280
     0
  1
STANDARD
  0
DICTIONARYVAR
  5
A0
102
{ACAD_REACTORS
330
9E
102
}
330
9E
100
DictionaryVariables
280
     0
  1
2
  0
DICTIONARYVAR
  5
9F
102
{ACAD_REACTORS
330
9E
102
}
330
9E
100
DictionaryVariables
280
     0
  1
1
  0
DICTIONARYVAR
  5
36B
102
{ACAD_REACTORS
330
9E
102
}
330
9E
100
DictionaryVariables
280
     0
  1
1
  0
DICTIONARYVAR
  5
36C
102
{ACAD_REACTORS
330
9E
102
}
330
9E
100
DictionaryVariables
280
     0
  1
15
  0
DICTIONARYVAR
  5
311
102
{ACAD_REACTORS
330
9E
102
}
330
9E
100
DictionaryVariables
280
     0
  1
0
  0
DICTIONARYVAR
  5
30F
102
{ACAD_REACTORS
330
9E
102
}
330
9E
100
DictionaryVariables
280
     0
  1
0
  0
DICTIONARY
  5
69
102
{ACAD_REACTORS
330
63
102
}
330
63
100
AcDbDictionary
281
     1
  0
XRECORD
  5
12C
102
{ACAD_REACTORS
330
63
102
}
330
63
100
AcDbXrecord
280
     1
 90
-1023410169
  0
DICTIONARY
  5
30B
330
124
100
AcDbDictionary
280
     1
281
     1
  3
ACAD_ROUNDTRIP_2008_TABLESTYLE_CELLSTYLEMAP
360
11AA
  0
CELLSTYLEMAP
  5
11AA
102
{ACAD_REACTORS
330
30B
102
}
330
30B
100
AcDbCellStyleMap
 90
        3
300
CELLSTYLE
  1
TABLEFORMAT_BEGIN
 90
        5
170
     1
 91
        0
 92
    32768
 62
   257
 93
        1
300
CONTENTFORMAT
  1
CONTENTFORMAT_BEGIN
 90
        0
 91
        0
 92
      512
 93
        0
300

 40
0.0
140
1.0
 94
        5
 62
     0
340
11
144
0.25
309
CONTENTFORMAT_END
171
     0
 94
        6
 95
        1
302
GRIDFORMAT
  1
GRIDFORMAT_BEGIN
 90
        0
 91
        1
 62
     0
 92
       -2
340
0
 93
        0
 40
0.045
309
GRIDFORMAT_END
 95
        2
302
GRIDFORMAT
  1
GRIDFORMAT_BEGIN
 90
        0
 91
        1
 62
     0
 92
       -2
340
0
 93
        0
 40
0.045
309
GRIDFORMAT_END
 95
        4
302
GRIDFORMAT
  1
GRIDFORMAT_BEGIN
 90
        0
 91
        1
 62
     0
 92
       -2
340
0
 93
        0
 40
0.045
309
GRIDFORMAT_END
 95
        8
302
GRIDFORMAT
  1
GRIDFORMAT_BEGIN
 90
        0
 91
        1
 62
     0
 92
       -2
340
0
 93
        0
 40
0.045
309
GRIDFORMAT_END
 95
       16
302
GRIDFORMAT
  1
GRIDFORMAT_BEGIN
 90
        0
 91
        1
 62
     0
 92
       -2
340
0
 93
        0
 40
0.045
309
GRIDFORMAT_END
 95
       32
302
GRIDFORMAT
  1
GRIDFORMAT_BEGIN
 90
        0
 91
        1
 62
     0
 92
       -2
340
0
 93
        0
 40
0.045
309
GRIDFORMAT_END
309
TABLEFORMAT_END
  1
CELLSTYLE_BEGIN
 90
        1
 91
        1
300
_TITLE
309
CELLSTYLE_END
300
CELLSTYLE
  1
TABLEFORMAT_BEGIN
 90
        5
170
     1
 91
        0
 92
        0
 62
   257
 93
        1
300
CONTENTFORMAT
  1
CONTENTFORMAT_BEGIN
 90
        0
 91
        0
 92
      512
 93
        0
300

 40
0.0
140
1.0
 94
        5
 62
     0
340
11
144
0.18
309
CONTENTFORMAT_END
171
     0
 94
        6
 95
        1
302
GRIDFORMAT
  1
GRIDFORMAT_BEGIN
 90
        0
 91
        1
 62
     0
 92
       -2
340
0
 93
        0
 40
0.045
309
GRIDFORMAT_END
 95
        2
302
GRIDFORMAT
  1
GRIDFORMAT_BEGIN
 90
        0
 91
        1
 62
     0
 92
       -2
340
0
 93
        0
 40
0.045
309
GRIDFORMAT_END
 95
        4
302
GRIDFORMAT
  1
GRIDFORMAT_BEGIN
 90
        0
 91
        1
 62
     0
 92
       -2
340
0
 93
        0
 40
0.045
309
GRIDFORMAT_END
 95
        8
302
GRIDFORMAT
  1
GRIDFORMAT_BEGIN
 90
        0
 91
        1
 62
     0
 92
       -2
340
0
 93
        0
 40
0.045
309
GRIDFORMAT_END
 95
       16
302
GRIDFORMAT
  1
GRIDFORMAT_BEGIN
 90
        0
 91
        1
 62
     0
 92
       -2
340
0
 93
        0
 40
0.045
309
GRIDFORMAT_END
 95
       32
302
GRIDFORMAT
  1
GRIDFORMAT_BEGIN
 90
        0
 91
        1
 62
     0
 92
       -2
340
0
 93
        0
 40
0.045
309
GRIDFORMAT_END
309
TABLEFORMAT_END
  1
CELLSTYLE_BEGIN
 90
        2
 91
        1
300
_HEADER
309
CELLSTYLE_END
300
CELLSTYLE
  1
TABLEFORMAT_BEGIN
 90
        5
170
     1
 91
        0
 92
        0
 62
   257
 93
        1
300
CONTENTFORMAT
  1
CONTENTFORMAT_BEGIN
 90
        0
 91
        0
 92
      512
 93
        0
300

 40
0.0
140
1.0
 94
        2
 62
     0
340
11
144
0.18
309
CONTENTFORMAT_END
171
     0
 94
        6
 95
        1
302
GRIDFORMAT
  1
GRIDFORMAT_BEGIN
 90
        0
 91
        1
 62
     0
 92
       -2
340
0
 93
        0
 40
0.045
309
GRIDFORMAT_END
 95
        2
302
GRIDFORMAT
  1
GRIDFORMAT_BEGIN
 90
        0
 91
        1
 62
     0
 92
       -2
340
0
 93
        0
 40
0.045
309
GRIDFORMAT_END
 95
        4
302
GRIDFORMAT
  1
GRIDFORMAT_BEGIN
 90
        0
 91
        1
 62
     0
 92
       -2
340
0
 93
        0
 40
0.045
309
GRIDFORMAT_END
 95
        8
302
GRIDFORMAT
  1
GRIDFORMAT_BEGIN
 90
        0
 91
        1
 62
     0
 92
       -2
340
0
 93
        0
 40
0.045
309
GRIDFORMAT_END
 95
       16
302
GRIDFORMAT
  1
GRIDFORMAT_BEGIN
 90
        0
 91
        1
 62
     0
 92
       -2
340
0
 93
        0
 40
0.045
309
GRIDFORMAT_END
 95
       32
302
GRIDFORMAT
  1
GRIDFORMAT_BEGIN
 90
        0
 91
        1
 62
     0
 92
       -2
340
0
 93
        0
 40
0.045
309
GRIDFORMAT_END
309
TABLEFORMAT_END
  1
CELLSTYLE_BEGIN
 90
        3
 91
        2
300
_DATA
309
CELLSTYLE_END
  0
ENDSEC
  0
EOF
