  0
SECTION
  2
HEADER
  9
$ACADVER
  1
AC1021
  9
$ACADMAINTVER
 70
    50
  9
$DWGCODEPAGE
  3
ANSI_936
  9
$LASTSAVEDBY
  1
ko69185
  9
$CUSTOMPROPERTYTAG
  1
AmdtFileType
  9
$CUSTOMPROPERTY
  1
84
  9
$INSBASE
 10
0.0
 20
0.0
 30
0.0
  9
$EXTMIN
 10
108.3758039144659
 20
93.78835168352702
 30
0.0
  9
$EXTMAX
 10
155.4710409590482
 20
131.9615645462316
 30
0.0
  9
$LIMMIN
 10
0.0
 20
0.0
  9
$LIMMAX
 10
17.0
 20
11.0
  9
$ORTHOMODE
 70
     1
  9
$REGENMODE
 70
     1
  9
$FILLMODE
 70
     1
  9
$QTEXTMODE
 70
     0
  9
$MIRRTEXT
 70
     1
  9
$LTSCALE
 40
1.0
  9
$ATTMODE
 70
     1
  9
$TEXTSIZE
 40
0.2
  9
$TRACEWID
 40
0.05
  9
$TEXTSTYLE
  7
STANDARD
  9
$CLAYER
  8
0
  9
$CELTYPE
  6
ByLayer
  9
$CECOLOR
 62
   256
  9
$CELTSCALE
 40
1.0
  9
$DISPSILH
 70
     0
  9
$DIMSCALE
 40
1.0
  9
$DIMASZ
 40
0.12
  9
$DIMEXO
 40
0.05
  9
$DIMDLI
 40
0.5
  9
$DIMRND
 40
0.0
  9
$DIMDLE
 40
0.0
  9
$DIMEXE
 40
0.1
  9
$DIMTP
 40
0.1
  9
$DIMTM
 40
0.1
  9
$DIMTXT
 40
0.12
  9
$DIMCEN
 40
0.0
  9
$DIMTSZ
 40
0.0
  9
$DIMTOL
 70
     0
  9
$DIMLIM
 70
     0
  9
$DIMTIH
 70
     1
  9
$DIMTOH
 70
     1
  9
$DIMSE1
 70
     0
  9
$DIMSE2
 70
     0
  9
$DIMTAD
 70
     0
  9
$DIMZIN
 70
     7
  9
$DIMBLK
  1

  9
$DIMASO
 70
     1
  9
$DIMSHO
 70
     1
  9
$DIMPOST
  1

  9
$DIMAPOST
  1
mm
  9
$DIMALT
 70
     0
  9
$DIMALTD
 70
     2
  9
$DIMALTF
 40
25.4
  9
$DIMLFAC
 40
1.0
  9
$DIMTOFL
 70
     0
  9
$DIMTVP
 40
0.0
  9
$DIMTIX
 70
     0
  9
$DIMSOXD
 70
     0
  9
$DIMSAH
 70
     0
  9
$DIMBLK1
  1

  9
$DIMBLK2
  1

  9
$DIMSTYLE
  2
AM_ANSI
  9
$DIMCLRD
 70
   256
  9
$DIMCLRE
 70
   256
  9
$DIMCLRT
 70
   140
  9
$DIMTFAC
 40
0.71
  9
$DIMGAP
 40
0.06
  9
$DIMJUST
 70
     0
  9
$DIMSD1
 70
     0
  9
$DIMSD2
 70
     0
  9
$DIMTOLJ
 70
     1
  9
$DIMTZIN
 70
     7
  9
$DIMALTZ
 70
     0
  9
$DIMALTTZ
 70
     0
  9
$DIMUPT
 70
     0
  9
$DIMDEC
 70
     4
  9
$DIMTDEC
 70
     4
  9
$DIMALTU
 70
     2
  9
$DIMALTTD
 70
     4
  9
$DIMTXSTY
  7
STANDARD
  9
$DIMAUNIT
 70
     0
  9
$DIMADEC
 70
     0
  9
$DIMALTRND
 40
0.0
  9
$DIMAZIN
 70
     2
  9
$DIMDSEP
 70
    46
  9
$DIMATFIT
 70
     3
  9
$DIMFRAC
 70
     0
  9
$DIMLDRBLK
  1

  9
$DIMLUNIT
 70
     2
  9
$DIMLWD
 70
    -1
  9
$DIMLWE
 70
    -1
  9
$DIMTMOVE
 70
     0
  9
$DIMFXL
 40
1.0
  9
$DIMFXLON
 70
     0
  9
$DIMJOGANG
 40
0.7853981633974483
  9
$DIMTFILL
 70
     0
  9
$DIMTFILLCLR
 70
     0
  9
$DIMARCSYM
 70
     1
  9
$DIMLTYPE
  6
ByBlock
  9
$DIMLTEX1
  6
ByBlock
  9
$DIMLTEX2
  6
ByBlock
  9
$LUNITS
 70
     2
  9
$LUPREC
 70
     4
  9
$SKETCHINC
 40
0.1
  9
$FILLETRAD
 40
0.125
  9
$AUNITS
 70
     0
  9
$AUPREC
 70
     0
  9
$MENU
  1
.
  9
$ELEVATION
 40
0.0
  9
$PELEVATION
 40
0.0
  9
$THICKNESS
 40
0.0
  9
$LIMCHECK
 70
     0
  9
$CHAMFERA
 40
0.125
  9
$CHAMFERB
 40
0.125
  9
$CHAMFERC
 40
1.0
  9
$CHAMFERD
 40
0.0
  9
$SKPOLY
 70
     0
  9
$TDCREATE
 40
2455295.578477546
  9
$TDUCREATE
 40
2455295.245144213
  9
$TDUPDATE
 40
2455309.646612003
  9
$TDUUPDATE
 40
2455309.313278669
  9
$TDINDWG
 40
0.0277417477
  9
$TDUSRTIMER
 40
0.0277417477
  9
$USRTIMER
 70
     1
  9
$ANGBASE
 50
0.0
  9
$ANGDIR
 70
     0
  9
$PDMODE
 70
     0
  9
$PDSIZE
 40
0.0
  9
$PLINEWID
 40
0.0
  9
$SPLFRAME
 70
     0
  9
$SPLINETYPE
 70
     6
  9
$SPLINESEGS
 70
     8
  9
$HANDSEED
  5
D70
  9
$SURFTAB1
 70
     6
  9
$SURFTAB2
 70
     6
  9
$SURFTYPE
 70
     6
  9
$SURFU
 70
     6
  9
$SURFV
 70
     6
  9
$UCSBASE
  2

  9
$UCSNAME
  2

  9
$UCSORG
 10
0.0
 20
0.0
 30
0.0
  9
$UCSXDIR
 10
1.0
 20
0.0
 30
0.0
  9
$UCSYDIR
 10
0.0
 20
1.0
 30
0.0
  9
$UCSORTHOREF
  2

  9
$UCSORTHOVIEW
 70
     0
  9
$UCSORGTOP
 10
0.0
 20
0.0
 30
0.0
  9
$UCSORGBOTTOM
 10
0.0
 20
0.0
 30
0.0
  9
$UCSORGLEFT
 10
0.0
 20
0.0
 30
0.0
  9
$UCSORGRIGHT
 10
0.0
 20
0.0
 30
0.0
  9
$UCSORGFRONT
 10
0.0
 20
0.0
 30
0.0
  9
$UCSORGBACK
 10
0.0
 20
0.0
 30
0.0
  9
$PUCSBASE
  2

  9
$PUCSNAME
  2

  9
$PUCSORG
 10
0.0
 20
0.0
 30
0.0
  9
$PUCSXDIR
 10
1.0
 20
0.0
 30
0.0
  9
$PUCSYDIR
 10
0.0
 20
1.0
 30
0.0
  9
$PUCSORTHOREF
  2

  9
$PUCSORTHOVIEW
 70
     0
  9
$PUCSORGTOP
 10
0.0
 20
0.0
 30
0.0
  9
$PUCSORGBOTTOM
 10
0.0
 20
0.0
 30
0.0
  9
$PUCSORGLEFT
 10
0.0
 20
0.0
 30
0.0
  9
$PUCSORGRIGHT
 10
0.0
 20
0.0
 30
0.0
  9
$PUCSORGFRONT
 10
0.0
 20
0.0
 30
0.0
  9
$PUCSORGBACK
 10
0.0
 20
0.0
 30
0.0
  9
$USERI1
 70
     0
  9
$USERI2
 70
     0
  9
$USERI3
 70
     0
  9
$USERI4
 70
     0
  9
$USERI5
 70
     0
  9
$USERR1
 40
0.0
  9
$USERR2
 40
0.0
  9
$USERR3
 40
0.0
  9
$USERR4
 40
0.0
  9
$USERR5
 40
0.0
  9
$WORLDVIEW
 70
     1
  9
$SHADEDGE
 70
     3
  9
$SHADEDIF
 70
    70
  9
$TILEMODE
 70
     1
  9
$MAXACTVP
 70
    64
  9
$PINSBASE
 10
0.0
 20
0.0
 30
0.0
  9
$PLIMCHECK
 70
     0
  9
$PEXTMIN
 10
1.000000000000000E+20
 20
1.000000000000000E+20
 30
1.000000000000000E+20
  9
$PEXTMAX
 10
-1.000000000000000E+20
 20
-1.000000000000000E+20
 30
-1.000000000000000E+20
  9
$PLIMMIN
 10
0.0
 20
0.0
  9
$PLIMMAX
 10
12.0
 20
9.0
  9
$UNITMODE
 70
     0
  9
$VISRETAIN
 70
     1
  9
$PLINEGEN
 70
     0
  9
$PSLTSCALE
 70
     1
  9
$TREEDEPTH
 70
  3020
  9
$CMLSTYLE
  2
Standard
  9
$CMLJUST
 70
     0
  9
$CMLSCALE
 40
1.0
  9
$PROXYGRAPHICS
 70
     1
  9
$MEASUREMENT
 70
     0
  9
$CELWEIGHT
370
    -1
  9
$ENDCAPS
280
     0
  9
$JOINSTYLE
280
     0
  9
$LWDISPLAY
290
     0
  9
$INSUNITS
 70
     1
  9
$HYPERLINKBASE
  1

  9
$STYLESHEET
  1

  9
$XEDIT
290
     1
  9
$CEPSNTYPE
380
     0
  9
$PSTYLEMODE
290
     1
  9
$FINGERPRINTGUID
  2
{EEC28332-9206-429F-89A2-E932082E2C59}
  9
$VERSIONGUID
  2
{1B9CB0BA-30D3-4B99-A50A-6B6B0EA7C2C4}
  9
$EXTNAMES
290
     1
  9
$PSVPSCALE
 40
0.0
  9
$OLESTARTUP
290
     0
  9
$SORTENTS
280
   127
  9
$INDEXCTL
280
     0
  9
$HIDETEXT
280
     0
  9
$XCLIPFRAME
290
     0
  9
$HALOGAP
280
     0
  9
$OBSCOLOR
 70
   257
  9
$OBSLTYPE
280
     0
  9
$INTERSECTIONDISPLAY
280
     0
  9
$INTERSECTIONCOLOR
 70
   257
  9
$DIMASSOC
280
     2
  9
$PROJECTNAME
  1

  9
$CAMERADISPLAY
290
     0
  9
$LENSLENGTH
 40
50.0
  9
$CAMERAHEIGHT
 40
0.0
  9
$STEPSPERSEC
 40
2.0
  9
$STEPSIZE
 40
6.0
  9
$3DDWFPREC
 40
2.0
  9
$PSOLWIDTH
 40
0.25
  9
$PSOLHEIGHT
 40
4.0
  9
$LOFTANG1
 40
1.570796326794896
  9
$LOFTANG2
 40
1.570796326794896
  9
$LOFTMAG1
 40
0.0
  9
$LOFTMAG2
 40
0.0
  9
$LOFTPARAM
 70
     7
  9
$LOFTNORMALS
280
     1
  9
$LATITUDE
 40
37.795
  9
$LONGITUDE
 40
-122.394
  9
$NORTHDIRECTION
 40
0.0
  9
$TIMEZONE
 70
 -8000
  9
$LIGHTGLYPHDISPLAY
280
     1
  9
$TILEMODELIGHTSYNCH
280
     1
  9
$CMATERIAL
347
293
  9
$SOLIDHIST
280
     1
  9
$SHOWHIST
280
     1
  9
$DWFFRAME
280
     2
  9
$DGNFRAME
280
     0
  9
$REALWORLDSCALE
290
     1
  9
$INTERFERECOLOR
 62
     1
  9
$INTERFEREOBJVS
345
2A0
  9
$INTERFEREVPVS
346
29D
  9
$CSHADOW
280
     0
  9
$SHADOWPLANELOCATION
 40
0.0
  0
ENDSEC
  0
SECTION
  2
CLASSES
  0
CLASS
  1
ACDBDICTIONARYWDFLT
  2
AcDbDictionaryWithDefault
  3
ObjectDBX Classes
 90
        0
 91
        1
280
     0
281
     0
  0
CLASS
  1
ACME_DOCUMENT
  2
AcMeDbDoc
  3
AcMeServices
 90
     1024
 91
        2
280
     0
281
     0
  0
CLASS
  1
AMGSETTINGSOBJ
  2
AmgSettingsObj
  3
"AcadM|Product Description: AutoCAD Mechanical|Company: Autodesk, Inc."
 90
     1024
 91
        2
280
     0
281
     0
  0
CLASS
  1
ACMESCOPE
  2
AcMeScope
  3
AcMeServices
 90
     1024
 91
        1
280
     0
281
     0
  0
CLASS
  1
ACMECOMMANDHISTORY
  2
AcMeCommandHistory
  3
AcMeServices
 90
     1024
 91
        1
280
     0
281
     0
  0
CLASS
  1
ACIMSYSVARMAN
  2
AcImSysVarManager
  3
AcMeServices
 90
     1024
 91
        5
280
     0
281
     0
  0
CLASS
  1
ACIMREALSYSVAR
  2
AcImRealSysVar
  3
AcMeServices
 90
     1024
 91
        1
280
     0
281
     0
  0
CLASS
  1
ACIMINTSYSVAR
  2
AcImIntSysVar
  3
AcMeServices
 90
     1024
 91
       27
280
     0
281
     0
  0
CLASS
  1
ACMEDRAWINGMAN
  2
AcMeDrawingMan
  3
AcMeServices
 90
     1024
 91
        1
280
     0
281
     0
  0
CLASS
  1
ACMEVIEW
  2
AcMeView
  3
AcMeServices
 90
     1024
 91
        1
280
     0
281
     0
  0
CLASS
  1
ACDBENTITYCACHE
  2
AcMeEntityCache
  3
AcMeServices
 90
     1024
 91
        1
280
     0
281
     0
  0
CLASS
  1
GSMANAGER
  2
AcMeGSManager
  3
AcMeServices
 90
     1024
 91
        1
280
     0
281
     0
  0
CLASS
  1
AMDTINTERNALREACTOR
  2
AmdtInternalReactor
  3
AcMeServices
 90
     1024
 91
        2
280
     0
281
     0
  0
CLASS
  1
ACMESTATEMGR
  2
AcMeStateMgr
  3
AcMeServices
 90
     1024
 91
        1
280
     0
281
     0
  0
CLASS
  1
ACGREFMASTER
  2
AcGrefMaster
  3
AcAttribServices
 90
     1024
 91
        1
280
     0
281
     0
  0
CLASS
  1
ACME_DATABASE
  2
AcMeDbDatabase
  3
AcMeServices
 90
     1024
 91
        2
280
     0
281
     0
  0
CLASS
  1
ACRFINSADJUSTERMGR
  2
AcRfInsAdjusterMgr
  3
AcMeServices
 90
     1024
 91
        1
280
     0
281
     0
  0
CLASS
  1
ACGREFACADMASTER
  2
AcGrefacadMaster
  3
AcGrefServices
 90
     1024
 91
        1
280
     0
281
     0
  0
CLASS
  1
AMIMASTER
  2
AmiMaster
  3
AmiServices
 90
     1024
 91
        1
280
     0
281
     0
  0
CLASS
  1
ACMDATADICTIONARY
  2
AcmDataDictionary
  3
"AcmSymBB|Product Description: AutoCAD Mechanical|Company: Autodesk, Inc."
 90
     1024
 91
        1
280
     0
281
     0
  0
CLASS
  1
ACMDATAENTRYBLOCK
  2
AcmDataEntryBlock
  3
AcmSymBB|Product Description: AutoCAD Mechanical|Company: Autodesk, Inc.
 90
     1024
 91
        0
280
     0
281
     0
  0
CLASS
  1
ACIMSTRSYSVAR
  2
AcImStrSysVar
  3
AcMeServices
 90
     1024
 91
        4
280
     0
281
     0
  0
CLASS
  1
ACMSTANDARDANSI
  2
AcmStandardANSI
  3
"Amdt_StdImp|Product Description: AutoCAD Mechanical|Company: Autodesk, Inc."
 90
     1024
 91
        1
280
     0
281
     0
  0
CLASS
  1
AMGOBJPROPCFG
  2
AmgObjPropCfg
  3
"AmgLay|Product Description: AutoCAD Mechanical|Company: Autodesk, Inc."
 90
     1025
 91
        1
280
     0
281
     0
  0
CLASS
  1
ACMSURFSTANDARDANSI
  2
AcmSurfTextStdANSI
  3
"Amdt_StdImp|Product Description: AutoCAD Mechanical|Company: Autodesk, Inc."
 90
     1024
 91
        1
280
     0
281
     0
  0
CLASS
  1
ACMFCFSTANDARDANSI
  2
AcmFCFStdANSI
  3
"Amdt_StdImp|Product Description: AutoCAD Mechanical|Company: Autodesk, Inc."
 90
     1024
 91
        1
280
     0
281
     0
  0
CLASS
  1
ACMWELDSTANDARDANSI
  2
AcmWeldingStdANSI
  3
"Amdt_StdImp|Product Description: AutoCAD Mechanical|Company: Autodesk, Inc."
 90
     1024
 91
        1
280
     0
281
     0
  0
CLASS
  1
ACMIDSTANDARDANSI
  2
AcmIdStdANSI
  3
"Amdt_StdImp|Product Description: AutoCAD Mechanical|Company: Autodesk, Inc."
 90
     1024
 91
        1
280
     0
281
     0
  0
CLASS
  1
ACMDATUMSTANDARDANSI
  2
AcmDatumStdANSI
  3
"Amdt_StdImp|Product Description: AutoCAD Mechanical|Company: Autodesk, Inc."
 90
     1024
 91
        1
280
     0
281
     0
  0
CLASS
  1
ACMBOMSTANDARDANSI
  2
AcmBOMStdANSI
  3
"Amdt_StdImp|Product Description: AutoCAD Mechanical|Company: Autodesk, Inc."
 90
     1024
 91
        1
280
     0
281
     0
  0
CLASS
  1
ACMDETAILSTANDARDANSI
  2
AmdtDetailSymStdANSI
  3
"Amdt_StdImp|Product Description: AutoCAD Mechanical|Company: Autodesk, Inc."
 90
     1024
 91
        1
280
     0
281
     0
  0
CLASS
  1
ACMSECTIONSTANDARDANSI
  2
AmdtSectionSymStdANSI
  3
"Amdt_StdImp|Product Description: AutoCAD Mechanical|Company: Autodesk, Inc."
 90
     1024
 91
        1
280
     0
281
     0
  0
CLASS
  1
ACMCENTERLINESTANDARDANSI
  2
AmdtCenterLineStdANSI
  3
"Amdt_StdImp|Product Description: AutoCAD Mechanical|Company: Autodesk, Inc."
 90
     1024
 91
        1
280
     0
281
     0
  0
CLASS
  1
ACMNOTESTANDARDANSI
  2
AmdtNoteStdANSI
  3
"Amdt_StdImp|Product Description: AutoCAD Mechanical|Company: Autodesk, Inc."
 90
     1024
 91
        1
280
     0
281
     0
  0
CLASS
  1
ACAMGLAYSTD
  2
AcAmgLayStd
  3
"AmgLay|Product Description: AutoCAD Mechanical|Company: Autodesk, Inc."
 90
     1024
 91
        1
280
     0
281
     0
  0
CLASS
  1
ACAMGDIMSTD
  2
AcAmgDimStd
  3
"AmgDim|Product Description: AutoCAD Mechanical|Company: Autodesk, Inc."
 90
     1024
 91
        1
280
     0
281
     0
  0
CLASS
  1
ACAMGHOLECHARTSTDANSI
  2
AcAmgHoleChartStdANSI
  3
AmgDim|Product Description: AutoCAD Mechanical|Company: Autodesk, Inc.
 90
     1024
 91
        1
280
     0
281
     0
  0
CLASS
  1
ACAMGTITLESTD
  2
AcAmgTitleStd
  3
"AmgTitle|Product Description: AutoCAD Mechanical|Company: Autodesk, Inc."
 90
     4095
 91
        1
280
     0
281
     0
  0
CLASS
  1
LAYER_INDEX
  2
AcDbLayerIndex
  3
ObjectDBX Classes
 90
        0
 91
        0
280
     0
281
     0
  0
CLASS
  1
IDBUFFER
  2
AcDbIdBuffer
  3
ObjectDBX Classes
 90
        0
 91
        0
280
     0
281
     0
  0
CLASS
  1
DICTIONARYVAR
  2
AcDbDictionaryVar
  3
ObjectDBX Classes
 90
        0
 91
        9
280
     0
281
     0
  0
CLASS
  1
AM_DRAWING_MGR
  2
AcDmDwgMgr
  3
AcMechDwgViewMgmt
 90
     1024
 91
        1
280
     0
281
     0
  0
CLASS
  1
AM_DWG_DOCUMENT
  2
AcDmDwgDocument
  3
AcMechDwgViewMgmt
 90
     1024
 91
        1
280
     0
281
     0
  0
CLASS
  1
AM_DWG_SHEET
  2
AcDmSheet
  3
AcMechDwgViewMgmt
 90
     1024
 91
        2
280
     0
281
     0
  0
CLASS
  1
AM_VIEWDIMPARMAP
  2
AcDmViewDimParMap
  3
AcMechDwgViewMgmt
 90
     1024
 91
        2
280
     0
281
     0
  0
CLASS
  1
AM_DWGMGR_NAME
  2
AcDmDwgMgrName
  3
AcMechDwgViewMgmt
 90
     1024
 91
        1
280
     0
281
     0
  0
CLASS
  1
AMDTMENUSTATEMGR
  2
AmdtMenuStateMgr
  3
McadcomServices
 90
     1024
 91
        1
280
     0
281
     0
  0
CLASS
  1
AMDTMCOMMENUSTATE
  2
AmdtMcomMenuState
  3
McadcomServices
 90
     1024
 91
        1
280
     0
281
     0
  0
CLASS
  1
MAPIAMMOUDLE
  2
MApiAmModule
  3
MApiAmServices
 90
     1024
 91
        1
280
     0
281
     0
  0
CLASS
  1
AMDTADMENUSTATE
  2
AmdtAdMenuState
  3
DesignerServices
 90
     1024
 91
        1
280
     0
281
     0
  0
CLASS
  1
ADAPPL
  2
AcAdAppl
  3
DesignerServices
 90
     1024
 91
        1
280
     0
281
     0
  0
CLASS
  1
DEPMGR
  2
AcAdDepMgr
  3
DesignerServices
 90
     1024
 91
        1
280
     0
281
     0
  0
CLASS
  1
PARAMMGR
  2
AcAdParamMgr
  3
DesignerServices
 90
     1024
 91
        1
280
     0
281
     0
  0
CLASS
  1
PARAMSCOPE
  2
AcAdParamScope
  3
DesignerServices
 90
     1024
 91
        1
280
     0
281
     0
  0
CLASS
  1
NAMEDAPPL
  2
AcAdNamedAppl
  3
DesignerServices
 90
     1024
 91
        1
280
     0
281
     0
  0
CLASS
  1
AMDTDMMENUSTATE
  2
AmdtDmMenuState
  3
AcMechDwgViewMgmt
 90
     1024
 91
        1
280
     0
281
     0
  0
CLASS
  1
AMDTAMMENUSTATE
  2
AmdtAmMenuState
  3
DesignerAssemblies
 90
     1024
 91
        1
280
     0
281
     0
  0
CLASS
  1
ACAMPROJECT
  2
AcAmProject
  3
DesignerAssemblies
 90
     1024
 91
        1
280
     0
281
     0
  0
CLASS
  1
ACAMGRCOMPDEF
  2
AcAmGrCompDef
  3
DesignerAssemblies
 90
     1024
 91
        1
280
     0
281
     0
  0
CLASS
  1
ACCMCONTEXT
  2
AcCmContext
  3
DesignerAssemblies
 90
     1024
 91
        1
280
     0
281
     0
  0
CLASS
  1
ACAMCOMPDEF
  2
AcAmCompDef
  3
DesignerAssemblies
 90
     1024
 91
        1
280
     0
281
     0
  0
CLASS
  1
ACAMCOMPDEFMGR
  2
AcAmCompDefMgr
  3
DesignerAssemblies
 90
     1024
 91
        1
280
     0
281
     0
  0
CLASS
  1
AMCONTEXTMGR
  2
AcAmContextMgr
  3
DesignerAssemblies
 90
     1024
 91
        1
280
     0
281
     0
  0
CLASS
  1
ACAMCONTEXTMODELER
  2
AcAmContextModeler
  3
DesignerAssemblies
 90
     1024
 91
        1
280
     0
281
     0
  0
CLASS
  1
ACMTHREADLINESTANDARDANSI
  2
AmdtThreadLineStdANSI
  3
"Amdt_StdImp|Product Description: AutoCAD Mechanical|Company: Autodesk, Inc."
 90
     1024
 91
        1
280
     0
281
     0
  0
CLASS
  1
CATALOGSTATE
  2
AcAmCatalogState
  3
DesignerAssemblies
 90
     1024
 91
        1
280
     0
281
     0
  0
CLASS
  1
ACAMGRCOMPDEFSET
  2
AcAmGrCompDefSet
  3
DesignerAssemblies
 90
     1024
 91
        1
280
     0
281
     0
  0
CLASS
  1
AMDTBROWSERDBTAB
  2
AmdtBrowserDbTab
  3
McadcomServices
 90
     1024
 91
        1
280
     0
281
     0
  0
CLASS
  1
CBROWSERAPPOBJECT
  2
CBrowserAppObject
  3
McadcomServices
 90
     1024
 91
        3
280
     0
281
     0
  0
CLASS
  1
DM_PLACEHOLDER
  2
AcDmSelsetPlaceholder
  3
AcMechDwgViewMgmt
 90
     1024
 91
        1
280
     0
281
     0
  0
CLASS
  1
TABLESTYLE
  2
AcDbTableStyle
  3
ObjectDBX Classes
 90
     4095
 91
        1
280
     0
281
     0
  0
CLASS
  1
AMDTNOTETEMPLATEDB
  2
AmdtNoteTemplateDB
  3
AcmSymBB|Product Description: AutoCAD Mechanical|Company: Autodesk, Inc.
 90
     1024
 91
        6
280
     0
281
     0
  0
CLASS
  1
MATERIAL
  2
AcDbMaterial
  3
ObjectDBX Classes
 90
     1153
 91
        3
280
     0
281
     0
  0
CLASS
  1
VISUALSTYLE
  2
AcDbVisualStyle
  3
ObjectDBX Classes
 90
     4095
 91
       16
280
     0
281
     0
  0
CLASS
  1
ACRFATTGENMGR
  2
AcRfAttGeneralMgr
  3
AcAttribServices
 90
     1024
 91
        0
280
     0
281
     0
  0
CLASS
  1
ACRFOBJATTMGR
  2
AcRfObjAttGroupMgr
  3
AcAttribServices
 90
     1024
 91
        0
280
     0
281
     0
  0
CLASS
  1
ACRFMCADAPIATTHOLDER
  2
AcRfMCADAPIAttHolder
  3
AcAttribServices
 90
     1024
 91
        0
280
     0
281
     0
  0
CLASS
  1
AMDTSYSATTR
  2
AmdtSystemAttribute
  3
AcAttribServices
 90
     1024
 91
        0
280
     0
281
     0
  0
CLASS
  1
ACMTAPERSTANDARDANSI
  2
AcmTaperStdANSI
  3
"Amdt_StdImp|Product Description: AutoCAD Mechanical|Company: Autodesk, Inc."
 90
     1024
 91
        1
280
     0
281
     0
  0
CLASS
  1
CAMSSTRUCTBTNSTATE
  2
StructBtnState
  3
DesignerAssemblies
 90
     1024
 91
        1
280
     0
281
     0
  0
CLASS
  1
SCALE
  2
AcDbScale
  3
ObjectDBX Classes
 90
     1153
 91
       33
280
     0
281
     0
  0
CLASS
  1
MLEADERSTYLE
  2
AcDbMLeaderStyle
  3
ACDB_MLEADERSTYLE_CLASS
 90
     4095
 91
        1
280
     0
281
     0
  0
CLASS
  1
ACMANOOTATIONVIEWSTANDARDANSI
  2
AmdtAnViewStdANSI
  3
"Amdt_StdImp|Product Description: AutoCAD Mechanical|Company: Autodesk, Inc."
 90
     1024
 91
        1
280
     0
281
     0
  0
CLASS
  1
CELLSTYLEMAP
  2
AcDbCellStyleMap
  3
ObjectDBX Classes
 90
     1152
 91
        3
280
     0
281
     0
  0
CLASS
  1
EXACXREFPANELOBJECT
  2
ExAcXREFPanelObject
  3
EXAC_ESW
 90
     1025
 91
        1
280
     0
281
     0
  0
CLASS
  1
NPOCOLLECTION
  2
AcDbImpNonPersistentObjectsCollection
  3
ObjectDBX Classes
 90
     1153
 91
        1
280
     0
281
     0
  0
CLASS
  1
SORTENTSTABLE
  2
AcDbSortentsTable
  3
ObjectDBX Classes
 90
        0
 91
        0
280
     0
281
     0
  0
CLASS
  1
ACAMGFILTERDAT
  2
AcAmgFilterDat
  3
"AcadM|Product Description: AutoCAD Mechanical|Company: Autodesk, Inc."
 90
     1024
 91
        0
280
     0
281
     0
  0
ENDSEC
  0
SECTION
  2
TABLES
  0
TABLE
  2
VPORT
  5
8
102
{ACAD_XDICTIONARY
360
B2C
102
}
330
0
100
AcDbSymbolTable
 70
     1
  0
VPORT
  5
291
330
8
100
AcDbSymbolTableRecord
100
AcDbViewportTableRecord
  2
*Active
 70
     0
 10
0.0
 20
0.0
 11
1.0
 21
1.0
 12
119.1037096705693
 22
106.5514287628098
 13
0.0
 23
0.0
 14
0.125
 24
0.125
 15
1.0
 25
1.0
 16
0.0
 26
0.0
 36
1.0
 17
0.0
 27
0.0
 37
0.0
 40
33.13726496572173
 41
1.442643391521196
 42
50.0
 43
0.0
 44
0.0
 50
0.0
 51
0.0
 71
     0
 72
   100
 73
     1
 74
     3
 75
     0
 76
     0
 77
     0
 78
     0
281
     0
 65
     1
110
0.0
120
0.0
130
0.0
111
1.0
121
0.0
131
0.0
112
0.0
122
1.0
132
0.0
 79
     0
146
0.0
348
29C
 60
     3
 61
     5
292
     1
282
     0
141
0.0
142
0.0
 63
   250
421
  3355443
  0
ENDTAB
  0
TABLE
  2
LTYPE
  5
5
330
0
100
AcDbSymbolTable
 70
    16
  0
LTYPE
  5
14
330
5
100
AcDbSymbolTableRecord
100
AcDbLinetypeTableRecord
  2
ByBlock
 70
     0
  3

 72
    65
 73
     0
 40
0.0
  0
LTYPE
  5
15
330
5
100
AcDbSymbolTableRecord
100
AcDbLinetypeTableRecord
  2
ByLayer
 70
     0
  3

 72
    65
 73
     0
 40
0.0
  0
LTYPE
  5
16
330
5
100
AcDbSymbolTableRecord
100
AcDbLinetypeTableRecord
  2
Continuous
 70
     0
  3
Solid line
 72
    65
 73
     0
 40
0.0
  0
LTYPE
  5
6C
330
5
100
AcDbSymbolTableRecord
100
AcDbLinetypeTableRecord
  2
AM_ISO02W050
 70
     0
  3
__ __ __ __ __ __ __ __ __ __ __ __ __ __ __
 72
    65
 73
     2
 40
7.5
 49
6.0
 74
     0
 49
-1.5
 74
     0
  0
LTYPE
  5
6D
330
5
100
AcDbSymbolTableRecord
100
AcDbLinetypeTableRecord
  2
AM_ISO08W050
 70
     0
  3
____ . ____ . ____ . ____ . ____ . ____ . ____
 72
    65
 73
     4
 40
18.0
 49
12.0
 74
     0
 49
-1.5
 74
     0
 49
3.0
 74
     0
 49
-1.5
 74
     0
  0
LTYPE
  5
6E
330
5
100
AcDbSymbolTableRecord
100
AcDbLinetypeTableRecord
  2
AM_ISO09W050
 70
     0
  3
_____ . . _____ . . _____ . . ____ .. ____
 72
    65
 73
     6
 40
22.5
 49
12.0
 74
     0
 49
-1.5
 74
     0
 49
3.0
 74
     0
 49
-1.5
 74
     0
 49
3.0
 74
     0
 49
-1.5
 74
     0
  0
LTYPE
  5
6F
330
5
100
AcDbSymbolTableRecord
100
AcDbLinetypeTableRecord
  2
Amconstr
 70
     0
  3
_______________________
 72
    65
 73
     2
 40
9999.0
 49
9999.0
 74
     0
 49
0.0
 74
     0
  0
LTYPE
  5
70
330
5
100
AcDbSymbolTableRecord
100
AcDbLinetypeTableRecord
  2
AM_ISO08W050x2
 70
     0
  3
__ . __ . __ . __ . __ . __
 72
    65
 73
     4
 40
9.0
 49
6.0
 74
     0
 49
-0.75
 74
     0
 49
1.5
 74
     0
 49
-0.75
 74
     0
  0
LTYPE
  5
71
330
5
100
AcDbSymbolTableRecord
100
AcDbLinetypeTableRecord
  2
AM_ISO02W050x2
 70
     0
  3
 _ _ _ _ _ _ _ _ _ _ _ _
 72
    65
 73
     2
 40
3.75
 49
3.0
 74
     0
 49
-0.75
 74
     0
  0
LTYPE
  5
74
330
5
100
AcDbSymbolTableRecord
100
AcDbLinetypeTableRecord
  2
Amzigzag
 70
     0
  3
/\/-/\/-/\/-/\/-/\/-/\/
 72
    65
 73
     2
 40
11.0001
 49
0.0001
 74
     4
 75
   136
340
254
 46
0.04
 50
0.0
 44
0.0
 45
0.0
 49
-11.0
 74
     0
  0
LTYPE
  5
75
330
5
100
AcDbSymbolTableRecord
100
AcDbLinetypeTableRecord
  2
HIDDEN
 70
     0
  3
Hidden __ __ __ __ __ __ __ __ __ __ __ __ __ _
 72
    65
 73
     2
 40
0.375
 49
0.25
 74
     0
 49
-0.125
 74
     0
  0
LTYPE
  5
76
330
5
100
AcDbSymbolTableRecord
100
AcDbLinetypeTableRecord
  2
CENTER
 70
     0
  3
Center ____ _ ____ _ ____ _ ____ _ ____ _ ____
 72
    65
 73
     4
 40
2.0
 49
1.25
 74
     0
 49
-0.25
 74
     0
 49
0.25
 74
     0
 49
-0.25
 74
     0
  0
LTYPE
  5
77
330
5
100
AcDbSymbolTableRecord
100
AcDbLinetypeTableRecord
  2
PHANTOM2
 70
     0
  3
Phantom (.5x) ___ _ _ ___ _ _ ___ _ _ ___ _ _
 72
    65
 73
     6
 40
1.25
 49
0.625
 74
     0
 49
-0.125
 74
     0
 49
0.125
 74
     0
 49
-0.125
 74
     0
 49
0.125
 74
     0
 49
-0.125
 74
     0
  0
LTYPE
  5
78
330
5
100
AcDbSymbolTableRecord
100
AcDbLinetypeTableRecord
  2
CENTER2
 70
     0
  3
Center (.5x) ___ _ ___ _ ___ _ ___ _ ___ _ ___
 72
    65
 73
     4
 40
1.125
 49
0.75
 74
     0
 49
-0.125
 74
     0
 49
0.125
 74
     0
 49
-0.125
 74
     0
  0
LTYPE
  5
79
330
5
100
AcDbSymbolTableRecord
100
AcDbLinetypeTableRecord
  2
HIDDEN2
 70
     0
  3
Hidden (.5x) _ _ _ _ _ _ _ _ _ _ _ _ _ _ _ _ _
 72
    65
 73
     2
 40
0.1875
 49
0.125
 74
     0
 49
-0.0625
 74
     0
  0
LTYPE
  5
7A
330
5
100
AcDbSymbolTableRecord
100
AcDbLinetypeTableRecord
  2
Amzigzag2
 70
     0
  3
/\/-/\/-/\/-/\/-/\/-/\/
 72
    65
 73
     2
 40
0.4401
 49
0.0001
 74
     4
 75
   136
340
254
 46
0.0016
 50
0.0
 44
0.0
 45
0.0
 49
-0.4400000000000001
 74
     0
  0
LTYPE
  5
87
330
5
100
AcDbSymbolTableRecord
100
AcDbLinetypeTableRecord
  2
ACANSTGB
 70
     0
  3
__ . . __ . .
 72
    65
 73
     6
 40
0.35433070866
 49
0.15748031496
 74
     0
 49
-0.03937007874
 74
     0
 49
0.03937007874
 74
     0
 49
-0.03937007874
 74
     0
 49
0.03937007874
 74
     0
 49
-0.03937007874
 74
     0
  0
LTYPE
  5
88
330
5
100
AcDbSymbolTableRecord
100
AcDbLinetypeTableRecord
  2
ACANSTGL
 70
     0
  3
_ _ _ _ _
 72
    65
 73
     2
 40
0.11811023622
 49
0.07874015748
 74
     0
 49
-0.03937007874
 74
     0
  0
ENDTAB
  0
TABLE
  2
LAYER
  5
2
102
{ACAD_XDICTIONARY
360
D5A
102
}
330
0
100
AcDbSymbolTable
 70
     4
  0
LAYER
  5
10
102
{ACAD_XDICTIONARY
360
B0B
102
}
330
2
100
AcDbSymbolTableRecord
100
AcDbLayerTableRecord
  2
0
 70
     0
 62
     7
  6
Continuous
370
    -3
390
F
347
295
  0
LAYER
  5
38C
102
{ACAD_XDICTIONARY
360
B0D
102
}
330
2
100
AcDbSymbolTableRecord
100
AcDbLayerTableRecord
  2
SURFACE
 70
     0
 62
     7
  6
Continuous
370
    -3
390
F
347
295
  0
LAYER
  5
78F
102
{ACAD_XDICTIONARY
360
790
102
}
330
2
100
AcDbSymbolTableRecord
100
AcDbLayerTableRecord
  2
DRAFT_ENT
 70
     0
 62
     7
  6
Continuous
370
    -3
390
F
347
295
  0
LAYER
  5
D58
330
2
100
AcDbSymbolTableRecord
100
AcDbLayerTableRecord
  2
AM_0
 70
     0
 62
     7
  6
Continuous
370
    50
390
F
347
295
1001
AcAecLayerStandard
1000

1000

  0
ENDTAB
  0
TABLE
  2
STYLE
  5
3
330
0
100
AcDbSymbolTable
 70
     8
  0
STYLE
  5
11
330
3
100
AcDbSymbolTableRecord
100
AcDbTextStyleTableRecord
  2
STANDARD
 70
     0
 40
0.0
 41
1.0
 50
0.0
 71
     0
 42
0.2
  3
ROMANS.SHX
  4

  0
STYLE
  5
73
330
3
100
AcDbSymbolTableRecord
100
AcDbTextStyleTableRecord
  2

 70
     1
 40
0.0
 41
1.0
 50
0.0
 71
     0
 42
0.2
  3
ltypeshp.shx
  4

  0
STYLE
  5
7B
330
3
100
AcDbSymbolTableRecord
100
AcDbTextStyleTableRecord
  2
ACANSTS
 70
     0
 40
1.0
 41
1.0
 50
0.0
 71
     0
 42
0.2
  3
romans.shx
  4

  0
STYLE
  5
86
330
3
100
AcDbSymbolTableRecord
100
AcDbTextStyleTableRecord
  2
ACANSGDT
 70
     0
 40
0.0
 41
1.0
 50
0.0
 71
     0
 42
0.2
  3
amgdt.shx
  4

  0
STYLE
  5
13F
330
3
100
AcDbSymbolTableRecord
100
AcDbTextStyleTableRecord
  2
USER1
 70
     0
 40
0.0
 41
1.0
 50
0.0
 71
     0
 42
0.2
  3
TXT.SHX
  4

  0
STYLE
  5
140
330
3
100
AcDbSymbolTableRecord
100
AcDbTextStyleTableRecord
  2
USER2
 70
     0
 40
0.0
 41
1.0
 50
0.0
 71
     0
 42
0.2
  3
SIMPLEX.SHX
  4

  0
STYLE
  5
141
330
3
100
AcDbSymbolTableRecord
100
AcDbTextStyleTableRecord
  2
USER3
 70
     0
 40
0.0
 41
1.0
 50
0.0
 71
     0
 42
0.2
  3
ITALIC.SHX
  4

  0
STYLE
  5
254
330
3
100
AcDbSymbolTableRecord
100
AcDbTextStyleTableRecord
  2

 70
     1
 40
0.0
 41
1.0
 50
0.0
 71
     0
 42
0.2
  3
genltshp.shx
  4

  0
ENDTAB
  0
TABLE
  2
VIEW
  5
6
330
0
100
AcDbSymbolTable
 70
     0
  0
ENDTAB
  0
TABLE
  2
UCS
  5
7
330
0
100
AcDbSymbolTable
 70
     0
  0
ENDTAB
  0
TABLE
  2
APPID
  5
9
330
0
100
AcDbSymbolTable
 70
    15
  0
APPID
  5
12
330
9
100
AcDbSymbolTableRecord
100
AcDbRegAppTableRecord
  2
ACAD
 70
     0
  0
APPID
  5
4E
330
9
100
AcDbSymbolTableRecord
100
AcDbRegAppTableRecord
  2
MCAD_NO_VIS
 70
     0
  0
APPID
  5
4F
330
9
100
AcDbSymbolTableRecord
100
AcDbRegAppTableRecord
  2
ACAD_TEMP_GRAPHIC
 70
     0
  0
APPID
  5
60
330
9
100
AcDbSymbolTableRecord
100
AcDbRegAppTableRecord
  2
ACATTRIBSERVICES
 70
     0
  0
APPID
  5
F7
330
9
100
AcDbSymbolTableRecord
100
AcDbRegAppTableRecord
  2
AD_DRAW
 70
     0
  0
APPID
  5
115
330
9
100
AcDbSymbolTableRecord
100
AcDbRegAppTableRecord
  2
DESIGNERASSEMBLIES
 70
     0
  0
APPID
  5
11A
330
9
100
AcDbSymbolTableRecord
100
AcDbRegAppTableRecord
  2
ACADM_DIM_EDIT
 70
     0
  0
APPID
  5
11B
330
9
100
AcDbSymbolTableRecord
100
AcDbRegAppTableRecord
  2
AMDT_DM_ADJ
 70
     0
  0
APPID
  5
1D3
330
9
100
AcDbSymbolTableRecord
100
AcDbRegAppTableRecord
  2
ACAD_DSTYLE_DIMARC_LENGTH_SYMBOL
 70
     0
  0
APPID
  5
1D4
330
9
100
AcDbSymbolTableRecord
100
AcDbRegAppTableRecord
  2
ACAD_DSTYLE_DIMJOGGED_JOGANGLE_SYMBOL
 70
     0
  0
APPID
  5
2EE
330
9
100
AcDbSymbolTableRecord
100
AcDbRegAppTableRecord
  2
ACAD_MLEADERVER
 70
     0
  0
APPID
  5
B2E
330
9
100
AcDbSymbolTableRecord
100
AcDbRegAppTableRecord
  2
ACAD_DSTYLE_DIM_LINETYPE
 70
     0
  0
APPID
  5
B2F
330
9
100
AcDbSymbolTableRecord
100
AcDbRegAppTableRecord
  2
ACAD_DSTYLE_DIM_EXT1_LINETYPE
 70
     0
  0
APPID
  5
B30
330
9
100
AcDbSymbolTableRecord
100
AcDbRegAppTableRecord
  2
ACAD_DSTYLE_DIM_EXT2_LINETYPE
 70
     0
  0
APPID
  5
D59
330
9
100
AcDbSymbolTableRecord
100
AcDbRegAppTableRecord
  2
AcAecLayerStandard
 70
     0
  0
ENDTAB
  0
TABLE
  2
DIMSTYLE
  5
A
330
0
100
AcDbSymbolTable
 70
     7
100
AcDbDimStyleTable
 71
     1
340
8C
  0
DIMSTYLE
105
27
330
A
100
AcDbSymbolTableRecord
100
AcDbDimStyleTableRecord
  2
Standard
 70
     0
340
11
  0
DIMSTYLE
105
8C
330
A
100
AcDbSymbolTableRecord
100
AcDbDimStyleTableRecord
  2
AM_ANSI
 70
     0
  4
mm
 41
0.12
 42
0.05
 43
0.5
 44
0.1
 47
0.1
 48
0.1
 78
     7
 79
     2
 90
     1
140
0.12
141
0.0
146
0.71
147
0.06
176
   256
177
   256
178
   140
274
     4
284
     7
340
11
345
14
346
14
347
14
371
    -1
372
    -1
1001
ACAD_DSTYLE_DIMJOGGED_JOGANGLE_SYMBOL
1070
   384
1040
0.7853981633974483
  0
DIMSTYLE
105
8D
330
A
100
AcDbSymbolTableRecord
100
AcDbDimStyleTableRecord
  2
AM_ANSI$3
 70
     0
  4
mm
 41
0.12
 42
0.05
 43
0.5
 44
0.1
 47
0.1
 48
0.1
 78
     7
 79
     2
 90
     1
140
0.12
141
0.0
146
0.71
147
0.06
176
   256
177
   256
178
   140
274
     4
284
     7
288
     1
289
     0
340
11
345
14
346
14
347
14
371
    -1
372
    -1
1001
ACAD_DSTYLE_DIMJOGGED_JOGANGLE_SYMBOL
1070
   384
1040
0.7853981633974483
  0
DIMSTYLE
105
8E
330
A
100
AcDbSymbolTableRecord
100
AcDbDimStyleTableRecord
  2
AM_ANSI$4
 70
     0
  4
mm
 41
0.12
 42
0.05
 43
0.5
 44
0.1
 47
0.1
 48
0.1
 78
     7
 79
     2
 90
     1
140
0.12
141
0.0
146
0.71
147
0.06
176
   256
177
   256
178
   140
274
     4
284
     7
340
11
345
14
346
14
347
14
371
    -1
372
    -1
1001
ACAD_DSTYLE_DIMJOGGED_JOGANGLE_SYMBOL
1070
   384
1040
0.7853981633974483
  0
DIMSTYLE
105
8F
330
A
100
AcDbSymbolTableRecord
100
AcDbDimStyleTableRecord
  2
AM_ANSI$7
 70
     0
  4
mm
 41
0.12
 42
0.05
 43
0.5
 44
0.1
 47
0.1
 48
0.1
 78
     7
 79
     2
 90
     1
140
0.12
141
0.0
146
0.71
147
0.06
176
   256
177
   256
178
   140
274
     4
284
     7
340
11
345
14
346
14
347
14
371
    -1
372
    -1
1001
ACAD_DSTYLE_DIMJOGGED_JOGANGLE_SYMBOL
1070
   384
1040
0.7853981633974483
  0
DIMSTYLE
105
90
330
A
100
AcDbSymbolTableRecord
100
AcDbDimStyleTableRecord
  2
AM_ANSI$SF
 70
     0
  4
mm
 41
0.12
 42
0.05
 43
0.5
 44
0.1
 47
0.1
 48
0.1
 75
     1
 76
     1
 78
     7
 79
     2
 90
     1
140
0.12
141
0.0
146
0.71
147
0.06
176
   256
177
   256
178
   140
274
     4
284
     7
340
11
345
14
346
14
347
14
371
    -1
372
    -1
1001
ACAD_DSTYLE_DIMJOGGED_JOGANGLE_SYMBOL
1070
   384
1040
0.7853981633974483
  0
DIMSTYLE
105
95
330
A
100
AcDbSymbolTableRecord
100
AcDbDimStyleTableRecord
  2
AM_ANSI$SH
 70
     0
  4
mm
 41
0.12
 42
0.05
 43
0.5
 44
0.1
 47
0.1
 48
0.1
 75
     1
 76
     1
 78
     7
 79
     2
 90
     1
140
0.12
141
0.0
146
0.71
147
0.06
173
     1
176
   256
177
   256
178
   140
274
     4
284
     7
340
11
343
91
345
14
346
14
347
14
371
    -1
372
    -1
1001
ACAD_DSTYLE_DIMJOGGED_JOGANGLE_SYMBOL
1070
   384
1040
0.7853981633974483
  0
ENDTAB
  0
TABLE
  2
BLOCK_RECORD
  5
1
330
0
100
AcDbSymbolTable
 70
     4
  0
BLOCK_RECORD
  5
1F
102
{ACAD_XDICTIONARY
360
99
102
}
330
1
100
AcDbSymbolTableRecord
100
AcDbBlockTableRecord
  2
*Model_Space
340
22
 70
     0
280
     1
281
     0
  0
BLOCK_RECORD
  5
1B
330
1
100
AcDbSymbolTableRecord
100
AcDbBlockTableRecord
  2
*Paper_Space
340
1E
 70
     0
280
     1
281
     0
  0
BLOCK_RECORD
  5
23
330
1
100
AcDbSymbolTableRecord
100
AcDbBlockTableRecord
  2
*Paper_Space0
340
26
 70
     0
280
     1
281
     0
  0
BLOCK_RECORD
  5
91
330
1
100
AcDbSymbolTableRecord
100
AcDbBlockTableRecord
  2
GENAXEH
340
0
 70
     0
280
     1
281
     0
  0
ENDTAB
  0
ENDSEC
  0
SECTION
  2
BLOCKS
  0
BLOCK
  5
20
330
1F
100
AcDbEntity
  8
0
100
AcDbBlockBegin
  2
*Model_Space
 70
     0
 10
0.0
 20
0.0
 30
0.0
  3
*Model_Space
  1

  0
ENDBLK
  5
21
330
1F
100
AcDbEntity
  8
0
100
AcDbBlockEnd
  0
BLOCK
  5
1C
330
1B
100
AcDbEntity
 67
     1
  8
0
100
AcDbBlockBegin
  2
*Paper_Space
 70
     0
 10
0.0
 20
0.0
 30
0.0
  3
*Paper_Space
  1

  0
ENDBLK
  5
1D
330
1B
100
AcDbEntity
 67
     1
  8
0
100
AcDbBlockEnd
  0
BLOCK
  5
24
330
23
100
AcDbEntity
 67
     1
  8
0
100
AcDbBlockBegin
  2
*Paper_Space0
 70
     0
 10
0.0
 20
0.0
 30
0.0
  3
*Paper_Space0
  1

  0
ENDBLK
  5
25
330
23
100
AcDbEntity
 67
     1
  8
0
100
AcDbBlockEnd
  0
BLOCK
  5
93
330
91
100
AcDbEntity
  8
0
100
AcDbBlockBegin
  2
GENAXEH
 70
     0
 10
0.0
 20
0.0
 30
0.0
  3
GENAXEH
  1

  0
LINE
  5
92
330
91
100
AcDbEntity
  8
0
100
AcDbLine
 10
-1.0
 20
0.0
 30
0.0
 11
1.0
 21
0.0
 31
0.0
  0
ENDBLK
  5
94
330
91
100
AcDbEntity
  8
0
100
AcDbBlockEnd
  0
ENDSEC
  0
SECTION
  2
ENTITIES
  0
LINE
  5
9BA
330
1F
100
AcDbEntity
  8
DRAFT_ENT
  6
Continuous
 62
     7
100
AcDbLine
 10
112.4344045127791
 20
93.78835486978573
 30
0.0
 11
112.4819615722862
 21
94.33193150417407
 31
0.0
  0
LINE
  5
9BB
330
1F
100
AcDbEntity
  8
DRAFT_ENT
  6
Continuous
 62
     7
100
AcDbLine
 10
112.5544004638552
 20
94.55067993730162
 30
0.0
 11
113.233094313383
 21
102.3081514491743
 31
0.0
  0
LINE
  5
9BC
330
1F
100
AcDbEntity
  8
DRAFT_ENT
  6
Continuous
 62
     7
100
AcDbLine
 10
122.184380297912
 20
93.78835168352702
 30
0.0
 11
121.821793198382
 21
93.78835180206007
 31
0.0
  0
LINE
  5
9BD
330
1F
100
AcDbEntity
  8
DRAFT_ENT
  6
Continuous
 62
     7
100
AcDbLine
 10
112.4344045127791
 20
93.78835486978573
 30
0.0
 11
121.819821203312
 21
93.78835180272671
 31
0.0
  0
LINE
  5
9BE
330
1F
100
AcDbEntity
  8
DRAFT_ENT
  6
Continuous
 62
     7
100
AcDbLine
 10
122.0643848449681
 20
94.55067682944273
 30
0.0
 11
121.3856960656943
 21
102.3081487849143
 31
0.0
  0
LINE
  5
9BF
330
1F
100
AcDbEntity
  8
DRAFT_ENT
  6
Continuous
 62
     7
100
AcDbLine
 10
122.184380297912
 20
93.78835168352702
 30
0.0
 11
122.1368235936041
 21
94.3319283491153
 31
0.0
  0
LINE
  5
9C0
330
1F
100
AcDbEntity
  8
DRAFT_ENT
  6
Continuous
 62
     7
100
AcDbLine
 10
110.3904133277032
 20
108.2883195259168
 30
0.0
 11
111.5988273265273
 21
108.2883191309844
 31
0.0
  0
LINE
  5
9C1
330
1F
100
AcDbEntity
  8
DRAFT_ENT
  6
Continuous
 62
     7
100
AcDbLine
 10
111.693235091974
 20
108.2883191001845
 30
0.0
 11
124.2283809598976
 21
108.2883150037947
 31
0.0
  0
ARC
  5
9C2
330
1F
100
AcDbEntity
  8
DRAFT_ENT
  6
Continuous
 62
     7
100
AcDbCircle
 10
104.8187538906199
 20
104.3877080341365
 30
0.0
 40
19.99995032853251
100
AcDbArc
 50
5.000947275999953
 51
10.65188227600033
  0
ARC
  5
9C3
330
1F
100
AcDbEntity
  8
DRAFT_ENT
  6
Continuous
 62
     7
100
AcDbCircle
 10
114.4573919066313
 20
107.3079046317601
 30
0.0
 40
4.749988202999805
100
AcDbArc
 50
195.625687276
 51
235.5293342759999
  0
ARC
  5
9C4
330
1F
100
AcDbEntity
  8
DRAFT_ENT
  6
Continuous
 62
     7
100
AcDbCircle
 10
112.9800573209104
 20
94.28835344965282
 30
0.0
 40
0.4999987582666459
100
AcDbArc
 50
148.3550602759996
 51
174.9999812759999
  0
ARC
  5
9C5
330
1F
100
AcDbEntity
  8
DRAFT_ENT
  6
Continuous
 62
     7
100
AcDbCircle
 10
112.9840459390721
 20
102.3299404764349
 30
0.0
 40
0.2499993791333229
100
AcDbArc
 50
354.9999812759999
 51
59.97288527600018
  0
ARC
  5
9C6
330
1F
100
AcDbEntity
  8
DRAFT_ENT
  6
Continuous
 62
     7
100
AcDbCircle
 10
110.1237142735191
 20
106.0958250583666
 30
0.0
 40
0.2499993791333229
100
AcDbArc
 50
171.8762272759995
 51
195.625687276
  0
ARC
  5
9C7
330
1F
100
AcDbEntity
  8
DRAFT_ENT
  6
Continuous
 62
     7
100
AcDbCircle
 10
111.2879780017859
 20
120.232307568672
 30
0.0
 40
20.42729326710583
100
AcDbArc
 50
300.0259722759999
 51
304.4717342759997
  0
ARC
  5
9C8
330
1F
100
AcDbEntity
  8
DRAFT_ENT
  6
Continuous
 62
     7
100
AcDbCircle
 10
110.39041324597
 20
108.0383201467834
 30
0.0
 40
0.2499993791333229
100
AcDbArc
 50
89.99998127600029
 51
169.3480802760002
  0
ARC
  5
9C9
330
1F
100
AcDbEntity
  8
DRAFT_ENT
  6
Continuous
 62
     7
100
AcDbCircle
 10
120.1614017403044
 20
107.3079027677648
 30
0.0
 40
4.749988202999805
100
AcDbArc
 50
304.4706282760001
 51
344.374275276
  0
ARC
  5
9CA
330
1F
100
AcDbEntity
  8
DRAFT_ENT
  6
Continuous
 62
     7
100
AcDbCircle
 10
121.6387278164467
 20
94.28835062005989
 30
0.0
 40
0.4999987582666459
100
AcDbArc
 50
4.999981276000005
 51
31.64490227599969
  0
ARC
  5
9CB
330
1F
100
AcDbEntity
  8
DRAFT_ENT
  6
Continuous
 62
     7
100
AcDbCircle
 10
121.6347444542718
 20
102.3299376493754
 30
0.0
 40
0.2499993791333229
100
AcDbArc
 50
120.0270772759996
 51
184.999981276
  0
ARC
  5
9CC
330
1F
100
AcDbEntity
  8
DRAFT_ENT
  6
Continuous
 62
     7
100
AcDbCircle
 10
124.4950785811519
 20
106.0958203618451
 30
0.0
 40
0.2499993791333229
100
AcDbArc
 50
344.374275276
 51
8.123735276000044
  0
ARC
  5
9CD
330
1F
100
AcDbEntity
  8
DRAFT_ENT
  6
Continuous
 62
     7
100
AcDbCircle
 10
123.3362480817021
 20
120.2408996101252
 30
0.0
 40
20.4374492419825
100
AcDbArc
 50
235.5293342759999
 51
240.1060112759998
  0
ARC
  5
9CE
330
1F
100
AcDbEntity
  8
DRAFT_ENT
  6
Continuous
 62
     7
100
AcDbCircle
 10
124.2283808782978
 20
108.0383156246614
 30
0.0
 40
0.2499993791333229
100
AcDbArc
 50
10.65188227600033
 51
89.99998127600029
  0
ARC
  5
9CF
330
1F
100
AcDbEntity
  8
DRAFT_ENT
  6
Continuous
 62
     7
100
AcDbCircle
 10
129.8000378476539
 20
104.3876998704236
 30
0.0
 40
19.99995032853251
100
AcDbArc
 50
169.3480802760002
 51
174.9990152760003
  0
LINE
  5
A5C
330
1F
100
AcDbEntity
  8
0
100
AcDbLine
 10
109.8742504354636
 20
106.0794701487169
 30
0.0
 11
124.7445427270681
 21
106.0794701487169
 31
0.0
  0
ARC
  5
A5D
330
1F
100
AcDbEntity
  8
0
100
AcDbCircle
 10
117.309391014158
 20
89.53161473627494
 30
0.0
 40
13.55002431734871
100
AcDbArc
 50
72.37136412468426
 51
107.6285984266081
  0
LINE
  5
A5F
330
1F
100
AcDbEntity
  8
0
  6
Continuous
 62
     7
100
AcDbLine
 10
108.3758401544659
 20
119.6661957549659
 30
0.0
 11
108.4528948519658
 21
117.4883172648659
 31
0.0
  0
LINE
  5
A60
330
1F
100
AcDbEntity
  8
0
  6
Continuous
 62
     7
100
AcDbLine
 10
114.5905967541659
 20
108.2883169477659
 30
0.0
 11
114.5914898975659
 21
108.2883172648659
 31
0.0
  0
LINE
  5
A61
330
1F
100
AcDbEntity
  8
0
  6
Continuous
 62
     7
100
AcDbLine
 10
110.2893961343659
 20
108.2883172648659
 30
0.0
 11
109.4066843373659
 21
108.2883172648659
 31
0.0
  0
LINE
  5
A62
330
1F
100
AcDbEntity
  8
SURFACE
  6
Continuous
 62
     7
100
AcDbLine
 10
109.4066843373659
 20
108.2883172648659
 30
0.0
 11
125.2121088251659
 21
108.2883172648659
 31
0.0
  0
LINE
  5
A63
330
1F
100
AcDbEntity
  8
0
  6
Continuous
 62
     7
100
AcDbLine
 10
125.9154290486659
 20
119.7283172648659
 30
0.0
 11
125.9987758324659
 21
119.7360155102659
 31
0.0
  0
LINE
  5
A64
330
1F
100
AcDbEntity
  8
0
  6
Continuous
 62
     7
100
AcDbLine
 10
108.7033641138659
 20
119.7283172648659
 30
0.0
 11
108.6200173300658
 21
119.7360155102659
 31
0.0
  0
LINE
  5
A65
330
1F
100
AcDbEntity
  8
0
  6
Continuous
 62
     7
100
AcDbLine
 10
126.1829905264659
 20
119.7283172648659
 30
0.0
 11
108.4358026360659
 21
119.7283172648659
 31
0.0
  0
LINE
  5
A66
330
1F
100
AcDbEntity
  8
0
  6
Continuous
 62
     7
100
AcDbLine
 10
108.8154607609659
 20
121.9070473656659
 30
0.0
 11
108.8165206768659
 21
121.9071124440659
 31
0.0
  0
LWPOLYLINE
  5
A67
330
1F
100
AcDbEntity
  8
0
  6
Continuous
 62
     7
100
AcDbPolyline
 90
       42
 70
     0
 43
0.0
 10
108.8133389965659
 20
121.9069621147659
 10
108.8116353589659
 20
121.9068670662659
 10
108.8095263017659
 20
121.9067341146659
 10
108.8068180074659
 20
121.9065379035659
 10
108.8033340403659
 20
121.9062426618659
 10
108.7992433939659
 20
121.9058338035659
 10
108.7948696243659
 20
121.9053216708659
 10
108.7902742388659
 20
121.9046994228659
 10
108.7853984067659
 20
121.9039440770659
 10
108.7803860864659
 20
121.9030644941659
 10
108.7752787458659
 20
121.9020595307659
 10
108.7700418224659
 20
121.9009136891659
 10
108.7647052340659
 20
121.8996241355659
 10
108.7592720220659
 20
121.8981827714659
 10
108.7537485781659
 20
121.8965821968659
 10
108.7481696915659
 20
121.8948243064659
 10
108.7425377797659
 20
121.8929024933659
 10
108.7368610201659
 20
121.8908119947659
 10
108.7311817889659
 20
121.8885623231659
 10
108.7255135393659
 20
121.8861545096659
 10
108.7198527633659
 20
121.8835826826659
 10
108.7142153228659
 20
121.8808496848659
 10
108.7086108028659
 20
121.8779564173659
 10
108.7030398033659
 20
121.8748993688659
 10
108.6975046698659
 20
121.8716755515659
 10
108.6920101667659
 20
121.8682831701659
 10
108.6865628922659
 20
121.8647216200659
 10
108.6811682932659
 20
121.8609896906659
 10
108.6758323850659
 20
121.8570866240659
 10
108.6705613059659
 20
121.8530118584659
 10
108.6653609190659
 20
121.8487647065659
 10
108.6602376361659
 20
121.8443450059659
 10
108.6551979477659
 20
121.8397527905659
 10
108.6502480553659
 20
121.8349879336659
 10
108.6453947063659
 20
121.8300509247659
 10
108.6406447242659
 20
121.8249424863659
 10
108.6360046316659
 20
121.8196631443659
 10
108.6314814589659
 20
121.8142141151659
 10
108.6270823084659
 20
121.8085968913659
 10
108.6228139924659
 20
121.8028127579659
 10
108.6186837672659
 20
121.7968637486659
 10
108.6149070798659
 20
121.7910812810659
  0
LINE
  5
A68
330
1F
100
AcDbEntity
  8
0
  6
Continuous
 62
     7
100
AcDbLine
 10
108.8154796038659
 20
121.9070668080659
 30
0.0
 11
108.8133389965659
 21
121.9069621147659
 31
0.0
  0
LINE
  5
A69
330
1F
100
AcDbEntity
  8
0
  6
Continuous
 62
     7
100
AcDbLine
 10
108.8172481657659
 20
121.9071426289659
 30
0.0
 11
108.8154796038659
 21
121.9070668080659
 31
0.0
  0
LWPOLYLINE
  5
A6A
330
1F
100
AcDbEntity
  8
0
  6
Continuous
 62
     7
100
AcDbPolyline
 90
       10
 70
     0
 43
0.0
 10
125.8022851322659
 20
121.9071451573659
 10
123.9398886818659
 20
121.9775962558659
 10
122.0454677639659
 20
122.0314570069659
 10
120.1507916843659
 20
122.0673678611659
 10
118.2556903769659
 20
122.0853223681659
 10
116.3603339079659
 20
122.0853092412659
 10
114.4652324766659
 20
122.0673284823659
 10
112.5705561496659
 20
122.0313913767659
 10
110.6761348604659
 20
121.9775043689659
 10
108.8165117828659
 20
121.9071453167659
  0
LINE
  5
A6B
330
1F
100
AcDbEntity
  8
0
  6
Continuous
 62
     7
100
AcDbLine
 10
125.8039204062659
 20
121.9070455856659
 30
0.0
 11
125.8020378822659
 21
121.9071304186659
 31
0.0
  0
LINE
  5
A6C
330
1F
100
AcDbEntity
  8
0
  6
Continuous
 62
     7
100
AcDbLine
 10
125.8057544985659
 20
121.9069522112659
 30
0.0
 11
125.8037584041659
 21
121.9070532962659
 31
0.0
  0
LINE
  5
A6D
330
1F
100
AcDbEntity
  8
0
  6
Continuous
 62
     7
100
AcDbLine
 10
125.8071890883659
 20
121.9068708570659
 30
0.0
 11
125.8049285908659
 21
121.9069956772659
 31
0.0
  0
LINE
  5
A6E
330
1F
100
AcDbEntity
  8
0
  6
Continuous
 62
     7
100
AcDbLine
 10
125.8089559857659
 20
121.9067600489659
 30
0.0
 11
125.8064094076659
 21
121.9069160099659
 31
0.0
  0
LINE
  5
A6F
330
1F
100
AcDbEntity
  8
0
  6
Continuous
 62
     7
100
AcDbLine
 10
125.8022785745659
 20
121.9071199680659
 30
0.0
 11
125.8033325331659
 21
121.9070504586659
 31
0.0
  0
LINE
  5
A70
330
1F
100
AcDbEntity
  8
0
  6
Continuous
 62
     7
100
AcDbLine
 10
125.8114775872659
 20
121.9065810085659
 30
0.0
 11
125.8084559149659
 21
121.9067926153659
 31
0.0
  0
LWPOLYLINE
  5
A71
330
1F
100
AcDbEntity
  8
0
  6
Continuous
 62
     7
100
AcDbPolyline
 90
        4
 70
     0
 43
0.0
 10
125.8268616839659
 20
121.9049378774659
 10
125.8220255794659
 20
121.9055576629659
 10
125.8177627920659
 20
121.9060250990659
 10
125.8140735107659
 20
121.9063705213659
  0
LWPOLYLINE
  5
A72
330
1F
100
AcDbEntity
  8
0
  6
Continuous
 62
     7
100
AcDbPolyline
 90
        5
 70
     0
 43
0.0
 10
125.8294329910659
 20
121.9045693159659
 10
125.8240100757659
 20
121.9053148901659
 10
125.8192039492659
 20
121.9058752955659
 10
125.8149616857659
 20
121.9062923450659
 10
125.8109822199659
 20
121.9066181434659
  0
LINE
  5
A73
330
1F
100
AcDbEntity
  8
0
  6
Continuous
 62
     7
100
AcDbLine
 10
126.2429530080659
 20
119.6661957549659
 30
0.0
 11
126.1658983105659
 21
117.4883172648659
 31
0.0
  0
LWPOLYLINE
  5
A74
330
1F
100
AcDbEntity
  8
0
  6
Continuous
 62
     7
100
AcDbPolyline
 90
       31
 70
     0
 43
0.0
 10
126.0133179759659
 20
121.7748891806659
 10
126.0101443260659
 20
121.7806580232659
 10
126.0055381268659
 20
121.7884441626659
 10
126.0006862091659
 20
121.7960091027659
 10
125.9956048052659
 20
121.8033401806659
 10
125.9903062987659
 20
121.8104321627659
 10
125.9848030565659
 20
121.8172804290659
 10
125.9791126115659
 20
121.8238751312659
 10
125.9732478232659
 20
121.8302133752659
 10
125.9672213870659
 20
121.8362928926659
 10
125.9610515878659
 20
121.8421067514659
 10
125.9547512239659
 20
121.8476544606659
 10
125.9483329832659
 20
121.8529359573659
 10
125.9418156803659
 20
121.8579469734659
 10
125.9352118189659
 20
121.8626892031659
 10
125.9285335623659
 20
121.8671648263659
 10
125.9217996254659
 20
121.8713723202659
 10
125.9150218070659
 20
121.8753154321659
 10
125.9082114443659
 20
121.8789983403659
 10
125.9013866887659
 20
121.8824221026659
 10
125.8945565751659
 20
121.8855930598659
 10
125.8877330329659
 20
121.8885162393659
 10
125.8809386279659
 20
121.8911929995659
 10
125.8741775540659
 20
121.8936327856659
 10
125.8674642402659
 20
121.8958411883659
 10
125.8608369934659
 20
121.8978177414659
 10
125.8542911251659
 20
121.8995763856659
 10
125.8478476023659
 20
121.9011236655659
 10
125.8415840274659
 20
121.9024562162659
 10
125.8354122195659
 20
121.9036065947659
 10
125.8294329910659
 20
121.9045693159659
  0
ARC
  5
A91
330
1F
100
AcDbEntity
  8
0
  6
Continuous
 62
     7
100
AcDbCircle
 10
209.9459367287659
 20
121.0818471939659
 30
0.0
 40
101.5566394027
100
AcDbArc
 50
182.0278052650995
 51
187.1193535139
  0
ARC
  5
A92
330
1F
100
AcDbEntity
  8
SURFACE
  6
Continuous
 62
     7
100
AcDbCircle
 10
24.67285643376589
 20
121.0818471939659
 30
0.0
 40
101.5566394027
100
AcDbArc
 50
352.8806464860999
 51
357.9721947349006
  0
ARC
  5
A93
330
1F
100
AcDbEntity
  8
0
  6
Continuous
 62
     7
100
AcDbCircle
 10
120.3665736999659
 20
119.4483608649659
 30
0.0
 40
12.0
100
AcDbArc
 50
169.1642757970998
 51
177.7313462879997
  0
ARC
  5
A94
330
1F
100
AcDbEntity
  8
0
  6
Continuous
 62
     7
100
AcDbCircle
 10
114.2522194624659
 20
119.4483608649659
 30
0.0
 40
12.0
100
AcDbArc
 50
2.268653711999483
 51
10.83572420290019
  0
ARC
  5
A95
330
1F
100
AcDbEntity
  8
0
  6
Continuous
 62
     7
100
AcDbCircle
 10
125.7914654912659
 20
121.6568294125659
 30
0.0
 40
0.2513175703
100
AcDbArc
 50
10.88450165979953
 51
28.01987047510001
  0
ARC
  5
A96
330
1F
100
AcDbEntity
  8
0
  6
Continuous
 62
     7
100
AcDbCircle
 10
108.8262319189659
 20
121.6572294292659
 30
0.0
 40
0.2501502919
100
AcDbArc
 50
147.6500820935997
 51
169.1580769889005
  0
ARC
  5
A97
330
1F
100
AcDbEntity
  8
0
  6
Continuous
 62
     7
100
AcDbCircle
 10
125.7927023650659
 20
121.6583291887659
 30
0.0
 40
0.2489591055
100
AcDbArc
 50
81.13186417529993
 51
87.55270956890015
  0
ARC
  5
A98
330
1F
100
AcDbEntity
  8
0
  6
Continuous
 62
     7
100
AcDbCircle
 10
109.4066845070659
 20
108.5245377373659
 30
0.0
 40
0.2362204724
100
AcDbArc
 50
187.1205868762005
 51
269.9999588418995
  0
ARC
  5
A99
330
1F
100
AcDbEntity
  8
SURFACE
  6
Continuous
 62
     7
100
AcDbCircle
 10
125.2121086554659
 20
108.5245377373659
 30
0.0
 40
0.2362204724
100
AcDbArc
 50
270.0000411580997
 51
352.8794131237995
  0
ARC
  5
A9A
330
1F
100
AcDbEntity
  8
0
  6
Continuous
 62
     7
100
AcDbCircle
 10
126.1229079072659
 20
119.9186322255659
 30
0.0
 40
0.12
100
AcDbArc
 50
270.0000139516997
 51
2.268653159699948
  0
ARC
  5
A9B
330
1F
100
AcDbEntity
  8
0
  6
Continuous
 62
     7
100
AcDbCircle
 10
108.4958870783659
 20
119.9186322255659
 30
0.0
 40
0.12
100
AcDbArc
 50
177.7313812982001
 51
269.9991155453998
  0
ARC
  5
A9C
330
1F
100
AcDbEntity
  8
0
  6
Continuous
 62
     7
100
AcDbCircle
 10
108.4358039144659
 20
119.6683172648659
 30
0.0
 40
0.06
100
AcDbArc
 50
90.00122076769971
 51
182.0262719777
  0
ARC
  5
A9D
330
1F
100
AcDbEntity
  8
0
  6
Continuous
 62
     7
100
AcDbCircle
 10
126.1829894126659
 20
119.6683172648659
 30
0.0
 40
0.06
100
AcDbArc
 50
357.9737224671001
 51
89.99893635489982
  0
ARC
  5
A9E
330
1F
100
AcDbEntity
  8
0
  6
Continuous
 62
     7
100
AcDbCircle
 10
108.6228871134659
 20
119.7670832689659
 30
0.0
 40
0.0311999998
100
AcDbArc
 50
179.6795912612995
 51
264.7224645590003
  0
ARC
  5
A9F
330
1F
100
AcDbEntity
  8
0
  6
Continuous
 62
     7
100
AcDbCircle
 10
125.9959058113659
 20
119.7670832699659
 30
0.0
 40
0.0311999997
100
AcDbArc
 50
275.2779698168997
 51
0.3204069815998438
  0
ARC
  5
AA0
330
1F
100
AcDbEntity
  8
0
  6
Continuous
 62
     7
100
AcDbCircle
 10
126.0583052850659
 20
119.7674322255659
 30
0.0
 40
0.0311999368
100
AcDbArc
 50
89.99815679519956
 51
180.3204126032995
  0
ARC
  5
AA1
330
1F
100
AcDbEntity
  8
0
  6
Continuous
 62
     7
100
AcDbCircle
 10
108.5604893086659
 20
119.7674322255659
 30
0.0
 40
0.0311999023
100
AcDbArc
 50
359.6795809285997
 51
90.00447147869968
  0
LINE
  5
AF4
330
1F
100
AcDbEntity
  8
0
  6
Continuous
 62
     7
100
AcDbLine
 10
113.8512542388659
 20
119.7360155853659
 30
0.0
 11
113.8586165141659
 21
119.7360155881659
 31
0.0
  0
SPLINE
  5
AF5
330
1F
100
AcDbEntity
  8
SURFACE
  6
Continuous
 62
     7
100
AcDbSpline
210
0.0
220
0.0
230
1.0
 70
     8
 71
     3
 72
    13
 73
     9
 74
     0
 42
0.0000000001
 43
0.0000000001
 40
5.591285666238421
 40
5.591285666238421
 40
5.591285666238421
 40
5.591285666238421
 40
6.313305641549193
 40
7.4010783231478
 40
8.501196459331456
 40
9.547409098706058
 40
10.46976823561341
 40
10.74395130985556
 40
10.74395130985556
 40
10.74395130985556
 40
10.74395130985556
 10
112.0986018263278
 20
110.5432738338441
 30
0.0
 10
111.9057136998833
 20
110.6874481841756
 30
0.0
 10
111.4366871797553
 20
111.068174872546
 30
0.0
 10
110.7467855239312
 20
111.7532843474747
 30
0.0
 10
110.076536343427
 20
112.6009858990417
 30
0.0
 10
109.5391644251515
 20
113.4739446980428
 30
0.0
 10
109.217440283373
 20
114.1503078746313
 30
0.0
 10
109.0700095090691
 20
114.5209492169509
 30
0.0
 10
109.0375101245659
 20
114.6063700498659
 30
0.0
  0
SPLINE
  5
AF6
330
1F
100
AcDbEntity
  8
SURFACE
  6
Continuous
 62
     7
100
AcDbSpline
210
0.0
220
0.0
230
1.0
 70
     8
 71
     3
 72
    12
 73
     8
 74
     6
 42
0.0000000001
 43
0.0000000001
 44
0.0000000001
 12
-0.3555950846973466
 22
0.934640110277259
 32
0.0
 13
-0.0354075438861989
 23
0.999372956326089
 33
0.0
 40
0.0
 40
0.0
 40
0.0
 40
0.0
 40
0.5305978718818776
 40
1.243047120358497
 40
1.8739287711257
 40
2.439015180300464
 40
2.953314841460928
 40
2.953314841460928
 40
2.953314841460928
 40
2.953314841460928
 10
109.0375101245659
 20
114.6063700498659
 30
0.0
 10
108.9746174595018
 20
114.7716760676954
 30
0.0
 10
108.8385206396771
 20
115.1633080008311
 30
0.0
 10
108.674312043148
 20
115.7666748534633
 30
0.0
 10
108.5531711107851
 20
116.3916970986395
 30
0.0
 10
108.4820811977712
 20
116.9577059024064
 30
0.0
 10
108.4589648812402
 20
117.3169915405954
 30
0.0
 10
108.4528948519658
 20
117.4883172648659
 30
0.0
 11
109.0375101245659
 21
114.6063700498659
 31
0.0
 11
108.8633815628659
 21
115.1075819268659
 31
0.0
 11
108.6762899371659
 21
115.7950269466659
 31
0.0
 11
108.5562863534659
 21
116.4143901657659
 31
0.0
 11
108.4859313991659
 21
116.9750797681659
 31
0.0
 11
108.4528948519658
 21
117.4883172648659
 31
0.0
  0
SPLINE
  5
AF7
330
1F
100
AcDbEntity
  8
SURFACE
  6
Continuous
 62
     7
100
AcDbSpline
210
0.0
220
0.0
230
1.0
 70
     8
 71
     3
 72
    14
 73
    10
 74
     0
 42
0.0000000001
 43
0.0000000001
 40
5.176055189284751
 40
5.176055189284751
 40
5.176055189284751
 40
5.176055189284751
 40
5.377013995347436
 40
6.321793009261462
 40
7.275441053350212
 40
8.232663108118323
 40
9.154415196525681
 40
9.995193007517897
 40
10.62012249856109
 40
10.62012249856109
 40
10.62012249856109
 40
10.62012249856109
 10
112.4193780404362
 20
110.571199165359
 30
0.0
 10
112.3633395677195
 20
110.6079561862215
 30
0.0
 10
112.0461711896831
 20
110.8210720263132
 30
0.0
 10
111.490074768619
 20
111.2479974846679
 30
0.0
 10
110.7996868106048
 20
111.90597753999
 30
0.0
 10
110.1886036653589
 20
112.6281504833903
 30
0.0
 10
109.6785193892139
 20
113.3796771742636
 30
0.0
 10
109.3004964736607
 20
114.0814048904226
 30
0.0
 10
109.1054102885015
 20
114.5298425793416
 30
0.0
 10
109.0293709403659
 20
114.7237781432659
 30
0.0
  0
SPLINE
  5
AF8
330
1F
100
AcDbEntity
  8
SURFACE
  6
Continuous
 62
     7
100
AcDbSpline
210
0.0
220
0.0
230
1.0
 70
     8
 71
     3
 72
    13
 73
     9
 74
     7
 42
0.0000000001
 43
0.0000000001
 44
0.0000000001
 12
-0.3650300516712873
 22
0.9309957364976797
 32
0.0
 13
-0.0354012515500806
 23
0.9993731792422128
 33
0.0
 40
0.0
 40
0.0
 40
0.0
 40
0.0
 40
0.1177045910841883
 40
0.777289435378174
 40
1.370674202229349
 40
1.904652409545925
 40
2.389423956987323
 40
2.836992759784619
 40
2.836992759784619
 40
2.836992759784619
 40
2.836992759784619
 10
109.0293709403659
 20
114.7237781432659
 30
0.0
 10
109.0150490360441
 20
114.7603056340877
 30
0.0
 10
108.9221396488565
 20
115.0021718990314
 30
0.0
 10
108.7778669137041
 20
115.4362497322404
 30
0.0
 10
108.6319025921205
 20
116.0142192100007
 30
0.0
 10
108.5357722699119
 20
116.5433067776914
 30
0.0
 10
108.4775266253789
 20
117.0288628737861
 30
0.0
 10
108.4581763505571
 20
117.3392211790722
 30
0.0
 10
108.4528948519658
 20
117.4883172648659
 30
0.0
 11
109.0293709403659
 21
114.7237781432659
 31
0.0
 11
108.9871649872659
 21
114.8336554761659
 31
0.0
 11
108.7790839102659
 21
115.4595583697659
 31
0.0
 11
108.6339382197659
 21
116.0349175706659
 31
0.0
 11
108.5384097433659
 21
116.5602812885659
 31
0.0
 11
108.4808298344659
 21
117.0416210929659
 31
0.0
 11
108.4528948519658
 21
117.4883172648659
 31
0.0
  0
SPLINE
  5
AF9
330
1F
100
AcDbEntity
  8
SURFACE
  6
Continuous
 62
     7
100
AcDbSpline
210
0.0
220
0.0
230
1.0
 70
     8
 71
     3
 72
    13
 73
     9
 74
     0
 42
0.0000000001
 43
0.0000000001
 40
5.564301686430976
 40
5.564301686430976
 40
5.564301686430976
 40
5.564301686430976
 40
6.313305641464821
 40
7.401078323134409
 40
8.501196459318082
 40
9.547409098692682
 40
10.46976823560003
 40
10.74395130980522
 40
10.74395130980522
 40
10.74395130980522
 40
10.74395130980522
 10
122.4985408274173
 20
110.527141556088
 30
0.0
 10
122.6990842258152
 20
110.6761050127258
 30
0.0
 10
123.1757084352498
 20
111.0618217636826
 30
0.0
 10
123.8720076386031
 20
111.7532843474339
 30
0.0
 10
124.5422568191174
 20
112.6009858990406
 30
0.0
 10
125.0796287373203
 20
113.4739446980657
 30
0.0
 10
125.401352879294
 20
114.1503078745643
 30
0.0
 10
125.548783653367
 20
114.5209492169624
 30
0.0
 10
125.5812830378659
 20
114.6063700498659
 30
0.0
  0
SPLINE
  5
AFA
330
1F
100
AcDbEntity
  8
SURFACE
  6
Continuous
 62
     7
100
AcDbSpline
210
0.0
220
0.0
230
1.0
 70
     8
 71
     3
 72
    12
 73
     8
 74
     6
 42
0.0000000001
 43
0.0000000001
 44
0.0000000001
 12
0.3555950846973466
 22
0.934640110277259
 32
0.0
 13
0.0354075438861989
 23
0.999372956326089
 33
0.0
 40
0.0
 40
0.0
 40
0.0
 40
0.0
 40
0.5305978719146909
 40
1.243047120391318
 40
1.873928771158521
 40
2.439015180333285
 40
2.953314841493747
 40
2.953314841493747
 40
2.953314841493747
 40
2.953314841493747
 10
125.5812830378659
 20
114.6063700498659
 30
0.0
 10
125.6441757029338
 20
114.7716760677056
 30
0.0
 10
125.780272522908
 20
115.163308000801
 30
0.0
 10
125.9444811193689
 20
115.7666748534685
 30
0.0
 10
126.0656220517501
 20
116.3916970986383
 30
0.0
 10
126.1367119647598
 20
116.9577059024067
 30
0.0
 10
126.1598282812915
 20
117.3169915405954
 30
0.0
 10
126.1658983105659
 20
117.4883172648659
 30
0.0
 11
125.5812830378659
 21
114.6063700498659
 31
0.0
 11
125.7554115996659
 21
115.1075819268659
 31
0.0
 11
125.9425032253659
 21
115.7950269466659
 31
0.0
 11
126.0625068090659
 21
116.4143901657659
 31
0.0
 11
126.1328617633659
 21
116.9750797681659
 31
0.0
 11
126.1658983105659
 21
117.4883172648659
 31
0.0
  0
SPLINE
  5
AFB
330
1F
100
AcDbEntity
  8
SURFACE
  6
Continuous
 62
     7
100
AcDbSpline
210
0.0
220
0.0
230
1.0
 70
     8
 71
     3
 72
    14
 73
    10
 74
     0
 42
0.0000000001
 43
0.0000000001
 40
5.148828871178349
 40
5.148828871178349
 40
5.148828871178349
 40
5.148828871178349
 40
5.377013995343599
 40
6.321793009257625
 40
7.275441053346375
 40
8.232663108114486
 40
9.154415196521828
 40
9.995193007514057
 40
10.62012249855724
 40
10.62012249855724
 40
10.62012249855724
 40
10.62012249855724
 10
122.1766160516447
 20
110.556293736601
 30
0.0
 10
122.2403720427633
 20
110.5978388119113
 30
0.0
 10
122.5654101218412
 20
110.8155353555527
 30
0.0
 10
123.1287183939132
 20
111.2479974846666
 30
0.0
 10
123.8191063519268
 20
111.9059775399904
 30
0.0
 10
124.4301894971729
 20
112.6281504833902
 30
0.0
 10
124.9402737733178
 20
113.3796771742637
 30
0.0
 10
125.3182966888711
 20
114.0814048904226
 30
0.0
 10
125.5133828740302
 20
114.5298425793417
 30
0.0
 10
125.5894222221659
 20
114.7237781432659
 30
0.0
  0
SPLINE
  5
AFC
330
1F
100
AcDbEntity
  8
SURFACE
  6
Continuous
 62
     7
100
AcDbSpline
210
0.0
220
0.0
230
1.0
 70
     8
 71
     3
 72
    13
 73
     9
 74
     7
 42
0.0000000001
 43
0.0000000001
 44
0.0000000001
 12
0.3650300516712873
 22
0.9309957364976797
 32
0.0
 13
0.0354012515500806
 23
0.9993731792422128
 33
0.0
 40
0.0
 40
0.0
 40
0.0
 40
0.0
 40
0.1177045910841985
 40
0.7772894353466408
 40
1.370674202222267
 40
1.904652409538848
 40
2.389423956980246
 40
2.83699275977754
 40
2.83699275977754
 40
2.83699275977754
 40
2.83699275977754
 10
125.5894222221659
 20
114.7237781432659
 30
0.0
 10
125.6037441264877
 20
114.7603056340878
 30
0.0
 10
125.6966535136797
 20
115.0021718990189
 30
0.0
 10
125.8409262486562
 20
115.4362497322805
 30
0.0
 10
125.9868905704486
 20
116.0142192099823
 30
0.0
 10
126.0830208926109
 20
116.5433067776938
 30
0.0
 10
126.1412665371551
 20
117.0288628737855
 30
0.0
 10
126.1606168119746
 20
117.3392211790722
 30
0.0
 10
126.1658983105659
 20
117.4883172648659
 30
0.0
 11
125.5894222221659
 21
114.7237781432659
 31
0.0
 11
125.6316281752659
 21
114.8336554761659
 31
0.0
 11
125.8397092521659
 21
115.4595583697659
 31
0.0
 11
125.9848549427659
 21
116.0349175706659
 31
0.0
 11
126.0803834191659
 21
116.5602812885659
 31
0.0
 11
126.1379633280659
 21
117.0416210929659
 31
0.0
 11
126.1658983105659
 21
117.4883172648659
 31
0.0
  0
LINE
  5
B03
330
1F
100
AcDbEntity
  8
0
100
AcDbLine
 10
108.5604868737623
 20
119.7986321277709
 30
0.0
 11
108.4958852259685
 21
119.7986322255802
 31
0.0
  0
LINE
  5
B04
330
1F
100
AcDbEntity
  8
0
100
AcDbLine
 10
126.0583062887676
 20
119.7986321623498
 30
0.0
 11
126.1229080246922
 21
119.7986322255659
 31
0.0
  0
LWPOLYLINE
  5
C83
330
1F
100
AcDbEntity
  8
0
  6
Continuous
100
AcDbPolyline
 90
        8
 70
     0
 43
0.0
 10
123.8127962124186
 20
110.0610462315507
 10
123.8117093896686
 20
110.0655220903408
 10
123.8035371506585
 20
110.0897225403807
 10
123.7917325300386
 20
110.1125518206208
 10
123.7768217298485
 20
110.1330172344207
 10
123.7593041259786
 20
110.1507747452308
 10
123.7398849070685
 20
110.1655179382407
 10
123.7239741051485
 20
110.1748237949307
  0
LWPOLYLINE
  5
C84
330
1F
100
AcDbEntity
  8
0
  6
Continuous
100
AcDbPolyline
 90
       19
 70
     0
 43
0.0
 10
123.9151176564486
 20
109.3433110778308
 10
123.9145022719385
 20
109.3459093295908
 10
123.9107782672385
 20
109.3595364911908
 10
123.9062167359785
 20
109.3726654090708
 10
123.9007017533885
 20
109.3851428335107
 10
123.8941404444784
 20
109.3968141731907
 10
123.8865025694286
 20
109.4075740711708
 10
123.8779361379185
 20
109.4173644455308
 10
123.8686519601585
 20
109.4261132484507
 10
123.8588629816085
 20
109.4337714499107
 10
123.8487370329186
 20
109.4403415626807
 10
123.8384334883685
 20
109.4458608368307
 10
123.8280181011785
 20
109.4504310557307
 10
123.8176470725885
 20
109.4541079761208
 10
123.8071190561286
 20
109.4570496419907
 10
123.7959823194786
 20
109.4593781288007
 10
123.7849997342286
 20
109.4609503338507
 10
123.7748785333986
 20
109.4618036772507
 10
123.7654575311585
 20
109.4621084731708
  0
LINE
  5
C85
330
1F
100
AcDbEntity
  8
0
  6
Continuous
100
AcDbLine
 10
124.0984306430584
 20
108.5431578738508
 30
0.0
 11
123.9142385539385
 21
109.3435237639407
 31
0.0
  0
LWPOLYLINE
  5
C86
330
1F
100
AcDbEntity
  8
0
  6
Continuous
100
AcDbPolyline
 90
        7
 70
     0
 43
0.0
 10
123.9085024998486
 20
109.6278740345608
 10
123.9007526479986
 20
109.6615936857208
 10
123.8826879322385
 20
109.7423096523507
 10
123.8640137361786
 20
109.8281060159908
 10
123.8447302700285
 20
109.9173585448107
 10
123.8244890091185
 20
110.0093601356608
 10
123.8127962319184
 20
110.0610461395107
  0
LINE
  5
C87
330
1F
100
AcDbEntity
  8
0
  6
Continuous
100
AcDbLine
 10
123.4020278598786
 20
109.5821453396007
 30
0.0
 11
123.3996168085085
 21
109.6278740345608
 31
0.0
  0
LWPOLYLINE
  5
C88
330
1F
100
AcDbEntity
  8
0
  6
Continuous
100
AcDbPolyline
 90
        4
 70
     0
 43
0.0
 10
123.7385704752485
 20
109.5821599653807
 10
123.7391971221786
 20
109.5937237691908
 10
123.7402264987085
 20
109.6117131591808
 10
123.7412259045185
 20
109.6278740345608
  0
LINE
  5
C89
330
1F
100
AcDbEntity
  8
0
  6
Continuous
100
AcDbLine
 10
123.6492173038085
 20
108.4701358502308
 30
0.0
 11
123.6604453768985
 21
108.4839283819707
 31
0.0
  0
LWPOLYLINE
  5
C8A
330
1F
100
AcDbEntity
  8
0
  6
Continuous
100
AcDbPolyline
 90
        4
 70
     0
 43
0.0
 10
110.7730818171786
 20
108.4701361712007
 10
110.7890921123885
 20
108.4517433632607
 10
110.8073154458286
 20
108.4364704020508
 10
110.8276782997684
 20
108.4241940651207
  0
LINE
  5
C8B
330
1F
100
AcDbEntity
  8
0
  6
Continuous
100
AcDbLine
 10
123.6604453768985
 20
108.4839283819707
 30
0.0
 11
123.6737529728885
 21
108.4973993204907
 31
0.0
  0
LWPOLYLINE
  5
C8C
330
1F
100
AcDbEntity
  8
0
  6
Continuous
100
AcDbPolyline
 90
       15
 70
     0
 43
0.0
 10
121.8991052365985
 20
108.3991051896207
 10
121.9013998916885
 20
108.4087520170708
 10
121.9085847489785
 20
108.4303118266408
 10
121.9180969983485
 20
108.4503737460507
 10
121.9295727054486
 20
108.4686529774107
 10
121.9426481792886
 20
108.4849855674508
 10
121.9569544911785
 20
108.4992703318408
 10
121.9720846979585
 20
108.5114353105108
 10
121.9876856136784
 20
108.5215110950608
 10
122.0032069159685
 20
108.5294727204207
 10
122.0183243791085
 20
108.5354938567107
 10
122.0318680651086
 20
108.5395449497307
 10
122.0426099423585
 20
108.5418731214207
 10
122.0502805933985
 20
108.5430285217707
 10
122.0515629410885
 20
108.5431578738508
  0
LWPOLYLINE
  5
C8D
330
1F
100
AcDbEntity
  8
0
  6
Continuous
100
AcDbPolyline
 90
        7
 70
     0
 43
0.0
 10
123.6737529728885
 20
108.4973993204907
 10
123.6882347001485
 20
108.5094170484208
 10
123.7035593734086
 20
108.5197865747308
 10
123.7193809472285
 20
108.5284097212108
 10
123.7352032600985
 20
108.5352157559008
 10
123.7506460705985
 20
108.5402926156108
 10
123.7626073659186
 20
108.5431578738508
  0
LWPOLYLINE
  5
C8E
330
1F
100
AcDbEntity
  8
0
  6
Continuous
100
AcDbPolyline
 90
        5
 70
     0
 43
0.0
 10
123.5934851579885
 20
108.4236302920407
 10
123.6135971939585
 20
108.4354922508507
 10
123.6316780397285
 20
108.4502666317707
 10
123.6473095638185
 20
108.4676117690607
 10
123.6492169738685
 20
108.4701361719808
  0
LINE
  5
C8F
330
1F
100
AcDbEntity
  8
0
  6
Continuous
100
AcDbLine
 10
110.8276782997684
 20
108.4241940651207
 30
0.0
 11
110.8496923754886
 21
108.4152087412407
 31
0.0
  0
LINE
  5
C90
330
1F
100
AcDbEntity
  8
0
  6
Continuous
100
AcDbLine
 10
121.5714671367186
 20
108.2749002122308
 30
0.0
 11
121.5742895811485
 21
108.2770630075407
 31
0.0
  0
LINE
  5
C91
330
1F
100
AcDbEntity
  8
0
  6
Continuous
100
AcDbLine
 10
123.5718070247586
 20
108.4149550637908
 30
0.0
 11
123.5934851579885
 21
108.4236302920407
 31
0.0
  0
LINE
  5
C92
330
1F
100
AcDbEntity
  8
0
  6
Continuous
100
AcDbLine
 10
110.8496923754886
 20
108.4152087412407
 30
0.0
 11
110.8728297767885
 21
108.4097299046308
 31
0.0
  0
LINE
  5
C93
330
1F
100
AcDbEntity
  8
0
  6
Continuous
100
AcDbLine
 10
123.5490641022186
 20
108.4096671860008
 30
0.0
 11
123.5718070247586
 21
108.4149550637908
 31
0.0
  0
LWPOLYLINE
  5
C94
330
1F
100
AcDbEntity
  8
0
  6
Continuous
100
AcDbPolyline
 90
       10
 70
     0
 43
0.0
 10
110.6597463519485
 20
108.5431578738508
 10
110.6618439096185
 20
108.5427685048708
 10
110.6764624816384
 20
108.5388691581208
 10
110.6917849014785
 20
108.5333749726707
 10
110.7069601220585
 20
108.5263892142808
 10
110.7219182081886
 20
108.5178105535408
 10
110.7363913168385
 20
108.5076440007807
 10
110.7501628057385
 20
108.4958998091008
 10
110.7630062455685
 20
108.4826277272908
 10
110.7730814985485
 20
108.4701358346308
  0
LINE
  5
C95
330
1F
100
AcDbEntity
  8
0
  6
Continuous
100
AcDbLine
 10
123.5257823338385
 20
108.4078889486307
 30
0.0
 11
123.5490641022186
 21
108.4096671860008
 31
0.0
  0
LINE
  5
C96
330
1F
100
AcDbEntity
  8
0
  6
Continuous
100
AcDbLine
 10
110.8728297767885
 20
108.4097299046308
 30
0.0
 11
110.8965352793885
 21
108.4078889474608
 31
0.0
  0
LWPOLYLINE
  5
C97
330
1F
100
AcDbEntity
  8
0
  6
Continuous
100
AcDbPolyline
 90
       13
 70
     0
 43
0.0
 10
112.3706846191685
 20
108.5431578738508
 10
112.3752381374885
 20
108.5425989324807
 10
112.3848846190085
 20
108.5408460466707
 10
112.3976039503085
 20
108.5375539981708
 10
112.4127876198484
 20
108.5321817672808
 10
112.4295398284385
 20
108.5243246014707
 10
112.4468723488386
 20
108.5137866918807
 10
112.4642801579585
 20
108.5002151458407
 10
112.4811022783385
 20
108.4833490498408
 10
112.4964152519885
 20
108.4632739355608
 10
112.5093868731186
 20
108.4402122348207
 10
112.5192099587285
 20
108.4146923562807
 10
112.5231920435885
 20
108.3991125512607
  0
LWPOLYLINE
  5
C98
330
1F
100
AcDbEntity
  8
0
  6
Continuous
100
AcDbPolyline
 90
       11
 70
     0
 43
0.0
 10
120.3611538444785
 20
108.4906182068007
 10
120.3579464053085
 20
108.4904616077607
 10
120.3599765085785
 20
108.4903258413507
 10
120.3666000575886
 20
108.4893533026408
 10
120.3775636997586
 20
108.4865581371508
 10
120.3922917108486
 20
108.4808485636707
 10
120.4101398806684
 20
108.4709282920107
 10
120.4292585858586
 20
108.4560403138408
 10
120.4480322986085
 20
108.4354431869008
 10
120.4637643475386
 20
108.4101781347507
 10
120.4736224231685
 20
108.3855864519208
  0
LINE
  5
C99
330
1F
100
AcDbEntity
  8
0
  6
Continuous
100
AcDbLine
 10
120.6204100069685
 20
108.2770630075407
 30
0.0
 11
121.7488259075286
 21
108.2770630075407
 31
0.0
  0
LINE
  5
C9A
330
1F
100
AcDbEntity
  8
0
  6
Continuous
100
AcDbLine
 10
113.8018887836885
 20
108.2770630075407
 30
0.0
 11
112.6734728831285
 21
108.2770630075407
 31
0.0
  0
LINE
  5
C9B
330
1F
100
AcDbEntity
  8
0
  6
Continuous
100
AcDbLine
 10
110.8965371720585
 20
108.4078889474608
 30
0.0
 11
112.1999176490284
 21
108.4078889474608
 31
0.0
  0
LINE
  5
C9C
330
1F
100
AcDbEntity
  8
0
  6
Continuous
100
AcDbLine
 10
123.5257616193785
 20
108.4078889474608
 30
0.0
 11
122.2223811420185
 21
108.4078889474608
 31
0.0
  0
LWPOLYLINE
  5
C9D
330
1F
100
AcDbEntity
  8
0
  6
Continuous
100
AcDbPolyline
 90
        9
 70
     0
 43
0.0
 10
113.8018829048285
 20
108.2770630075407
 10
113.8283191480385
 20
108.2793559821208
 10
113.8539658288385
 20
108.2861664284908
 10
113.8780569451085
 20
108.2972909480007
 10
113.8998729394385
 20
108.3123972832708
 10
113.9187622087986
 20
108.3310342429108
 10
113.9341605772385
 20
108.3526451924007
 10
113.9456081278986
 20
108.3765846673107
 10
113.9486529772384
 20
108.3855085041807
  0
LINE
  5
C9E
330
1F
100
AcDbEntity
  8
0
  6
Continuous
100
AcDbLine
 10
124.1002646874785
 20
108.5431578738508
 30
0.0
 11
110.3220341027885
 21
108.5431578738508
 31
0.0
  0
LWPOLYLINE
  5
C9F
330
1F
100
AcDbEntity
  8
0
  6
Continuous
100
AcDbPolyline
 90
        3
 70
     0
 43
0.0
 10
121.1776791275585
 20
109.4482362078807
 10
120.9616738909685
 20
109.4360835263008
 10
120.7477579023185
 20
109.4249471574207
  0
LINE
  5
CA0
330
1F
100
AcDbEntity
  8
0
  6
Continuous
100
AcDbLine
 10
121.3910401789684
 20
109.4576217154407
 30
0.0
 11
121.3687465508586
 21
109.4566410444507
 31
0.0
  0
LINE
  5
CA1
330
1F
100
AcDbEntity
  8
0
  6
Continuous
100
AcDbLine
 10
121.3645442556185
 20
109.4564561903008
 30
0.0
 11
121.1776791275585
 21
109.4482362078807
 31
0.0
  0
LINE
  5
CA2
330
1F
100
AcDbEntity
  8
0
  6
Continuous
100
AcDbLine
 10
123.5824060126386
 20
109.4641525735407
 30
0.0
 11
123.5081040433385
 21
109.4613560379807
 31
0.0
  0
LINE
  5
CA3
330
1F
100
AcDbEntity
  8
0
  6
Continuous
100
AcDbLine
 10
120.7477579023185
 20
109.4249471574207
 30
0.0
 11
120.5599303607285
 21
109.4184539011708
 31
0.0
  0
LINE
  5
CA4
330
1F
100
AcDbEntity
  8
0
  6
Continuous
100
AcDbLine
 10
121.6015496010785
 20
109.4630661723807
 30
0.0
 11
121.3910401789684
 21
109.4576217154407
 31
0.0
  0
LWPOLYLINE
  5
CA5
330
1F
100
AcDbEntity
  8
0
  6
Continuous
100
AcDbPolyline
 90
        5
 70
     0
 43
0.0
 10
120.5599753963685
 20
109.4184549385707
 10
120.4919841555185
 20
109.4171306760207
 10
120.3970324416486
 20
109.4159592848907
 10
120.2991451712585
 20
109.4154696141507
 10
120.1983994200485
 20
109.4156224200507
  0
LINE
  5
CA6
330
1F
100
AcDbEntity
  8
0
  6
Continuous
100
AcDbLine
 10
121.7875511735885
 20
109.4644290535108
 30
0.0
 11
121.6015496010785
 21
109.4630661723807
 31
0.0
  0
LWPOLYLINE
  5
CA7
330
1F
100
AcDbEntity
  8
0
  6
Continuous
100
AcDbPolyline
 90
        6
 70
     0
 43
0.0
 10
114.2636814886986
 20
109.4158467059308
 10
114.2238993706085
 20
109.4156224200507
 10
114.1231536193985
 20
109.4154696141507
 10
114.0252663490086
 20
109.4159592848907
 10
113.9303146351385
 20
109.4171306760207
 10
113.8623233942885
 20
109.4184549385707
  0
LINE
  5
CA8
330
1F
100
AcDbEntity
  8
0
  6
Continuous
100
AcDbLine
 10
120.1983994200485
 20
109.4156224200507
 30
0.0
 11
120.1586173019585
 21
109.4158467059308
 31
0.0
  0
LWPOLYLINE
  5
CA9
330
1F
100
AcDbEntity
  8
0
  6
Continuous
100
AcDbPolyline
 90
        4
 70
     0
 43
0.0
 10
120.1586035872185
 20
109.4156715651207
 10
120.0575968390385
 20
109.4168022812008
 10
119.9552934871086
 20
109.4187286795708
 10
119.8490242973285
 20
109.4215564521808
  0
LWPOLYLINE
  5
CAA
330
1F
100
AcDbEntity
  8
0
  6
Continuous
100
AcDbPolyline
 90
        3
 70
     0
 43
0.0
 10
113.0312586116885
 20
109.4576217154407
 10
112.8207491895785
 20
109.4630661723807
 10
112.6347476170684
 20
109.4644290535108
  0
LWPOLYLINE
  5
CAB
330
1F
100
AcDbEntity
  8
0
  6
Continuous
100
AcDbPolyline
 90
        3
 70
     0
 43
0.0
 10
113.8623684295386
 20
109.4184539011708
 10
113.6745408883386
 20
109.4249471574207
 10
113.4606248996886
 20
109.4360835263008
  0
LWPOLYLINE
  5
CAC
330
1F
100
AcDbEntity
  8
0
  6
Continuous
100
AcDbPolyline
 90
        4
 70
     0
 43
0.0
 10
110.9141947473185
 20
109.4613560379807
 10
110.8398927780186
 20
109.4641525735407
 10
110.7727930054085
 20
109.4633568756507
 10
110.7221693954886
 20
109.4626662542907
  0
LINE
  5
CAD
330
1F
100
AcDbEntity
  8
0
  6
Continuous
100
AcDbLine
 10
113.0535522397985
 20
109.4566410444507
 30
0.0
 11
113.0312586116885
 21
109.4576217154407
 31
0.0
  0
LWPOLYLINE
  5
CAE
330
1F
100
AcDbEntity
  8
0
  6
Continuous
100
AcDbPolyline
 90
        3
 70
     0
 43
0.0
 10
113.4606248996886
 20
109.4360835263008
 10
113.2446196630985
 20
109.4482362078807
 10
113.0577545350385
 20
109.4564561903008
  0
LINE
  5
CAF
330
1F
100
AcDbEntity
  8
0
  6
Continuous
100
AcDbLine
 10
114.6414371621885
 20
109.4238119021307
 30
0.0
 11
114.5732744933285
 21
109.4215564521808
 31
0.0
  0
LWPOLYLINE
  5
CB0
330
1F
100
AcDbEntity
  8
0
  6
Continuous
100
AcDbPolyline
 90
       19
 70
     0
 43
0.0
 10
110.6568412594985
 20
109.4621084731708
 10
110.6474202572586
 20
109.4618036772507
 10
110.6372990564285
 20
109.4609503338507
 10
110.6263164711786
 20
109.4593781288007
 10
110.6151797345285
 20
109.4570496419907
 10
110.6046517180685
 20
109.4541079761208
 10
110.5942806894784
 20
109.4504310557307
 10
110.5838653022886
 20
109.4458608368307
 10
110.5735617577386
 20
109.4403415626807
 10
110.5634358090486
 20
109.4337714499107
 10
110.5536468304985
 20
109.4261132484507
 10
110.5443626527385
 20
109.4173644455308
 10
110.5357962212286
 20
109.4075740711708
 10
110.5281583461785
 20
109.3968141731907
 10
110.5215970372686
 20
109.3851428335107
 10
110.5160820546784
 20
109.3726654090708
 10
110.5115205234185
 20
109.3595364911908
 10
110.5077965187185
 20
109.3459093295908
 10
110.5071811342085
 20
109.3433110778308
  0
LWPOLYLINE
  5
CB1
330
1F
100
AcDbEntity
  8
0
  6
Continuous
100
AcDbPolyline
 90
        7
 70
     0
 43
0.0
 10
117.9990314579585
 20
109.6645907218408
 10
118.0990036387085
 20
109.6676686552707
 10
118.2460076682185
 20
109.6726621185508
 10
118.3997819428985
 20
109.6785200125408
 10
118.5604472870885
 20
109.6853871313708
 10
118.7281160149385
 20
109.6934365102407
 10
118.8404167462085
 20
109.6994112685107
  0
LWPOLYLINE
  5
CB2
330
1F
100
AcDbEntity
  8
0
  6
Continuous
100
AcDbPolyline
 90
        4
 70
     0
 43
0.0
 10
114.5732744933285
 20
109.4215564521808
 10
114.4670053035486
 20
109.4187286795708
 10
114.3647019516185
 20
109.4168022812008
 10
114.2636952034386
 20
109.4156715651207
  0
LINE
  5
CB3
330
1F
100
AcDbEntity
  8
0
  6
Continuous
100
AcDbLine
 10
112.9287833766186
 20
109.4641663760307
 30
0.0
 11
112.8321495459486
 21
109.4627713222408
 31
0.0
  0
LINE
  5
CB4
330
1F
100
AcDbEntity
  8
0
  6
Continuous
100
AcDbLine
 10
110.7221693954886
 20
109.4626662542907
 30
0.0
 11
110.6928512737986
 21
109.4623341759207
 31
0.0
  0
LINE
  5
CB5
330
1F
100
AcDbEntity
  8
0
  6
Continuous
100
AcDbLine
 10
110.6789163733385
 20
109.4623061438908
 30
0.0
 11
110.6568412594985
 21
109.4621084731708
 31
0.0
  0
LWPOLYLINE
  5
CB6
330
1F
100
AcDbEntity
  8
0
  6
Continuous
100
AcDbPolyline
 90
       13
 70
     0
 43
0.0
 10
117.2111481399185
 20
109.5179125069107
 10
116.9984255703786
 20
109.5168069087808
 10
116.7504774789486
 20
109.5130135893808
 10
116.5108444737785
 20
109.5069086931808
 10
116.2840394718486
 20
109.4991555992607
 10
116.0774427918185
 20
109.4907674273908
 10
115.8839992751885
 20
109.4818947066507
 10
115.7037257956985
 20
109.4730125444008
 10
115.5187003444385
 20
109.4636429780907
 10
115.3066620981485
 20
109.4529993535408
 10
115.0788372290584
 20
109.4420287046308
 10
114.8402910829086
 20
109.4314981718907
 10
114.6413832197285
 20
109.4238099911308
  0
LINE
  5
CB7
330
1F
100
AcDbEntity
  8
0
  6
Continuous
100
AcDbLine
 10
111.1480372840386
 20
109.4632442892808
 30
0.0
 11
111.3032970644285
 21
109.4638869874408
 31
0.0
  0
LINE
  5
CB8
330
1F
100
AcDbEntity
  8
0
  6
Continuous
100
AcDbLine
 10
111.1480471717085
 20
109.4632443197007
 30
0.0
 11
111.0312724973285
 21
109.4629449833908
 31
0.0
  0
LINE
  5
CB9
330
1F
100
AcDbEntity
  8
0
  6
Continuous
100
AcDbLine
 10
110.7849156324185
 20
109.4625379501408
 30
0.0
 11
110.6789163733385
 21
109.4623061438908
 31
0.0
  0
LINE
  5
CBA
330
1F
100
AcDbEntity
  8
0
  6
Continuous
100
AcDbLine
 10
112.6347476170684
 20
109.4644290535108
 30
0.0
 11
112.6347780748985
 21
109.4644290952407
 31
0.0
  0
LWPOLYLINE
  5
CBB
330
1F
100
AcDbEntity
  8
0
  6
Continuous
100
AcDbPolyline
 90
        6
 70
     0
 43
0.0
 10
112.6347709152786
 20
109.4644290862707
 10
112.2952810067286
 20
109.4639520757107
 10
111.9939618957785
 20
109.4636460551908
 10
111.7310707141085
 20
109.4639029801707
 10
111.4989065361486
 20
109.4644073734108
 10
111.3032970644285
 20
109.4638869874408
  0
LINE
  5
CBC
330
1F
100
AcDbEntity
  8
0
  6
Continuous
100
AcDbLine
 10
111.0312724973285
 20
109.4629449833908
 30
0.0
 11
110.7849156324185
 21
109.4625379501408
 31
0.0
  0
LWPOLYLINE
  5
CBD
330
1F
100
AcDbEntity
  8
0
  6
Continuous
100
AcDbPolyline
 90
        7
 70
     0
 43
0.0
 10
117.2111493953285
 20
109.6534279920807
 10
117.2999319562084
 20
109.6535610351207
 10
117.4356729709685
 20
109.6542873356308
 10
117.5779469775185
 20
109.6557495103708
 10
117.7266648230285
 20
109.6580773919008
 10
117.8817265750685
 20
109.6614192570508
 10
117.9990233888584
 20
109.6645999246707
  0
LINE
  5
CBE
330
1F
100
AcDbEntity
  8
0
  6
Continuous
100
AcDbLine
 10
113.0012666569685
 20
109.4645330240007
 30
0.0
 11
112.9287833766186
 21
109.4641663760307
 31
0.0
  0
LINE
  5
CBF
330
1F
100
AcDbEntity
  8
0
  6
Continuous
100
AcDbLine
 10
113.0206404459486
 20
109.4645567129908
 30
0.0
 11
113.0012666569685
 21
109.4645330240007
 31
0.0
  0
LINE
  5
CC0
330
1F
100
AcDbEntity
  8
0
  6
Continuous
100
AcDbLine
 10
110.7606065178485
 20
109.5086989292907
 30
0.0
 11
110.9434015411685
 21
109.5086989292907
 31
0.0
  0
LINE
  5
CC1
330
1F
100
AcDbEntity
  8
0
  6
Continuous
100
AcDbLine
 10
123.6616922728085
 20
109.5086989292907
 30
0.0
 11
123.4788972494885
 21
109.5086989292907
 31
0.0
  0
LINE
  5
CC2
330
1F
100
AcDbEntity
  8
0
  6
Continuous
100
AcDbLine
 10
117.2111493953285
 20
109.6278740345608
 30
0.0
 11
118.9816765577585
 21
109.6278740345608
 31
0.0
  0
LINE
  5
CC3
330
1F
100
AcDbEntity
  8
0
  6
Continuous
100
AcDbLine
 10
123.9085396001585
 20
109.6278740345608
 30
0.0
 11
119.0152010497985
 21
109.6278740345608
 31
0.0
  0
LINE
  5
CC4
330
1F
100
AcDbEntity
  8
0
  6
Continuous
100
AcDbLine
 10
117.2111493953285
 20
109.6278740345608
 30
0.0
 11
115.4406222328986
 21
109.6278740345608
 31
0.0
  0
LINE
  5
CC5
330
1F
100
AcDbEntity
  8
0
  6
Continuous
100
AcDbLine
 10
115.4070977408585
 20
109.6278740345608
 30
0.0
 11
110.5137591904985
 21
109.6278740345608
 31
0.0
  0
LINE
  5
CC6
330
1F
100
AcDbEntity
  8
0
  6
Continuous
100
AcDbLine
 10
118.5720008140085
 20
109.8253845335907
 30
0.0
 11
115.8502979766485
 21
109.8253845335907
 31
0.0
  0
LINE
  5
CC7
330
1F
100
AcDbEntity
  8
0
  6
Continuous
100
AcDbLine
 10
121.4249269482484
 20
109.4645282765308
 30
0.0
 11
121.4042493104884
 21
109.4645534826208
 31
0.0
  0
LINE
  5
CC8
330
1F
100
AcDbEntity
  8
0
  6
Continuous
100
AcDbLine
 10
121.4042493104884
 20
109.4645534826208
 30
0.0
 11
121.4016583447085
 21
109.4645567129908
 31
0.0
  0
LINE
  5
CC9
330
1F
100
AcDbEntity
  8
0
  6
Continuous
100
AcDbLine
 10
121.7875511735885
 20
109.4644290535108
 30
0.0
 11
121.7875207157585
 21
109.4644290952407
 31
0.0
  0
LINE
  5
CCA
330
1F
100
AcDbEntity
  8
0
  6
Continuous
100
AcDbLine
 10
123.6373831578485
 20
109.4625379501408
 30
0.0
 11
123.3910262933285
 21
109.4629449833908
 31
0.0
  0
LINE
  5
CCB
330
1F
100
AcDbEntity
  8
0
  6
Continuous
100
AcDbLine
 10
123.7433824173184
 20
109.4623061438908
 30
0.0
 11
123.6373831578485
 21
109.4625379501408
 31
0.0
  0
LINE
  5
CCC
330
1F
100
AcDbEntity
  8
0
  6
Continuous
100
AcDbLine
 10
123.3910262933285
 20
109.4629449833908
 30
0.0
 11
123.2741596366685
 21
109.4632445681307
 31
0.0
  0
LWPOLYLINE
  5
CCD
330
1F
100
AcDbEntity
  8
0
  6
Continuous
100
AcDbPolyline
 90
        7
 70
     0
 43
0.0
 10
123.2741596366685
 20
109.4632445681307
 10
123.1190017262284
 20
109.4638869874408
 10
122.9233922541186
 20
109.4644073734108
 10
122.6912280765485
 20
109.4639029801707
 10
122.4283368948785
 20
109.4636460551908
 10
122.1270177839286
 20
109.4639520757107
 10
121.7875278753785
 20
109.4644290862707
  0
LINE
  5
CCE
330
1F
100
AcDbEntity
  8
0
  6
Continuous
100
AcDbLine
 10
123.7654575311585
 20
109.4621084731708
 30
0.0
 11
123.7433824173184
 21
109.4623061438908
 31
0.0
  0
LINE
  5
CCF
330
1F
100
AcDbEntity
  8
0
  6
Continuous
100
AcDbLine
 10
123.7294475168585
 20
109.4623341759207
 30
0.0
 11
123.7001293951685
 21
109.4626662542907
 31
0.0
  0
LWPOLYLINE
  5
CD0
330
1F
100
AcDbEntity
  8
0
  6
Continuous
100
AcDbPolyline
 90
        3
 70
     0
 43
0.0
 10
123.7001293951685
 20
109.4626662542907
 10
123.6495057852486
 20
109.4633568756507
 10
123.5824060126386
 20
109.4641525735407
  0
LWPOLYLINE
  5
CD1
330
1F
100
AcDbEntity
  8
0
  6
Continuous
100
AcDbPolyline
 90
        3
 70
     0
 43
0.0
 10
121.5901492447085
 20
109.4627713222408
 10
121.4935154140386
 20
109.4641663760307
 10
121.4232496112886
 20
109.4645151733108
  0
LWPOLYLINE
  5
CD2
330
1F
100
AcDbEntity
  8
0
  6
Continuous
100
AcDbPolyline
 90
        7
 70
     0
 43
0.0
 10
116.4232754017985
 20
109.6645999246707
 10
116.5405722155885
 20
109.6614192570508
 10
116.6956339676285
 20
109.6580773919008
 10
116.8443518131386
 20
109.6557495103708
 10
116.9866258196886
 20
109.6542873356308
 10
117.1223668344486
 20
109.6535610351207
 10
117.2111493953285
 20
109.6534279920807
  0
LINE
  5
CD3
330
1F
100
AcDbEntity
  8
0
  6
Continuous
100
AcDbLine
 10
119.8490242973285
 20
109.4215564521808
 30
0.0
 11
119.7808616284685
 21
109.4238119021307
 31
0.0
  0
LWPOLYLINE
  5
CD4
330
1F
100
AcDbEntity
  8
0
  6
Continuous
100
AcDbPolyline
 90
       13
 70
     0
 43
0.0
 10
119.7809155709285
 20
109.4238099911308
 10
119.5820077089186
 20
109.4314981718907
 10
119.3434615639385
 20
109.4420287046308
 10
119.1156366956285
 20
109.4529993535408
 10
118.9035984501185
 20
109.4636429780907
 10
118.7185729992485
 20
109.4730125440108
 10
118.5382995205385
 20
109.4818947062608
 10
118.3448560050785
 20
109.4907674273908
 10
118.1382593258285
 20
109.4991555988707
 10
117.9114543254584
 20
109.5069086927908
 10
117.6718213210686
 20
109.5130135889907
 10
117.4238732308085
 20
109.5168069087808
 10
117.2111506507385
 20
109.5179125069107
  0
LWPOLYLINE
  5
CD5
330
1F
100
AcDbEntity
  8
0
  6
Continuous
100
AcDbPolyline
 90
        7
 70
     0
 43
0.0
 10
115.5818820444485
 20
109.6994112685107
 10
115.6941827757185
 20
109.6934365102407
 10
115.8618515031786
 20
109.6853871313708
 10
116.0225168473686
 20
109.6785200125408
 10
116.1762911224385
 20
109.6726621185508
 10
116.3232951519485
 20
109.6676686552707
 10
116.4232673326986
 20
109.6645907218408
  0
LINE
  5
CD6
330
1F
100
AcDbEntity
  8
0
  6
Continuous
100
AcDbLine
 10
111.3945268823285
 20
110.4776019699807
 30
0.0
 11
111.3855601376585
 21
110.4769958760507
 31
0.0
  0
LWPOLYLINE
  5
CD7
330
1F
100
AcDbEntity
  8
0
  6
Continuous
100
AcDbPolyline
 90
        4
 70
     0
 43
0.0
 10
111.3855601376585
 20
110.4769958760507
 10
111.3785324651885
 20
110.4765693541107
 10
111.3757319960886
 20
110.4764168520208
 10
111.3733994497685
 20
110.4763004245407
  0
LINE
  5
CD8
330
1F
100
AcDbEntity
  8
0
  6
Continuous
100
AcDbLine
 10
111.3733994497685
 20
110.4763004245407
 30
0.0
 11
111.3715882433584
 21
110.4762190760008
 31
0.0
  0
LINE
  5
CD9
330
1F
100
AcDbEntity
  8
0
  6
Continuous
100
AcDbLine
 10
111.3715882433584
 20
110.4762190760008
 30
0.0
 11
111.3706763125986
 21
110.4761823898708
 31
0.0
  0
LWPOLYLINE
  5
CDA
330
1F
100
AcDbEntity
  8
0
  6
Continuous
100
AcDbPolyline
 90
        9
 70
     0
 43
0.0
 10
116.1879996548585
 20
110.8194534353908
 10
115.9154198864885
 20
110.8108313555607
 10
115.6127653964286
 20
110.7986529148708
 10
115.3248434398986
 20
110.7844296464608
 10
115.0563565846385
 20
110.7687643191207
 10
114.8100905148484
 20
110.7522607207108
 10
114.5803220749085
 20
110.7353718943408
 10
114.3656621359085
 20
110.7192169071808
 10
114.2029279942085
 20
110.7070922287707
  0
LWPOLYLINE
  5
CDB
330
1F
100
AcDbEntity
  8
0
  6
Continuous
100
AcDbPolyline
 90
        6
 70
     0
 43
0.0
 10
116.5434358303685
 20
110.8275164190207
 10
116.4572620481286
 20
110.8258887707908
 10
116.3745536104986
 20
110.8241325711507
 10
116.2952746561985
 20
110.8222678473807
 10
116.2193511780485
 20
110.8203113601207
 10
116.1880105381984
 20
110.8194537411508
  0
LINE
  5
CDC
330
1F
100
AcDbEntity
  8
0
  6
Continuous
100
AcDbLine
 10
116.5940818559285
 20
110.8283774130507
 30
0.0
 11
116.5434358303685
 21
110.8275164190207
 31
0.0
  0
LWPOLYLINE
  5
CDD
330
1F
100
AcDbEntity
  8
0
  6
Continuous
100
AcDbPolyline
 90
        4
 70
     0
 43
0.0
 10
116.7366145982285
 20
110.8304108360008
 10
116.6878580493485
 20
110.8297787470108
 10
116.6414332254485
 20
110.8291160703208
 10
116.5940814787985
 20
110.8283774068108
  0
LWPOLYLINE
  5
CDE
330
1F
100
AcDbEntity
  8
0
  6
Continuous
100
AcDbPolyline
 90
        5
 70
     0
 43
0.0
 10
116.9595313840085
 20
110.8324945865008
 10
116.9059955419085
 20
110.8321007921908
 10
116.8550825215685
 20
110.8316733564808
 10
116.8064125600985
 20
110.8312034805807
 10
116.7366145982285
 20
110.8304108360008
  0
LWPOLYLINE
  5
CDF
330
1F
100
AcDbEntity
  8
0
  6
Continuous
100
AcDbPolyline
 90
        5
 70
     0
 43
0.0
 10
117.2111493953285
 20
110.8341454756107
 10
117.1807508726285
 20
110.8339985867907
 10
117.1349535899285
 20
110.8336133837908
 10
117.0898411799885
 20
110.8333067790507
 10
116.9595313840085
 20
110.8324945865008
  0
LINE
  5
CE0
330
1F
100
AcDbEntity
  8
0
  6
Continuous
100
AcDbLine
 10
115.7779550140086
 20
110.8052999399307
 30
0.0
 11
115.5213080993285
 21
110.8052450470408
 31
0.0
  0
LINE
  5
CE1
330
1F
100
AcDbEntity
  8
0
  6
Continuous
100
AcDbLine
 10
118.8906150018485
 20
110.8052472661407
 30
0.0
 11
118.6443437762585
 21
110.8052999399307
 31
0.0
  0
LINE
  5
CE2
330
1F
100
AcDbEntity
  8
0
  6
Continuous
100
AcDbLine
 10
118.9009975584486
 20
110.8052450220808
 30
0.0
 11
118.9009906913284
 21
110.8052450470408
 31
0.0
  0
LWPOLYLINE
  5
CE3
330
1F
100
AcDbEntity
  8
0
  6
Continuous
100
AcDbPolyline
 90
        4
 70
     0
 43
0.0
 10
117.3324576102786
 20
110.8333067790507
 10
117.2873452007285
 20
110.8336133837908
 10
117.2415479180285
 20
110.8339985867907
 10
117.2111493953285
 20
110.8341454756107
  0
LWPOLYLINE
  5
CE4
330
1F
100
AcDbEntity
  8
0
  6
Continuous
100
AcDbPolyline
 90
        4
 70
     0
 43
0.0
 10
117.5672162690886
 20
110.8316733564808
 10
117.5163032487485
 20
110.8321007921908
 10
117.4627674066486
 20
110.8324945865008
 10
117.3324576102786
 20
110.8333067790507
  0
LWPOLYLINE
  5
CE5
330
1F
100
AcDbEntity
  8
0
  6
Continuous
100
AcDbPolyline
 90
        6
 70
     0
 43
0.0
 10
117.8282173114685
 20
110.8283774068108
 10
117.7808655648185
 20
110.8291160703208
 10
117.7344407413085
 20
110.8297787470108
 10
117.6856841924285
 20
110.8304108360008
 10
117.6345562231985
 20
110.8310045014107
 10
117.5672162690886
 20
110.8316733564808
  0
LINE
  5
CE6
330
1F
100
AcDbEntity
  8
0
  6
Continuous
100
AcDbLine
 10
117.8788629602885
 20
110.8275164190207
 30
0.0
 11
117.8282169347285
 21
110.8283774130507
 31
0.0
  0
LWPOLYLINE
  5
CE7
330
1F
100
AcDbEntity
  8
0
  6
Continuous
100
AcDbPolyline
 90
        6
 70
     0
 43
0.0
 10
118.2342882524585
 20
110.8194537411508
 10
118.2029476126085
 20
110.8203113601207
 10
118.1270241344586
 20
110.8222678473807
 10
118.0477451801586
 20
110.8241325711507
 10
117.9650367425285
 20
110.8258887707908
 10
117.8788629602885
 20
110.8275164190207
  0
LWPOLYLINE
  5
CE8
330
1F
100
AcDbEntity
  8
0
  6
Continuous
100
AcDbPolyline
 90
        6
 70
     0
 43
0.0
 10
123.0526678477086
 20
110.4761464431808
 10
123.0524511722885
 20
110.4761530064907
 10
123.0515037526986
 20
110.4761869532607
 10
123.0498643506486
 20
110.4762558900507
 10
123.0476389470785
 20
110.4763619587408
 10
123.0448414318385
 20
110.4765093857608
  0
LINE
  5
CE9
330
1F
100
AcDbEntity
  8
0
  6
Continuous
100
AcDbLine
 10
118.5068789041685
 20
110.8108313555607
 30
0.0
 11
118.2342991354086
 21
110.8194534353908
 31
0.0
  0
LINE
  5
CEA
330
1F
100
AcDbEntity
  8
0
  6
Continuous
100
AcDbLine
 10
123.0448414318385
 20
110.4765093857608
 30
0.0
 11
123.0376927907286
 21
110.4769349654608
 31
0.0
  0
LINE
  5
CEB
330
1F
100
AcDbEntity
  8
0
  6
Continuous
100
AcDbLine
 10
123.0376927907286
 20
110.4769349654608
 30
0.0
 11
123.0284267573286
 21
110.4775559445207
 31
0.0
  0
LINE
  5
CEC
330
1F
100
AcDbEntity
  8
0
  6
Continuous
100
AcDbLine
 10
118.9187348146086
 20
109.6538783122107
 30
0.0
 11
118.6684670488086
 21
109.7993802559408
 31
0.0
  0
LINE
  5
CED
330
1F
100
AcDbEntity
  8
0
  6
Continuous
100
AcDbLine
 10
115.5035639760485
 20
109.6538783122107
 30
0.0
 11
115.7538317418485
 21
109.7993802559408
 31
0.0
  0
LINE
  5
CEE
330
1F
100
AcDbEntity
  8
0
  6
Continuous
100
AcDbLine
 10
111.8287290431885
 20
110.5180818082107
 30
0.0
 11
111.7707864475686
 21
110.5124719019608
 31
0.0
  0
LINE
  5
CEF
330
1F
100
AcDbEntity
  8
0
  6
Continuous
100
AcDbLine
 10
111.6621194469185
 20
110.5021144590207
 30
0.0
 11
111.5403701587384
 21
110.4903084550707
 31
0.0
  0
LINE
  5
CF0
330
1F
100
AcDbEntity
  8
0
  6
Continuous
100
AcDbLine
 10
111.7707864475686
 20
110.5124719019608
 30
0.0
 11
111.7074629244485
 21
110.5064051290408
 31
0.0
  0
LINE
  5
CF1
330
1F
100
AcDbEntity
  8
0
  6
Continuous
100
AcDbLine
 10
111.5403701587384
 20
110.4903084550707
 30
0.0
 11
111.5185353905885
 21
110.4882231379407
 31
0.0
  0
LINE
  5
CF2
330
1F
100
AcDbEntity
  8
0
  6
Continuous
100
AcDbLine
 10
111.7074629244485
 20
110.5064051290408
 30
0.0
 11
111.6621183311286
 21
110.5021143541107
 31
0.0
  0
LWPOLYLINE
  5
CF3
330
1F
100
AcDbEntity
  8
0
  6
Continuous
100
AcDbPolyline
 90
        4
 70
     0
 43
0.0
 10
112.7976477864486
 20
110.6020467061107
 10
112.7949891318785
 20
110.6017991033008
 10
112.7924180740385
 20
110.6015339789608
 10
112.7899525474686
 20
110.6012564651007
  0
LINE
  5
CF4
330
1F
100
AcDbEntity
  8
0
  6
Continuous
100
AcDbLine
 10
111.5192020889585
 20
110.4882863780008
 30
0.0
 11
111.4794663539585
 21
110.4846289810107
 31
0.0
  0
LINE
  5
CF5
330
1F
100
AcDbEntity
  8
0
  6
Continuous
100
AcDbLine
 10
111.4794663539585
 20
110.4846289810107
 30
0.0
 11
111.4502064148086
 21
110.4820492136908
 31
0.0
  0
LINE
  5
CF6
330
1F
100
AcDbEntity
  8
0
  6
Continuous
100
AcDbLine
 10
111.4502064148086
 20
110.4820492136908
 30
0.0
 11
111.4333059360186
 21
110.4806189666908
 31
0.0
  0
LINE
  5
CF7
330
1F
100
AcDbEntity
  8
0
  6
Continuous
100
AcDbLine
 10
112.8005668650785
 20
110.6022878801608
 30
0.0
 11
112.7976477864486
 21
110.6020467061107
 31
0.0
  0
LINE
  5
CF8
330
1F
100
AcDbEntity
  8
0
  6
Continuous
100
AcDbLine
 10
111.4333059360186
 20
110.4806189666908
 30
0.0
 11
111.4184048842685
 21
110.4794063736207
 31
0.0
  0
LWPOLYLINE
  5
CF9
330
1F
100
AcDbEntity
  8
0
  6
Continuous
100
AcDbPolyline
 90
        7
 70
     0
 43
0.0
 10
112.7955006246785
 20
110.6018467390708
 10
112.6226781958086
 20
110.5880412218908
 10
112.4362554654186
 20
110.5726427828607
 10
112.2620403434285
 20
110.5577412206008
 10
112.1000725653785
 20
110.5434086960308
 10
111.9511280932085
 20
110.5297509521908
 10
111.8286988677186
 20
110.5180788722908
  0
LINE
  5
CFA
330
1F
100
AcDbEntity
  8
0
  6
Continuous
100
AcDbLine
 10
111.4184048842685
 20
110.4794063736207
 30
0.0
 11
111.4054774454586
 21
110.4784028264008
 31
0.0
  0
LINE
  5
CFB
330
1F
100
AcDbEntity
  8
0
  6
Continuous
100
AcDbLine
 10
114.1915353321486
 20
110.7062477192608
 30
0.0
 11
114.0371883982385
 21
110.6948309399908
 31
0.0
  0
LWPOLYLINE
  5
CFC
330
1F
100
AcDbEntity
  8
0
  6
Continuous
100
AcDbPolyline
 90
        7
 70
     0
 43
0.0
 10
114.0371883982385
 20
110.6948309399908
 10
113.6761581727086
 20
110.6682606666507
 10
113.4962401138685
 20
110.6549589826707
 10
113.3135582615285
 20
110.6413783617207
 10
113.1313137313985
 20
110.6277220101807
 10
112.9537094360885
 20
110.6141976654508
 10
112.8002026651385
 20
110.6022595236508
  0
LINE
  5
CFD
330
1F
100
AcDbEntity
  8
0
  6
Continuous
100
AcDbLine
 10
111.4054774454586
 20
110.4784028264008
 30
0.0
 11
111.3945268823285
 21
110.4776019699807
 31
0.0
  0
LINE
  5
CFE
330
1F
100
AcDbEntity
  8
0
  6
Continuous
100
AcDbLine
 10
120.5672298241985
 20
110.6814220340908
 30
0.0
 11
120.3174836022785
 21
110.6998331782708
 31
0.0
  0
LINE
  5
CFF
330
1F
100
AcDbEntity
  8
0
  6
Continuous
100
AcDbLine
 10
120.3174836022785
 20
110.6998331782708
 30
0.0
 11
120.2307634585086
 21
110.7062477192608
 31
0.0
  0
LINE
  5
D00
330
1F
100
AcDbEntity
  8
0
  6
Continuous
100
AcDbLine
 10
123.0284267573286
 20
110.4775559445207
 30
0.0
 11
123.0171428572985
 21
110.4783785804908
 31
0.0
  0
LWPOLYLINE
  5
D01
330
1F
100
AcDbEntity
  8
0
  6
Continuous
100
AcDbPolyline
 90
        8
 70
     0
 43
0.0
 10
120.2193707964485
 20
110.7070922287707
 10
120.0566366547485
 20
110.7192169071808
 10
119.8419767157485
 20
110.7353718943408
 10
119.6122082754185
 20
110.7522607207108
 10
119.3659422060186
 20
110.7687643191207
 10
119.0974553507586
 20
110.7844296464608
 10
118.8095333942286
 20
110.7986529148708
 10
118.5068789041685
 20
110.8108313555607
  0
LWPOLYLINE
  5
D02
330
1F
100
AcDbEntity
  8
0
  6
Continuous
100
AcDbPolyline
 90
        7
 70
     0
 43
0.0
 10
121.6220961255186
 20
110.6022595236508
 10
121.4685893545685
 20
110.6141976654508
 10
121.2909850592585
 20
110.6277220101807
 10
121.1087405291286
 20
110.6413783617207
 10
120.9260586767885
 20
110.6549589826707
 10
120.7461406179485
 20
110.6682606666507
 10
120.5672298241985
 20
110.6814220340908
  0
LINE
  5
D03
330
1F
100
AcDbEntity
  8
0
  6
Continuous
100
AcDbLine
 10
123.0171428572985
 20
110.4783785804908
 30
0.0
 11
123.0039966893285
 21
110.4793981984407
 31
0.0
  0
LINE
  5
D04
330
1F
100
AcDbEntity
  8
0
  6
Continuous
100
AcDbLine
 10
121.7996205948485
 20
110.5880412218908
 30
0.0
 11
121.6240569503585
 21
110.6020657147107
 31
0.0
  0
LINE
  5
D05
330
1F
100
AcDbEntity
  8
0
  6
Continuous
100
AcDbLine
 10
123.0039966893285
 20
110.4793981984407
 30
0.0
 11
122.9891855392085
 21
110.4806029700608
 31
0.0
  0
LINE
  5
D06
330
1F
100
AcDbEntity
  8
0
  6
Continuous
100
AcDbLine
 10
122.9891855392085
 20
110.4806029700608
 30
0.0
 11
122.9642035478885
 21
110.4827331547408
 31
0.0
  0
LINE
  5
D07
330
1F
100
AcDbEntity
  8
0
  6
Continuous
100
AcDbLine
 10
122.9642035478885
 20
110.4827331547408
 30
0.0
 11
122.9364007185485
 21
110.4852103196908
 31
0.0
  0
LINE
  5
D08
330
1F
100
AcDbEntity
  8
0
  6
Continuous
100
AcDbLine
 10
122.9364007185485
 20
110.4852103196908
 30
0.0
 11
122.9064266106185
 21
110.4879743397807
 31
0.0
  0
LWPOLYLINE
  5
D09
330
1F
100
AcDbEntity
  8
0
  6
Continuous
100
AcDbPolyline
 90
        6
 70
     0
 43
0.0
 10
122.5935999229385
 20
110.5180788722908
 10
122.4711706974486
 20
110.5297509521908
 10
122.3222262252785
 20
110.5434086960308
 10
122.1602584472285
 20
110.5577412206008
 10
121.9860433252386
 20
110.5726427828607
 10
121.7996205948485
 20
110.5880412218908
  0
LINE
  5
D0A
330
1F
100
AcDbEntity
  8
0
  6
Continuous
100
AcDbLine
 10
122.7613585469586
 20
110.5020014370208
 30
0.0
 11
122.6841775929785
 21
110.5093328095107
 31
0.0
  0
LINE
  5
D0B
330
1F
100
AcDbEntity
  8
0
  6
Continuous
100
AcDbLine
 10
122.9064266106185
 20
110.4879743397807
 30
0.0
 11
122.8587228047286
 21
110.4925334191108
 31
0.0
  0
LWPOLYLINE
  5
D0C
330
1F
100
AcDbEntity
  8
0
  6
Continuous
100
AcDbPolyline
 90
        3
 70
     0
 43
0.0
 10
122.6841775929785
 20
110.5093328095107
 10
122.6167284532985
 20
110.5158338801907
 10
122.5935697474685
 20
110.5180818082107
  0
LWPOLYLINE
  5
D0D
330
1F
100
AcDbEntity
  8
0
  6
Continuous
100
AcDbPolyline
 90
        3
 70
     0
 43
0.0
 10
122.8587228047286
 20
110.4925334191108
 10
122.7796210683784
 20
110.5002177029907
 10
122.7613585469586
 20
110.5020014370208
  0
LINE
  5
D0E
330
1F
100
AcDbEntity
  8
0
  6
Continuous
100
AcDbLine
 10
122.9207590092186
 20
110.5005122025208
 30
0.0
 11
122.8081394724485
 21
110.5143866202208
 31
0.0
  0
LINE
  5
D0F
330
1F
100
AcDbEntity
  8
0
  6
Continuous
100
AcDbLine
 10
122.9556877980485
 20
110.4961057594408
 30
0.0
 11
122.9207590092186
 21
110.5005122025208
 31
0.0
  0
LINE
  5
D10
330
1F
100
AcDbEntity
  8
0
  6
Continuous
100
AcDbLine
 10
123.0054340425186
 20
110.4896787482007
 30
0.0
 11
122.9556877980485
 21
110.4961057594408
 31
0.0
  0
LINE
  5
D11
330
1F
100
AcDbEntity
  8
0
  6
Continuous
100
AcDbLine
 10
123.0379982496486
 20
110.4853092225208
 30
0.0
 11
123.0054340425186
 21
110.4896787482007
 31
0.0
  0
LINE
  5
D12
330
1F
100
AcDbEntity
  8
0
  6
Continuous
100
AcDbLine
 10
123.0585983086084
 20
110.4824201930008
 30
0.0
 11
123.0379982496486
 21
110.4853092225208
 31
0.0
  0
LINE
  5
D13
330
1F
100
AcDbEntity
  8
0
  6
Continuous
100
AcDbLine
 10
123.0707489809085
 20
110.4806433272607
 30
0.0
 11
123.0585983086084
 21
110.4824201930008
 31
0.0
  0
LINE
  5
D14
330
1F
100
AcDbEntity
  8
0
  6
Continuous
100
AcDbLine
 10
123.0817941194285
 20
110.4789606874708
 30
0.0
 11
123.0707489809085
 21
110.4806433272607
 31
0.0
  0
LWPOLYLINE
  5
D15
330
1F
100
AcDbEntity
  8
0
  6
Continuous
100
AcDbPolyline
 90
        5
 70
     0
 43
0.0
 10
122.0389742239085
 20
108.5410851236908
 10
122.0416205708586
 20
108.5392962104608
 10
122.0603502685985
 20
108.5227196122407
 10
122.0776713998286
 20
108.5025253790907
 10
122.0894682902585
 20
108.4845705965308
  0
LINE
  5
D16
330
1F
100
AcDbEntity
  8
0
  6
Continuous
100
AcDbLine
 10
111.3515848196586
 20
110.4806485474107
 30
0.0
 11
111.3405376484585
 21
110.4789658296207
 31
0.0
  0
LINE
  5
D17
330
1F
100
AcDbEntity
  8
0
  6
Continuous
100
AcDbLine
 10
111.3637374306485
 20
110.4824255005108
 30
0.0
 11
111.3515848196586
 21
110.4806485474107
 31
0.0
  0
LINE
  5
D18
330
1F
100
AcDbEntity
  8
0
  6
Continuous
100
AcDbLine
 10
111.3843401572085
 20
110.4853146626308
 30
0.0
 11
111.3637374306485
 21
110.4824255005108
 31
0.0
  0
LINE
  5
D19
330
1F
100
AcDbEntity
  8
0
  6
Continuous
100
AcDbLine
 10
111.3998513725384
 20
110.4874186849407
 30
0.0
 11
111.3843401572085
 21
110.4853146626308
 31
0.0
  0
LINE
  5
D1A
330
1F
100
AcDbEntity
  8
0
  6
Continuous
100
AcDbLine
 10
111.4355654326085
 20
110.4921209558908
 30
0.0
 11
111.3998513725384
 21
110.4874186849407
 31
0.0
  0
LINE
  5
D1B
330
1F
100
AcDbEntity
  8
0
  6
Continuous
100
AcDbLine
 10
111.4778712403085
 20
110.4975340537107
 30
0.0
 11
111.4355654326085
 21
110.4921209558908
 31
0.0
  0
LWPOLYLINE
  5
D1C
330
1F
100
AcDbEntity
  8
0
  6
Continuous
100
AcDbPolyline
 90
       10
 70
     0
 43
0.0
 10
113.9486742061085
 20
108.3855792583707
 10
113.9567184147485
 20
108.4064270796508
 10
113.9721897939185
 20
108.4326505630408
 10
113.9911160157786
 20
108.4542458575407
 10
114.0101048954285
 20
108.4695582809007
 10
114.0278408716086
 20
108.4798244903607
 10
114.0427185042485
 20
108.4859053126407
 10
114.0541117645685
 20
108.4890321208707
 10
114.0615244727286
 20
108.4902452626707
 10
114.0625991337185
 20
108.4903508602408
  0
LWPOLYLINE
  5
D1D
330
1F
100
AcDbEntity
  8
0
  6
Continuous
100
AcDbPolyline
 90
       15
 70
     0
 43
0.0
 10
111.3303252636785
 20
110.4773310014907
 10
111.3254077895585
 20
110.4765081615507
 10
111.3205592151785
 20
110.4756692087607
 10
111.3156713034485
 20
110.4747914806108
 10
111.3106848063485
 20
110.4738582098307
 10
111.3054351614285
 20
110.4728287673907
 10
111.2998402307885
 20
110.4716719419808
 10
111.2936113243385
 20
110.4703031956407
 10
111.2866456961886
 20
110.4686611298908
 10
111.2783359174385
 20
110.4665336147608
 10
111.2683754730485
 20
110.4637200911907
 10
111.2559152000285
 20
110.4597593802807
 10
111.2400466319885
 20
110.4539322771807
 10
111.2213202508085
 20
110.4457769731407
 10
111.2126281414085
 20
110.4414568986807
  0
LINE
  5
D1E
330
1F
100
AcDbEntity
  8
0
  6
Continuous
100
AcDbLine
 10
111.3405376484585
 20
110.4789658296207
 30
0.0
 11
111.3303252636785
 21
110.4773310014907
 31
0.0
  0
LWPOLYLINE
  5
D1F
330
1F
100
AcDbEntity
  8
0
  6
Continuous
100
AcDbPolyline
 90
        9
 70
     0
 43
0.0
 10
120.4736458138085
 20
108.3855085026207
 10
120.4758677455985
 20
108.3788268763708
 10
120.4871105154486
 20
108.3544158037107
 10
120.5024374569485
 20
108.3323390456308
 10
120.5213789824085
 20
108.3132729814707
 10
120.5433547690985
 20
108.2978017438708
 10
120.5676915178985
 20
108.2863993388308
 10
120.5936435932685
 20
108.2794151041707
 10
120.6204158858285
 20
108.2770630075407
  0
LINE
  5
D20
330
1F
100
AcDbEntity
  8
0
  6
Continuous
100
AcDbLine
 10
120.4736238361386
 20
108.3855818495308
 30
0.0
 11
120.4736460992885
 21
108.3855085993407
 31
0.0
  0
LINE
  5
D21
330
1F
100
AcDbEntity
  8
0
  6
Continuous
100
AcDbLine
 10
113.9486727853385
 20
108.3855746306308
 30
0.0
 11
113.9486526917584
 21
108.3855086005107
 31
0.0
  0
LWPOLYLINE
  5
D22
330
1F
100
AcDbEntity
  8
0
  6
Continuous
100
AcDbPolyline
 90
        5
 70
     0
 43
0.0
 10
112.3328303217785
 20
108.4845702849207
 10
112.3429014836585
 20
108.5001608851407
 10
112.3600296729184
 20
108.5207501301808
 10
112.3786350967686
 20
108.5376950588308
 10
112.3835194368785
 20
108.5410941174808
  0
LWPOLYLINE
  5
D23
330
1F
100
AcDbEntity
  8
0
  6
Continuous
100
AcDbPolyline
 90
       16
 70
     0
 43
0.0
 10
123.2096706515885
 20
110.4414568975107
 10
123.2010001715885
 20
110.4457666685607
 10
123.1822784302385
 20
110.4539218485808
 10
123.1664112229085
 20
110.4597500198908
 10
123.1539504023285
 20
110.4637120275508
 10
123.1439888296685
 20
110.4665266657407
 10
123.1356797841186
 20
110.4686545981707
 10
123.1287153871985
 20
110.4702968554107
 10
123.1224874826585
 20
110.4716657897307
 10
123.1168933636085
 20
110.4728227883008
 10
123.1116438060485
 20
110.4738525029608
 10
123.1066572375786
 20
110.4747860307507
 10
123.1017696433085
 20
110.4756639121708
 10
123.0969215614984
 20
110.4765029636308
 10
123.0920047499886
 20
110.4773258577808
 10
123.0817941194285
 20
110.4789606874708
  0
LINE
  5
D24
330
1F
100
AcDbEntity
  8
0
  6
Continuous
100
AcDbLine
 10
123.4860119609885
 20
110.2980468038007
 30
0.0
 11
123.2089908043686
 21
110.4416021826508
 31
0.0
  0
LINE
  5
D25
330
1F
100
AcDbEntity
  8
0
  6
Continuous
100
AcDbLine
 10
123.7233477729485
 20
110.1749863258707
 30
0.0
 11
123.4860119609885
 21
110.2980468038007
 31
0.0
  0
LINE
  5
D26
330
1F
100
AcDbEntity
  8
0
  6
Continuous
100
AcDbLine
 10
123.7239812959686
 20
110.1748199873607
 30
0.0
 11
123.7239741051485
 21
110.1748237949307
 31
0.0
  0
LINE
  5
D27
330
1F
100
AcDbEntity
  8
0
  6
Continuous
100
AcDbLine
 10
123.2091118521784
 20
110.4415359329608
 30
0.0
 11
123.2089908043686
 21
110.4416021826508
 31
0.0
  0
LINE
  5
D28
330
1F
100
AcDbEntity
  8
0
  6
Continuous
100
AcDbLine
 10
111.2131869404285
 20
110.4415359341307
 30
0.0
 11
111.2133079862885
 21
110.4416021826508
 31
0.0
  0
LINE
  5
D29
330
1F
100
AcDbEntity
  8
0
  6
Continuous
100
AcDbLine
 10
110.6983174946886
 20
110.1748199873607
 30
0.0
 11
110.6983246855085
 21
110.1748237949307
 31
0.0
  0
LWPOLYLINE
  5
D2A
330
1F
100
AcDbEntity
  8
0
  6
Continuous
100
AcDbPolyline
 90
        4
 70
     0
 43
0.0
 10
111.2133079862885
 20
110.4416021826508
 10
111.1121911672385
 20
110.3891944685907
 10
110.9362859482685
 20
110.2980463471107
 10
110.6989510177085
 20
110.1749863258707
  0
LINE
  5
D2B
330
1F
100
AcDbEntity
  8
0
  6
Continuous
100
AcDbLine
 10
112.5231919082585
 20
108.3991131967108
 30
0.0
 11
112.5231946285085
 21
108.3991000213407
 31
0.0
  0
LWPOLYLINE
  5
D2C
330
1F
100
AcDbEntity
  8
0
  6
Continuous
100
AcDbPolyline
 90
        8
 70
     0
 43
0.0
 10
110.6983246855085
 20
110.1748237949307
 10
110.6824138835885
 20
110.1655179382407
 10
110.6629946646785
 20
110.1507747452308
 10
110.6454770608085
 20
110.1330172344207
 10
110.6305662606185
 20
110.1125518206208
 10
110.6187616399985
 20
110.0897225403807
 10
110.6105894009885
 20
110.0655220903408
 10
110.6095025782386
 20
110.0610462315507
  0
LINE
  5
D2D
330
1F
100
AcDbEntity
  8
0
  6
Continuous
100
AcDbLine
 10
111.0202709307786
 20
109.5821453396007
 30
0.0
 11
111.0226819821486
 21
109.6278740345608
 31
0.0
  0
LINE
  5
D2E
330
1F
100
AcDbEntity
  8
0
  6
Continuous
100
AcDbLine
 10
110.6810728857486
 20
109.6278740345608
 30
0.0
 11
110.6820722919485
 21
109.6117131591808
 31
0.0
  0
LWPOLYLINE
  5
D2F
330
1F
100
AcDbEntity
  8
0
  6
Continuous
100
AcDbPolyline
 90
        3
 70
     0
 43
0.0
 10
110.6820722919485
 20
109.6117131591808
 10
110.6831016684785
 20
109.5937237691908
 10
110.6837283154086
 20
109.5821599653807
  0
LWPOLYLINE
  5
D30
330
1F
100
AcDbEntity
  8
0
  6
Continuous
100
AcDbPolyline
 90
        7
 70
     0
 43
0.0
 10
110.6095025587386
 20
110.0610461395107
 10
110.5978097815385
 20
110.0093601356608
 10
110.5775685206285
 20
109.9173585448107
 10
110.5582850544785
 20
109.8281060159908
 10
110.5396108584186
 20
109.7423096523507
 10
110.5215461426585
 20
109.6615936857208
 10
110.5137962908085
 20
109.6278740345608
  0
LINE
  5
D31
330
1F
100
AcDbEntity
  8
0
  6
Continuous
100
AcDbLine
 10
110.5080602367185
 20
109.3435237639407
 30
0.0
 11
110.3238681472085
 21
108.5431578738508
 31
0.0
  0
ARC
  5
D32
330
1F
100
AcDbEntity
  8
0
  6
Continuous
100
AcDbCircle
 10
121.7488282385586
 20
108.4306063148607
 30
0.0
 40
0.15354330693
100
AcDbArc
 50
270.0000000323995
 51
348.1590934615005
  0
ARC
  5
D33
330
1F
100
AcDbEntity
  8
0
  6
Continuous
100
AcDbCircle
 10
122.2223888074686
 20
108.5614322547808
 30
0.0
 40
0.15354330693
100
AcDbArc
 50
210.0406471877
 51
269.9999999832997
  0
ARC
  5
D34
330
1F
100
AcDbEntity
  8
0
  6
Continuous
100
AcDbCircle
 10
119.1819316537086
 20
109.3709341924407
 30
0.0
 40
1.25774532897
100
AcDbArc
 50
2.008114912200252
 51
3.198956906000008
  0
ARC
  5
D35
330
1F
100
AcDbEntity
  8
0
  6
Continuous
100
AcDbCircle
 10
119.0152010497985
 20
109.8198031687107
 30
0.0
 40
0.19192913376
100
AcDbArc
 50
239.8269199242005
 51
270.0
  0
ARC
  5
D36
330
1F
100
AcDbEntity
  8
0
  6
Continuous
100
AcDbCircle
 10
118.5720008140085
 20
109.6334553998307
 30
0.0
 40
0.19192913376
100
AcDbArc
 50
59.82691992420043
 51
90.0
  0
ARC
  5
D37
330
1F
100
AcDbEntity
  8
0
  6
Continuous
100
AcDbCircle
 10
120.3279640371785
 20
132.8748574780108
 30
0.0
 40
23.45962145514
100
AcDbArc
 50
268.7951010863999
 51
269.5863983882006
  0
ARC
  5
D38
330
1F
100
AcDbEntity
  8
0
  6
Continuous
100
AcDbCircle
 10
115.2403671369486
 20
109.3709341924407
 30
0.0
 40
1.25774532897
100
AcDbArc
 50
176.8010430939999
 51
177.9918850877997
  0
ARC
  5
D39
330
1F
100
AcDbEntity
  8
0
  6
Continuous
100
AcDbCircle
 10
115.8502979766485
 20
109.6334553998307
 30
0.0
 40
0.19192913376
100
AcDbArc
 50
90.0
 51
120.1730800757995
  0
ARC
  5
D3A
330
1F
100
AcDbEntity
  8
0
  6
Continuous
100
AcDbCircle
 10
115.4070977408585
 20
109.8198031687107
 30
0.0
 40
0.19192913376
100
AcDbArc
 50
270.0
 51
300.1730800757995
  0
ARC
  5
D3B
330
1F
100
AcDbEntity
  8
0
  6
Continuous
100
AcDbCircle
 10
112.6734705520985
 20
108.4306063148607
 30
0.0
 40
0.15354330693
100
AcDbArc
 50
191.8409065355999
 51
269.9999999679001
  0
ARC
  5
D3C
330
1F
100
AcDbEntity
  8
0
  6
Continuous
100
AcDbCircle
 10
112.1999099827985
 20
108.5614322547808
 30
0.0
 40
0.15354330693
100
AcDbArc
 50
270.0000000207995
 51
329.9593527823005
  0
ARC
  5
D3D
330
1F
100
AcDbEntity
  8
0
  6
Continuous
100
AcDbCircle
 10
114.0943347534785
 20
132.8748574780108
 30
0.0
 40
23.45962145514
100
AcDbArc
 50
270.4136016117995
 51
271.2048989136
  0
SPLINE
  5
D3E
330
1F
100
AcDbEntity
  8
0
  6
Continuous
100
AcDbSpline
210
0.0
220
0.0
230
1.0
 70
     8
 71
     3
 72
    15
 73
    11
 74
     9
 42
0.0000000001
 43
0.0000000001
 44
0.0000000001
 12
-3.89999999999995
 22
-0.0000006231185103
 32
0.0
 13
-0.2051041112309315
 23
3.894602971235472
 33
0.0
 40
0.0
 40
0.0
 40
0.0
 40
0.0
 40
0.0017010172722718
 40
0.0034425437237205
 40
0.0070563292252078
 40
0.0108287301603631
 40
0.0146929678945508
 40
0.022323162229889
 40
0.0259569838107474
 40
0.029416555115605
 40
0.029416555115605
 40
0.029416555115605
 40
0.029416555115605
 10
123.4789005683885
 20
109.5086989292907
 30
0.0
 10
123.4766892459346
 20
109.5086989289374
 30
0.0
 10
123.4722093701946
 20
109.5090075178123
 30
0.0
 10
123.4631860539416
 20
109.5107546797037
 30
0.0
 10
123.4519853917924
 20
109.5149251389697
 30
0.0
 10
123.4393385298157
 20
109.52240425367
 30
0.0
 10
123.4239863306848
 20
109.5350535245827
 30
0.0
 10
123.4115903302382
 20
109.5508312513554
 30
0.0
 10
123.4040192920317
 20
109.5685108731489
 30
0.0
 10
123.4022656311977
 20
109.5776765886064
 30
0.0
 10
123.4020291070985
 20
109.5821678075007
 30
0.0
 11
123.4789005683885
 21
109.5086989292907
 31
0.0
 11
123.4722810578285
 21
109.5091366539807
 31
0.0
 11
123.4656094658886
 21
109.5104096381608
 31
0.0
 11
123.4523621108586
 21
109.5152202257607
 31
0.0
 11
123.4396626512285
 21
109.5226483728508
 31
0.0
 11
123.4280152329785
 21
109.5322117633108
 31
0.0
 11
123.4098931107785
 21
109.5558150012807
 31
0.0
 11
123.4044266983985
 21
109.5688902146008
 31
0.0
 11
123.4020291070985
 21
109.5821678075007
 31
0.0
  0
SPLINE
  5
D3F
330
1F
100
AcDbEntity
  8
0
  6
Continuous
100
AcDbSpline
210
0.0
220
0.0
230
1.0
 70
     8
 71
     3
 72
    14
 73
    10
 74
     8
 42
0.0000000001
 43
0.0000000001
 44
0.0000000001
 12
-0.205855886525461
 22
-3.894563307224934
 32
0.0
 13
-3.9
 23
0.0000000000000002
 33
0.0
 40
0.0
 40
0.0
 40
0.0
 40
0.0
 40
0.00347436251143
 40
0.0071131163001209
 40
0.014732931863515
 40
0.0185900141897647
 40
0.0223593207067807
 40
0.0259778860861276
 40
0.0294293863429789
 40
0.0294293863429789
 40
0.0294293863429789
 40
0.0294293863429789
 10
123.7385647535586
 20
109.5821595593907
 30
0.0
 10
123.7383263475669
 20
109.5776491844731
 30
0.0
 10
123.7365830442761
 20
109.5684568910532
 30
0.0
 10
123.7290493302394
 20
109.5507479016293
 30
0.0
 10
123.7166822347657
 20
109.5349617268635
 30
0.0
 10
123.7013430888212
 20
109.5223398747117
 30
0.0
 10
123.6886814721569
 20
109.514886490671
 30
0.0
 10
123.6753916424198
 20
109.5099685617181
 30
0.0
 10
123.6661780726425
 20
109.5086989292907
 30
0.0
 10
123.6616911223085
 20
109.5086989292907
 30
0.0
 11
123.7385647535586
 21
109.5821595593907
 31
0.0
 11
123.7361714662985
 21
109.5688225788508
 31
0.0
 11
123.7307242298285
 21
109.5557185312707
 31
0.0
 11
123.7126529554386
 21
109.5321273080307
 31
0.0
 11
123.7010209117685
 21
109.5225891735807
 31
0.0
 11
123.6883192603385
 21
109.5151887184408
 31
0.0
 11
123.6750439980785
 21
109.5104004634108
 31
0.0
 11
123.6616911223085
 21
109.5086989292907
 31
0.0
  0
SPLINE
  5
D40
330
1F
100
AcDbEntity
  8
0
  6
Continuous
100
AcDbSpline
210
0.0
220
0.0
230
1.0
 70
     8
 71
     3
 72
    15
 73
    11
 74
     9
 42
0.0000000001
 43
0.0000000001
 44
0.0000000001
 12
3.89999999999995
 22
-0.0000006231185108
 32
0.0
 13
0.205104111230932
 23
3.894602971235472
 33
0.0
 40
0.0
 40
0.0
 40
0.0
 40
0.0
 40
0.0017010172722701
 40
0.0034425437237187
 40
0.007056329225206
 40
0.0108287301603613
 40
0.014692967894549
 40
0.0223231622298872
 40
0.0259569837721735
 40
0.0294165550948011
 40
0.0294165550948011
 40
0.0294165550948011
 40
0.0294165550948011
 10
110.9433982222685
 20
109.5086989292907
 30
0.0
 10
110.9456095447225
 20
109.5086989289374
 30
0.0
 10
110.9500894204623
 20
109.5090075178124
 30
0.0
 10
110.9591127367158
 20
109.5107546797036
 30
0.0
 10
110.9703133988615
 20
109.5149251389708
 30
0.0
 10
110.9829602608536
 20
109.5224042536657
 30
0.0
 10
110.9983124599066
 20
109.5350535246058
 30
0.0
 10
111.0107084607859
 20
109.5508312511752
 30
0.0
 10
111.018279497964
 20
109.5685108732986
 30
0.0
 10
111.0200331594581
 20
109.5776765885833
 30
0.0
 10
111.0202696835584
 20
109.5821678075007
 30
0.0
 11
110.9433982222685
 21
109.5086989292907
 31
0.0
 11
110.9500177328285
 21
109.5091366539807
 31
0.0
 11
110.9566893247686
 21
109.5104096381608
 31
0.0
 11
110.9699366797986
 21
109.5152202257607
 31
0.0
 11
110.9826361394285
 21
109.5226483728508
 31
0.0
 11
110.9942835576785
 21
109.5322117633108
 31
0.0
 11
111.0124056798785
 21
109.5558150012807
 31
0.0
 11
111.0178720918685
 21
109.5688902146008
 31
0.0
 11
111.0202696835584
 21
109.5821678075007
 31
0.0
  0
SPLINE
  5
D41
330
1F
100
AcDbEntity
  8
0
  6
Continuous
100
AcDbSpline
210
0.0
220
0.0
230
1.0
 70
     8
 71
     3
 72
    14
 73
    10
 74
     8
 42
0.0000000001
 43
0.0000000001
 44
0.0000000001
 12
0.2058558865254605
 22
-3.894563307224934
 32
0.0
 13
3.9
 23
-0.0000000000000002
 33
0.0
 40
0.0
 40
0.0
 40
0.0
 40
0.0
 40
0.00347436251143
 40
0.0071131163001209
 40
0.0147329318635139
 40
0.018590014189765
 40
0.022359320706781
 40
0.0259778860861279
 40
0.0294293863429792
 40
0.0294293863429792
 40
0.0294293863429792
 40
0.0294293863429792
 10
110.6837340370986
 20
109.5821595593907
 30
0.0
 10
110.6839724430902
 20
109.5776491844731
 30
0.0
 10
110.685715746381
 20
109.5684568910532
 30
0.0
 10
110.6932494604176
 20
109.5507479016293
 30
0.0
 10
110.7056165558913
 20
109.5349617268635
 30
0.0
 10
110.7209557018358
 20
109.5223398747117
 30
0.0
 10
110.7336173185001
 20
109.514886490671
 30
0.0
 10
110.7469071482374
 20
109.5099685617181
 30
0.0
 10
110.7561207180146
 20
109.5086989292907
 30
0.0
 10
110.7606076683485
 20
109.5086989292907
 30
0.0
 11
110.6837340370986
 21
109.5821595593907
 31
0.0
 11
110.6861273243585
 21
109.5688225788508
 31
0.0
 11
110.6915745608285
 21
109.5557185312707
 31
0.0
 11
110.7096458352185
 21
109.5321273080307
 31
0.0
 11
110.7212778788886
 21
109.5225891735807
 31
0.0
 11
110.7339795303185
 21
109.5151887184408
 31
0.0
 11
110.7472547925786
 21
109.5104004634108
 31
0.0
 11
110.7606076683485
 21
109.5086989292907
 31
0.0
  0
SPLINE
  5
D42
330
1F
100
AcDbEntity
  8
0
  6
Continuous
100
AcDbSpline
210
0.0
220
0.0
230
1.0
 70
     8
 71
     3
 72
     9
 73
     5
 74
     3
 42
0.0000000001
 43
0.0000000001
 44
0.0000000001
 12
3.899021628013184
 22
-0.0873518419120286
 32
0.0
 13
3.899913620465432
 23
0.0259567507251221
 33
0.0
 40
0.0
 40
0.0
 40
0.0
 40
0.0
 40
0.0874498784620634
 40
0.1019597022920776
 40
0.1019597022920776
 40
0.1019597022920776
 40
0.1019597022920776
 10
113.8650103893785
 20
109.4183475809307
 30
0.0
 10
113.9786667118755
 20
109.4158012782779
 30
0.0
 10
114.1112337768467
 20
109.4150280066961
 30
0.0
 10
114.2437786412435
 20
109.415714761844
 30
0.0
 10
114.2626409944385
 20
109.4158403044708
 30
0.0
 11
113.8650103893785
 21
109.4183475809307
 31
0.0
 11
114.2060534319785
 21
109.4155488668308
 31
0.0
 11
114.2626409944385
 21
109.4158403044708
 31
0.0
  0
SPLINE
  5
D43
330
1F
100
AcDbEntity
  8
0
  6
Continuous
100
AcDbSpline
210
0.0
220
0.0
230
1.0
 70
     8
 71
     3
 72
     8
 73
     4
 74
     2
 42
0.0000000001
 43
0.0000000001
 44
0.0000000001
 12
-3.899999999948359
 22
0.0000200697057946
 32
0.0
 13
-3.479567173422847
 23
1.761423369221078
 33
0.0
 40
0.0
 40
0.0
 40
0.0
 40
0.0
 40
0.0113290150050341
 40
0.0113290150050341
 40
0.0113290150050341
 40
0.0113290150050341
 10
112.6936285994886
 20
108.2770630075407
 30
0.0
 10
112.6789008799822
 20
108.2770630833308
 30
0.0
 10
112.6638381368748
 20
108.2808575638374
 30
0.0
 10
112.6506981139685
 20
108.2875092944308
 30
0.0
 11
112.6936285994886
 21
108.2770630075407
 31
0.0
 11
112.6506981139685
 21
108.2875092944308
 31
0.0
  0
SPLINE
  5
D44
330
1F
100
AcDbEntity
  8
0
  6
Continuous
100
AcDbSpline
210
0.0
220
0.0
230
1.0
 70
     8
 71
     3
 72
     9
 73
     5
 74
     3
 42
0.0000000001
 43
0.0000000001
 44
0.0000000001
 12
-3.899021628013184
 22
-0.0873518419120282
 32
0.0
 13
-3.899913620465432
 23
0.0259567507251226
 33
0.0
 40
0.0
 40
0.0
 40
0.0
 40
0.0
 40
0.0874498784620617
 40
0.1019597022920758
 40
0.1019597022920758
 40
0.1019597022920758
 40
0.1019597022920758
 10
120.5572884012786
 20
109.4183475809307
 30
0.0
 10
120.4436320787816
 20
109.4158012782779
 30
0.0
 10
120.3110650138103
 20
109.4150280066961
 30
0.0
 10
120.1785201494136
 20
109.415714761844
 30
0.0
 10
120.1596577962186
 20
109.4158403044708
 30
0.0
 11
120.5572884012786
 21
109.4183475809307
 31
0.0
 11
120.2162453586785
 21
109.4155488668308
 31
0.0
 11
120.1596577962186
 21
109.4158403044708
 31
0.0
  0
SPLINE
  5
D45
330
1F
100
AcDbEntity
  8
0
  6
Continuous
100
AcDbSpline
210
0.0
220
0.0
230
1.0
 70
     8
 71
     3
 72
     8
 73
     4
 74
     2
 42
0.0000000001
 43
0.0000000001
 44
0.0000000001
 12
3.899999999948359
 22
0.0000200697057941
 32
0.0
 13
3.479567173422847
 23
1.761423369221077
 33
0.0
 40
0.0
 40
0.0
 40
0.0
 40
0.0
 40
0.0113290150050358
 40
0.0113290150050358
 40
0.0113290150050358
 40
0.0113290150050358
 10
121.7286701911685
 20
108.2770630075407
 30
0.0
 10
121.7433979106749
 20
108.2770630833308
 30
0.0
 10
121.7584606537823
 20
108.2808575638374
 30
0.0
 10
121.7716006766886
 20
108.2875092944308
 30
0.0
 11
121.7286701911685
 21
108.2770630075407
 31
0.0
 11
121.7716006766886
 21
108.2875092944308
 31
0.0
  0
SPLINE
  5
D46
330
1F
100
AcDbEntity
  8
0
  6
Continuous
100
AcDbSpline
210
0.0
220
0.0
230
1.0
 70
     8
 71
     3
 72
    19
 73
    15
 74
    13
 42
0.0000000001
 43
0.0000000001
 44
0.0000000001
 12
-2.30317305346005
 22
-3.147283572513845
 32
0.0
 13
3.753167168978754
 23
1.060064244138066
 33
0.0
 40
0.0
 40
0.0
 40
0.0
 40
0.0
 40
0.0073404654588579
 40
0.0124287139754821
 40
0.0163171259829025
 40
0.0199470915890496
 40
0.0238343431113916
 40
0.0280594344523287
 40
0.0325917460696549
 40
0.0375993353347341
 40
0.0433902262883521
 40
0.0504014148604125
 40
0.0590066852025281
 40
0.0625319744043328
 40
0.0625319744043328
 40
0.0625319744043328
 40
0.0625319744043328
 10
120.2268106431486
 20
108.5431647366807
 30
0.0
 10
120.221175189067
 20
108.535463894563
 30
0.0
 10
120.2127619234874
 20
108.5214323793516
 30
0.0
 10
120.2081518214081
 20
108.5001051990024
 30
0.0
 10
120.2128778321243
 20
108.4836388754661
 30
0.0
 10
120.2238431349091
 20
108.4729355893808
 30
0.0
 10
120.2379651347665
 20
108.4666696018555
 30
0.0
 10
120.2541644170405
 20
108.4634248043991
 30
0.0
 10
120.2720769974399
 20
108.4624999253558
 30
0.0
 10
120.2920064172697
 20
108.4635189818577
 30
0.0
 10
120.3149819648716
 20
108.4665203094173
 30
0.0
 10
120.3423167065565
 20
108.4718179819313
 30
0.0
 10
120.3664840014678
 20
108.4777879195688
 30
0.0
 10
120.3816888429573
 20
108.481971323623
 30
0.0
 10
120.3860991761885
 20
108.4832170013007
 30
0.0
 11
120.2268106431486
 21
108.5431647366807
 31
0.0
 11
120.2129471559785
 21
108.5181176703507
 31
0.0
 11
120.2097089294285
 21
108.4985394952408
 31
0.0
 11
120.2141542153385
 21
108.4840408470508
 31
0.0
 11
120.2240186873586
 21
108.4738865847508
 31
0.0
 11
120.2377049698385
 21
108.4673658647008
 31
0.0
 11
120.2538120025986
 21
108.4638897689608
 31
0.0
 11
120.2714555963586
 21
108.4628196678507
 31
0.0
 11
120.2909651669586
 21
108.4637038953508
 31
0.0
 11
120.3133731972785
 21
108.4665214608808
 31
0.0
 11
120.3402361008786
 21
108.4716262438108
 31
0.0
 11
120.3728420824686
 21
108.4795736189607
 31
0.0
 11
120.3860991761885
 21
108.4832170013007
 31
0.0
  0
SPLINE
  5
D47
330
1F
100
AcDbEntity
  8
0
  6
Continuous
100
AcDbSpline
210
0.0
220
0.0
230
1.0
 70
     8
 71
     3
 72
    19
 73
    15
 74
    13
 42
0.0000000001
 43
0.0000000001
 44
0.0000000001
 12
2.303173050059807
 22
-3.147283575002134
 32
0.0
 13
-3.753179975202998
 23
1.06001890253675
 33
0.0
 40
0.0
 40
0.0
 40
0.0
 40
0.0
 40
0.0073404654588579
 40
0.0124287139754821
 40
0.0163171259829025
 40
0.0199470915890483
 40
0.023834343111392
 40
0.0280594345500804
 40
0.0325917460675882
 40
0.0375993353326692
 40
0.0433902262862854
 40
0.0504014148583458
 40
0.0590066852004614
 40
0.0625288352833911
 40
0.0625288352833911
 40
0.0625288352833911
 40
0.0625288352833911
 10
114.1954881475085
 20
108.5431647366807
 30
0.0
 10
114.2011236015818
 20
108.5354638945569
 30
0.0
 10
114.2095368671724
 20
108.5214323793532
 30
0.0
 10
114.2141469692484
 20
108.5001051990025
 30
0.0
 10
114.2094209585329
 20
108.4836388754648
 30
0.0
 10
114.1984556557471
 20
108.4729355893854
 30
0.0
 10
114.1843336557767
 20
108.4666696017838
 30
0.0
 10
114.1681343734738
 20
108.4634248044722
 30
0.0
 10
114.1502217930896
 20
108.4624999253369
 30
0.0
 10
114.1302923733915
 20
108.4635189818621
 30
0.0
 10
114.1073168257612
 20
108.4665203094343
 30
0.0
 10
114.0799820842247
 20
108.4718179818314
 30
0.0
 10
114.0558187520335
 20
108.4777869408886
 30
0.0
 10
114.0406178174222
 20
108.4819691582089
 30
0.0
 10
114.0362113963686
 20
108.4832136734307
 30
0.0
 11
114.1954881475085
 21
108.5431647366807
 31
0.0
 11
114.2093516346786
 21
108.5181176703507
 31
0.0
 11
114.2125898612286
 21
108.4985394952408
 31
0.0
 11
114.2081445753186
 21
108.4840408470508
 31
0.0
 11
114.1982801032985
 21
108.4738865847508
 31
0.0
 11
114.1845938208186
 21
108.4673658647008
 31
0.0
 11
114.1684867876685
 21
108.4638897689608
 31
0.0
 11
114.1508431942985
 21
108.4628196678507
 31
0.0
 11
114.1313336236986
 21
108.4637038953508
 31
0.0
 11
114.1089255933785
 21
108.4665214608808
 31
0.0
 11
114.0820626897786
 21
108.4716262438108
 31
0.0
 11
114.0494567081884
 21
108.4795736189607
 31
0.0
 11
114.0362113963686
 21
108.4832136734307
 31
0.0
  0
ENDSEC
  0
SECTION
  2
OBJECTS
  0
DICTIONARY
  5
C
330
0
100
AcDbDictionary
281
     1
  3
ACAD_COLOR
350
C9
  3
ACAD_GROUP
350
D
  3
ACAD_LAYOUT
350
1A
  3
ACAD_MATERIAL
350
C8
  3
ACAD_MLEADERSTYLE
350
2EC
  3
ACAD_MLINESTYLE
350
17
  3
ACAD_PLOTSETTINGS
350
19
  3
ACAD_PLOTSTYLENAME
350
E
  3
ACAD_SCALELIST
350
2CA
  3
ACAD_TABLESTYLE
350
123
  3
ACAD_VISUALSTYLE
350
296
  3
ACDB_RECOMPOSE_DATA
350
30D
  3
AcDbVariableDictionary
350
9E
  3
AcmDictionary
350
63
  3
AMG
350
49
  3
AMGSNAPSETTINGS
350
58A
  0
DICTIONARY
  5
B2C
330
8
100
AcDbDictionary
280
     1
281
     1
  0
DICTIONARY
  5
D5A
330
2
100
AcDbDictionary
280
     1
281
     1
  3
AMLAYER_GROUPCOLORS
360
D5B
  0
DICTIONARY
  5
B0B
330
10
100
AcDbDictionary
280
     1
281
     1
  3
ADSK_XREC_LAYER_RECONCILED
360
B0C
  0
DICTIONARY
  5
B0D
330
38C
100
AcDbDictionary
280
     1
281
     1
  3
ADSK_XREC_LAYER_RECONCILED
360
B0E
  0
DICTIONARY
  5
790
330
78F
100
AcDbDictionary
280
     1
281
     1
  3
ADSK_XREC_LAYER_RECONCILED
360
B0F
  0
DICTIONARY
  5
99
330
1F
100
AcDbDictionary
280
     1
281
     1
  0
DICTIONARY
  5
C9
102
{ACAD_REACTORS
330
C
102
}
330
C
100
AcDbDictionary
281
     1
  0
DICTIONARY
  5
D
102
{ACAD_REACTORS
330
C
102
}
330
C
100
AcDbDictionary
281
     1
  0
DICTIONARY
  5
1A
102
{ACAD_REACTORS
330
C
102
}
330
C
100
AcDbDictionary
281
     1
  3
Layout1
350
1E
  3
Layout2
350
26
  3
Model
350
22
  0
DICTIONARY
  5
C8
102
{ACAD_REACTORS
330
C
102
}
330
C
100
AcDbDictionary
281
     1
  3
ByBlock
350
294
  3
ByLayer
350
293
  3
Global
350
295
  0
DICTIONARY
  5
2EC
102
{ACAD_REACTORS
330
C
102
}
330
C
100
AcDbDictionary
281
     1
  3
Standard
350
2ED
  0
DICTIONARY
  5
17
102
{ACAD_REACTORS
330
C
102
}
330
C
100
AcDbDictionary
281
     1
  3
Standard
350
18
  0
DICTIONARY
  5
19
102
{ACAD_REACTORS
330
C
102
}
330
C
100
AcDbDictionary
281
     1
  0
ACDBDICTIONARYWDFLT
  5
E
102
{ACAD_REACTORS
330
C
102
}
330
C
100
AcDbDictionary
281
     1
  3
Normal
350
F
100
AcDbDictionaryWithDefault
340
F
  0
DICTIONARY
  5
2CA
102
{ACAD_REACTORS
330
C
102
}
330
C
100
AcDbDictionary
281
     1
  3
A0
350
2CB
  3
A1
350
2CC
  3
A2
350
2CD
  3
A3
350
2CE
  3
A4
350
2CF
  3
A5
350
2D0
  3
A6
350
2D1
  3
A7
350
2D2
  3
A8
350
2D3
  3
A9
350
2D4
  3
B0
350
2D5
  3
B1
350
2D6
  3
B2
350
2D7
  3
B3
350
2D8
  3
B4
350
2D9
  3
B5
350
2DA
  3
B6
350
2DB
  3
B7
350
2DC
  3
B8
350
2DD
  3
B9
350
2DE
  3
C0
350
2DF
  3
C1
350
2E0
  3
C2
350
2E1
  3
C3
350
2E2
  3
C4
350
2E3
  3
C5
350
2E4
  3
C6
350
2E5
  3
C7
350
2E6
  3
C8
350
2E7
  3
C9
350
2E8
  3
D0
350
2E9
  3
D1
350
2EA
  3
D2
350
2EB
  0
DICTIONARY
  5
123
102
{ACAD_REACTORS
330
C
102
}
330
C
100
AcDbDictionary
281
     1
  3
Standard
350
124
  0
DICTIONARY
  5
296
102
{ACAD_REACTORS
330
C
102
}
330
C
100
AcDbDictionary
281
     1
  3
2dWireframe
350
29C
  3
3D Hidden
350
29E
  3
3dWireframe
350
29D
  3
Basic
350
29B
  3
Brighten
350
2A2
  3
ColorChange
350
2A6
  3
Conceptual
350
29F
  3
Dim
350
2A1
  3
Facepattern
350
2A5
  3
Flat
350
297
  3
FlatWithEdges
350
298
  3
Gouraud
350
299
  3
GouraudWithEdges
350
29A
  3
Linepattern
350
2A4
  3
Realistic
350
2A0
  3
Thicken
350
2A3
  0
XRECORD
  5
30D
102
{ACAD_REACTORS
330
C
102
}
330
C
100
AcDbXrecord
280
     1
 90
        1
330
124
  0
DICTIONARY
  5
9E
102
{ACAD_REACTORS
330
C
102
}
330
C
100
AcDbDictionary
281
     1
  3
CANNOSCALE
350
310
  3
CMLEADERSTYLE
350
30E
  3
CTABLESTYLE
350
144
  3
DIMASSOC
350
A0
  3
INDEXCTL
350
9F
  3
LAYEREVAL
350
36B
  3
LAYERNOTIFY
350
36C
  3
LIGHTINGUNITS
350
311
  3
MSLTSCALE
350
30F
  0
DICTIONARY
  5
63
102
{ACAD_REACTORS
330
C
102
}
330
C
100
AcDbDictionary
281
     1
  3
AcmStdDictionary
350
69
  3
AMDTSECTSYM_ARROWCOLOR
350
12C
  0
DICTIONARY
  5
49
102
{ACAD_REACTORS
330
C
102
}
330
C
100
AcDbDictionary
281
     1
  0
DICTIONARY
  5
58A
102
{ACAD_REACTORS
330
C
102
}
330
C
100
AcDbDictionary
281
     1
  0
DICTIONARY
  5
D5B
102
{ACAD_REACTORS
330
D5A
102
}
330
D5A
100
AcDbDictionary
280
     1
281
     1
  0
XRECORD
  5
B0C
102
{ACAD_REACTORS
330
B0B
102
}
330
B0B
100
AcDbXrecord
280
     1
290
     1
  0
XRECORD
  5
B0E
102
{ACAD_REACTORS
330
B0D
102
}
330
B0D
100
AcDbXrecord
280
     1
290
     1
  0
XRECORD
  5
B0F
102
{ACAD_REACTORS
330
790
102
}
330
790
100
AcDbXrecord
280
     1
290
     1
  0
LAYOUT
  5
1E
102
{ACAD_REACTORS
330
1A
102
}
330
1A
100
AcDbPlotSettings
  1

  2

  4

  6

 40
0.0
 41
0.0
 42
0.0
 43
0.0
 44
0.0
 45
0.0
 46
0.0
 47
0.0
 48
0.0
 49
0.0
140
0.0
141
0.0
142
1.0
143
1.0
 70
   688
 72
     0
 73
     0
 74
     5
  7

 75
    16
147
1.0
 76
     0
 77
     2
 78
   300
148
0.0
149
0.0
100
AcDbLayout
  1
Layout1
 70
     1
 71
     1
 10
0.0
 20
0.0
 11
12.0
 21
9.0
 12
0.0
 22
0.0
 32
0.0
 14
1.000000000000000E+20
 24
1.000000000000000E+20
 34
1.000000000000000E+20
 15
-1.000000000000000E+20
 25
-1.000000000000000E+20
 35
-1.000000000000000E+20
146
0.0
 13
0.0
 23
0.0
 33
0.0
 16
1.0
 26
0.0
 36
0.0
 17
0.0
 27
1.0
 37
0.0
 76
     0
330
1B
  0
LAYOUT
  5
26
102
{ACAD_REACTORS
330
1A
102
}
330
1A
100
AcDbPlotSettings
  1

  2

  4

  6

 40
0.0
 41
0.0
 42
0.0
 43
0.0
 44
0.0
 45
0.0
 46
0.0
 47
0.0
 48
0.0
 49
0.0
140
0.0
141
0.0
142
1.0
143
1.0
 70
   688
 72
     0
 73
     0
 74
     5
  7

 75
    16
147
1.0
 76
     0
 77
     2
 78
   300
148
0.0
149
0.0
100
AcDbLayout
  1
Layout2
 70
     1
 71
     2
 10
0.0
 20
0.0
 11
12.0
 21
9.0
 12
0.0
 22
0.0
 32
0.0
 14
0.0
 24
0.0
 34
0.0
 15
0.0
 25
0.0
 35
0.0
146
0.0
 13
0.0
 23
0.0
 33
0.0
 16
1.0
 26
0.0
 36
0.0
 17
0.0
 27
1.0
 37
0.0
 76
     0
330
23
  0
LAYOUT
  5
22
102
{ACAD_REACTORS
330
1A
102
}
330
1A
100
AcDbPlotSettings
  1

  2

  4

  6

 40
0.0
 41
0.0
 42
0.0
 43
0.0
 44
0.0
 45
0.0
 46
0.0
 47
0.0
 48
0.0
 49
0.0
140
0.0
141
0.0
142
1.0
143
1.0
 70
  1712
 72
     0
 73
     0
 74
     0
  7

 75
     0
147
1.0
 76
     0
 77
     2
 78
   300
148
0.0
149
0.0
100
AcDbLayout
  1
Model
 70
     1
 71
     0
 10
0.0
 20
0.0
 11
12.0
 21
9.0
 12
0.0
 22
0.0
 32
0.0
 14
0.0
 24
0.0
 34
0.0
 15
0.0
 25
0.0
 35
0.0
146
0.0
 13
0.0
 23
0.0
 33
0.0
 16
1.0
 26
0.0
 36
0.0
 17
0.0
 27
1.0
 37
0.0
 76
     0
330
1F
331
291
  0
MATERIAL
  5
294
102
{ACAD_REACTORS
330
C8
102
}
330
C8
100
AcDbMaterial
  1
ByBlock
 73
     1
 78
     1
172
     1
176
     1
270
     1
274
     1
 94
       63
  0
MATERIAL
  5
293
102
{ACAD_REACTORS
330
C8
102
}
330
C8
100
AcDbMaterial
  1
ByLayer
 73
     1
 78
     1
172
     1
176
     1
270
     1
274
     1
 94
       63
  0
MATERIAL
  5
295
102
{ACAD_REACTORS
330
C8
102
}
330
C8
100
AcDbMaterial
  1
Global
 73
     1
 78
     1
172
     1
176
     1
270
     1
274
     1
 94
       63
  0
MLEADERSTYLE
  5
2ED
102
{ACAD_REACTORS
330
2EC
102
}
330
2EC
100
AcDbMLeaderStyle
170
     2
171
     1
172
     0
 90
        2
 40
0.0
 41
0.0
173
     1
 91
-1056964608
340
14
 92
       -2
290
     1
 42
0.09
291
     1
 43
0.36
  3
Standard
 44
0.18
300

342
11
174
     1
178
     6
175
     1
176
     0
 93
-1056964608
 45
0.18
292
     0
297
     0
 46
0.18
 94
-1056964608
 47
1.0
 49
1.0
140
1.0
293
     1
141
0.0
294
     1
177
     0
142
1.0
295
     0
296
     0
143
0.125
1001
ACAD_MLEADERVER
1070
     2
  0
MLINESTYLE
  5
18
102
{ACAD_REACTORS
330
17
102
}
330
17
100
AcDbMlineStyle
  2
STANDARD
 70
     0
  3

 62
   256
 51
90.0
 52
90.0
 71
     2
 49
0.5
 62
   256
  6
BYLAYER
 49
-0.5
 62
   256
  6
BYLAYER
  0
ACDBPLACEHOLDER
  5
F
102
{ACAD_REACTORS
330
E
102
}
330
E
  0
SCALE
  5
2CB
102
{ACAD_REACTORS
330
2CA
102
}
330
2CA
100
AcDbScale
 70
     0
300
1:1
140
1.0
141
1.0
290
     1
  0
SCALE
  5
2CC
102
{ACAD_REACTORS
330
2CA
102
}
330
2CA
100
AcDbScale
 70
     0
300
1:2
140
1.0
141
2.0
290
     0
  0
SCALE
  5
2CD
102
{ACAD_REACTORS
330
2CA
102
}
330
2CA
100
AcDbScale
 70
     0
300
1:4
140
1.0
141
4.0
290
     0
  0
SCALE
  5
2CE
102
{ACAD_REACTORS
330
2CA
102
}
330
2CA
100
AcDbScale
 70
     0
300
1:5
140
1.0
141
5.0
290
     0
  0
SCALE
  5
2CF
102
{ACAD_REACTORS
330
2CA
102
}
330
2CA
100
AcDbScale
 70
     0
300
1:8
140
1.0
141
8.0
290
     0
  0
SCALE
  5
2D0
102
{ACAD_REACTORS
330
2CA
102
}
330
2CA
100
AcDbScale
 70
     0
300
1:10
140
1.0
141
10.0
290
     0
  0
SCALE
  5
2D1
102
{ACAD_REACTORS
330
2CA
102
}
330
2CA
100
AcDbScale
 70
     0
300
1:16
140
1.0
141
16.0
290
     0
  0
SCALE
  5
2D2
102
{ACAD_REACTORS
330
2CA
102
}
330
2CA
100
AcDbScale
 70
     0
300
1:20
140
1.0
141
20.0
290
     0
  0
SCALE
  5
2D3
102
{ACAD_REACTORS
330
2CA
102
}
330
2CA
100
AcDbScale
 70
     0
300
1:30
140
1.0
141
30.0
290
     0
  0
SCALE
  5
2D4
102
{ACAD_REACTORS
330
2CA
102
}
330
2CA
100
AcDbScale
 70
     0
300
1:40
140
1.0
141
40.0
290
     0
  0
SCALE
  5
2D5
102
{ACAD_REACTORS
330
2CA
102
}
330
2CA
100
AcDbScale
 70
     0
300
1:50
140
1.0
141
50.0
290
     0
  0
SCALE
  5
2D6
102
{ACAD_REACTORS
330
2CA
102
}
330
2CA
100
AcDbScale
 70
     0
300
1:100
140
1.0
141
100.0
290
     0
  0
SCALE
  5
2D7
102
{ACAD_REACTORS
330
2CA
102
}
330
2CA
100
AcDbScale
 70
     0
300
2:1
140
2.0
141
1.0
290
     0
  0
SCALE
  5
2D8
102
{ACAD_REACTORS
330
2CA
102
}
330
2CA
100
AcDbScale
 70
     0
300
4:1
140
4.0
141
1.0
290
     0
  0
SCALE
  5
2D9
102
{ACAD_REACTORS
330
2CA
102
}
330
2CA
100
AcDbScale
 70
     0
300
8:1
140
8.0
141
1.0
290
     0
  0
SCALE
  5
2DA
102
{ACAD_REACTORS
330
2CA
102
}
330
2CA
100
AcDbScale
 70
     0
300
10:1
140
10.0
141
1.0
290
     0
  0
SCALE
  5
2DB
102
{ACAD_REACTORS
330
2CA
102
}
330
2CA
100
AcDbScale
 70
     0
300
100:1
140
100.0
141
1.0
290
     0
  0
SCALE
  5
2DC
102
{ACAD_REACTORS
330
2CA
102
}
330
2CA
100
AcDbScale
 70
     0
300
1/128" = 1'-0"
140
0.0078125
141
12.0
290
     0
  0
SCALE
  5
2DD
102
{ACAD_REACTORS
330
2CA
102
}
330
2CA
100
AcDbScale
 70
     0
300
1/64" = 1'-0"
140
0.015625
141
12.0
290
     0
  0
SCALE
  5
2DE
102
{ACAD_REACTORS
330
2CA
102
}
330
2CA
100
AcDbScale
 70
     0
300
1/32" = 1'-0"
140
0.03125
141
12.0
290
     0
  0
SCALE
  5
2DF
102
{ACAD_REACTORS
330
2CA
102
}
330
2CA
100
AcDbScale
 70
     0
300
1/16" = 1'-0"
140
0.0625
141
12.0
290
     0
  0
SCALE
  5
2E0
102
{ACAD_REACTORS
330
2CA
102
}
330
2CA
100
AcDbScale
 70
     0
300
3/32" = 1'-0"
140
0.09375
141
12.0
290
     0
  0
SCALE
  5
2E1
102
{ACAD_REACTORS
330
2CA
102
}
330
2CA
100
AcDbScale
 70
     0
300
1/8" = 1'-0"
140
0.125
141
12.0
290
     0
  0
SCALE
  5
2E2
102
{ACAD_REACTORS
330
2CA
102
}
330
2CA
100
AcDbScale
 70
     0
300
3/16" = 1'-0"
140
0.1875
141
12.0
290
     0
  0
SCALE
  5
2E3
102
{ACAD_REACTORS
330
2CA
102
}
330
2CA
100
AcDbScale
 70
     0
300
1/4" = 1'-0"
140
0.25
141
12.0
290
     0
  0
SCALE
  5
2E4
102
{ACAD_REACTORS
330
2CA
102
}
330
2CA
100
AcDbScale
 70
     0
300
3/8" = 1'-0"
140
0.375
141
12.0
290
     0
  0
SCALE
  5
2E5
102
{ACAD_REACTORS
330
2CA
102
}
330
2CA
100
AcDbScale
 70
     0
300
1/2" = 1'-0"
140
0.5
141
12.0
290
     0
  0
SCALE
  5
2E6
102
{ACAD_REACTORS
330
2CA
102
}
330
2CA
100
AcDbScale
 70
     0
300
3/4" = 1'-0"
140
0.75
141
12.0
290
     0
  0
SCALE
  5
2E7
102
{ACAD_REACTORS
330
2CA
102
}
330
2CA
100
AcDbScale
 70
     0
300
1" = 1'-0"
140
1.0
141
12.0
290
     0
  0
SCALE
  5
2E8
102
{ACAD_REACTORS
330
2CA
102
}
330
2CA
100
AcDbScale
 70
     0
300
1-1/2" = 1'-0"
140
1.5
141
12.0
290
     0
  0
SCALE
  5
2E9
102
{ACAD_REACTORS
330
2CA
102
}
330
2CA
100
AcDbScale
 70
     0
300
3" = 1'-0"
140
3.0
141
12.0
290
     0
  0
SCALE
  5
2EA
102
{ACAD_REACTORS
330
2CA
102
}
330
2CA
100
AcDbScale
 70
     0
300
6" = 1'-0"
140
6.0
141
12.0
290
     0
  0
SCALE
  5
2EB
102
{ACAD_REACTORS
330
2CA
102
}
330
2CA
100
AcDbScale
 70
     0
300
1'-0" = 1'-0"
140
12.0
141
12.0
290
     0
  0
TABLESTYLE
  5
124
102
{ACAD_XDICTIONARY
360
30B
102
}
102
{ACAD_REACTORS
330
123
102
}
330
123
100
AcDbTableStyle
  3
Standard
 70
     0
 71
     0
 40
0.06
 41
0.06
280
     0
281
     0
  7
STANDARD
140
0.18
170
     2
 62
     0
 63
     7
283
     0
 90
      512
 91
        0
  1

274
    -2
284
     1
 64
     0
275
    -2
285
     1
 65
     0
276
    -2
286
     1
 66
     0
277
    -2
287
     1
 67
     0
278
    -2
288
     1
 68
     0
279
    -2
289
     1
 69
     0
  7
STANDARD
140
0.25
170
     5
 62
     0
 63
     7
283
     0
 90
      512
 91
        0
  1

274
    -2
284
     1
 64
     0
275
    -2
285
     1
 65
     0
276
    -2
286
     1
 66
     0
277
    -2
287
     1
 67
     0
278
    -2
288
     1
 68
     0
279
    -2
289
     1
 69
     0
  7
STANDARD
140
0.18
170
     5
 62
     0
 63
     7
283
     0
 90
      512
 91
        0
  1

274
    -2
284
     1
 64
     0
275
    -2
285
     1
 65
     0
276
    -2
286
     1
 66
     0
277
    -2
287
     1
 67
     0
278
    -2
288
     1
 68
     0
279
    -2
289
     1
 69
     0
  0
VISUALSTYLE
  5
29C
102
{ACAD_REACTORS
330
296
102
}
330
296
100
AcDbVisualStyle
  2
2dWireframe
 70
     4
 71
     0
 72
     2
 73
     0
 90
        0
 40
-0.6
 41
-30.0
 62
     5
 63
     7
421
 16777215
 74
     1
 91
        4
 64
     7
 65
   257
 75
     1
175
     1
 42
1.0
 92
        0
 66
   257
 43
1.0
 76
     1
 77
     6
 78
     2
 67
     7
 79
     5
170
     0
171
     0
290
     0
174
     0
 93
        1
 44
0.0
173
     0
291
     0
 45
0.0
  0
VISUALSTYLE
  5
29E
102
{ACAD_REACTORS
330
296
102
}
330
296
100
AcDbVisualStyle
  2
3D Hidden
 70
     6
 71
     1
 72
     2
 73
     2
 90
        0
 40
-0.6
 41
-30.0
 62
     5
 63
     7
421
 16777215
 74
     2
 91
        2
 64
     7
 65
   257
 75
     2
175
     1
 42
40.0
 92
        0
 66
   257
 43
1.0
 76
     1
 77
     6
 78
     2
 67
     7
 79
     3
170
     0
171
     0
290
     0
174
     0
 93
        1
 44
0.0
173
     0
291
     0
 45
0.0
  0
VISUALSTYLE
  5
29D
102
{ACAD_REACTORS
330
296
102
}
330
296
100
AcDbVisualStyle
  2
3dWireframe
 70
     5
 71
     0
 72
     2
 73
     0
 90
        0
 40
-0.6
 41
-30.0
 62
     5
 63
     7
421
 16777215
 74
     1
 91
        4
 64
     7
 65
   257
 75
     1
175
     1
 42
1.0
 92
        0
 66
   257
 43
1.0
 76
     1
 77
     6
 78
     2
 67
     7
 79
     5
170
     0
171
     0
290
     0
174
     0
 93
        1
 44
0.0
173
     0
291
     0
 45
0.0
  0
VISUALSTYLE
  5
29B
102
{ACAD_REACTORS
330
296
102
}
330
296
100
AcDbVisualStyle
  2
Basic
 70
     7
 71
     1
 72
     0
 73
     1
 90
        0
 40
-0.6
 41
-30.0
 62
     5
 63
     7
421
 16777215
 74
     0
 91
        4
 64
     7
 65
   257
 75
     1
175
     1
 42
1.0
 92
        8
 66
     7
 43
1.0
 76
     1
 77
     6
 78
     2
 67
     7
 79
     5
170
     0
171
     0
290
     0
174
     0
 93
        1
 44
0.0
173
     0
291
     1
 45
0.0
  0
VISUALSTYLE
  5
2A2
102
{ACAD_REACTORS
330
296
102
}
330
296
100
AcDbVisualStyle
  2
Brighten
 70
    12
 71
     2
 72
     2
 73
     0
 90
        0
 40
-0.6
 41
-30.0
 62
     5
 63
     7
421
 16777215
 74
     1
 91
        4
 64
     7
 65
   257
 75
     1
175
     1
 42
1.0
 92
        8
 66
     7
 43
1.0
 76
     1
 77
     6
 78
     2
 67
     7
 79
     5
170
     0
171
     0
290
     0
174
     0
 93
        1
 44
50.0
173
     0
291
     1
 45
0.0
  0
VISUALSTYLE
  5
2A6
102
{ACAD_REACTORS
330
296
102
}
330
296
100
AcDbVisualStyle
  2
ColorChange
 70
    16
 71
     2
 72
     2
 73
     3
 90
        0
 40
-0.6
 41
-30.0
 62
     5
 63
     8
421
  8421504
 74
     1
 91
        4
 64
     7
 65
   257
 75
     1
175
     1
 42
1.0
 92
        8
 66
     8
424
  8421504
 43
1.0
 76
     1
 77
     6
 78
     2
 67
     7
 79
     5
170
     0
171
     0
290
     0
174
     0
 93
        1
 44
0.0
173
     0
291
     1
 45
0.0
  0
VISUALSTYLE
  5
29F
102
{ACAD_REACTORS
330
296
102
}
330
296
100
AcDbVisualStyle
  2
Conceptual
 70
     9
 71
     3
 72
     2
 73
     0
 90
        0
 40
-0.6
 41
-30.0
 62
     5
 63
     7
421
 16777215
 74
     2
 91
        2
 64
     7
 65
   257
 75
     1
175
     1
 42
40.0
 92
        8
 66
     7
 43
1.0
 76
     1
 77
     6
 78
     2
 67
     7
 79
     3
170
     0
171
     0
290
     0
174
     0
 93
        1
 44
0.0
173
     0
291
     0
 45
0.0
  0
VISUALSTYLE
  5
2A1
102
{ACAD_REACTORS
330
296
102
}
330
296
100
AcDbVisualStyle
  2
Dim
 70
    11
 71
     2
 72
     2
 73
     0
 90
        0
 40
-0.6
 41
-30.0
 62
     5
 63
     7
421
 16777215
 74
     1
 91
        4
 64
     7
 65
   257
 75
     1
175
     1
 42
1.0
 92
        8
 66
     7
 43
1.0
 76
     1
 77
     6
 78
     2
 67
     7
 79
     5
170
     0
171
     0
290
     0
174
     0
 93
        1
 44
-50.0
173
     0
291
     1
 45
0.0
  0
VISUALSTYLE
  5
2A5
102
{ACAD_REACTORS
330
296
102
}
330
296
100
AcDbVisualStyle
  2
Facepattern
 70
    15
 71
     2
 72
     2
 73
     0
 90
        0
 40
-0.6
 41
-30.0
 62
     5
 63
     7
421
 16777215
 74
     1
 91
        4
 64
     7
 65
   257
 75
     1
175
     1
 42
1.0
 92
        8
 66
     7
 43
1.0
 76
     1
 77
     6
 78
     2
 67
     7
 79
     5
170
     0
171
     0
290
     0
174
     0
 93
        1
 44
0.0
173
     0
291
     1
 45
0.0
  0
VISUALSTYLE
  5
297
102
{ACAD_REACTORS
330
296
102
}
330
296
100
AcDbVisualStyle
  2
Flat
 70
     0
 71
     2
 72
     1
 73
     1
 90
        2
 40
-0.6
 41
30.0
 62
     5
 63
     7
421
 16777215
 74
     0
 91
        4
 64
     7
 65
   257
 75
     1
175
     1
 42
1.0
 92
        8
 66
     7
 43
1.0
 76
     1
 77
     6
 78
     2
 67
     7
 79
     5
170
     0
171
     0
290
     0
174
     0
 93
       13
 44
0.0
173
     0
291
     1
 45
0.0
  0
VISUALSTYLE
  5
298
102
{ACAD_REACTORS
330
296
102
}
330
296
100
AcDbVisualStyle
  2
FlatWithEdges
 70
     1
 71
     2
 72
     1
 73
     1
 90
        2
 40
-0.6
 41
30.0
 62
     5
 63
     7
421
 16777215
 74
     1
 91
        4
 64
     7
 65
   257
 75
     1
175
     1
 42
1.0
 92
        0
 66
   257
 43
1.0
 76
     1
 77
     6
 78
     2
 67
     7
 79
     5
170
     0
171
     0
290
     0
174
     0
 93
       13
 44
0.0
173
     0
291
     1
 45
0.0
  0
VISUALSTYLE
  5
299
102
{ACAD_REACTORS
330
296
102
}
330
296
100
AcDbVisualStyle
  2
Gouraud
 70
     2
 71
     2
 72
     2
 73
     1
 90
        2
 40
-0.6
 41
30.0
 62
     5
 63
     7
421
 16777215
 74
     0
 91
        4
 64
     7
 65
   257
 75
     1
175
     1
 42
1.0
 92
        0
 66
     7
 43
1.0
 76
     1
 77
     6
 78
     2
 67
     7
 79
     5
170
     0
171
     0
290
     0
174
     0
 93
       13
 44
0.0
173
     0
291
     1
 45
0.0
  0
VISUALSTYLE
  5
29A
102
{ACAD_REACTORS
330
296
102
}
330
296
100
AcDbVisualStyle
  2
GouraudWithEdges
 70
     3
 71
     2
 72
     2
 73
     1
 90
        2
 40
-0.6
 41
30.0
 62
     5
 63
     7
421
 16777215
 74
     1
 91
        4
 64
     7
 65
   257
 75
     1
175
     1
 42
1.0
 92
        0
 66
   257
 43
1.0
 76
     1
 77
     6
 78
     2
 67
     7
 79
     5
170
     0
171
     0
290
     0
174
     0
 93
       13
 44
0.0
173
     0
291
     1
 45
0.0
  0
VISUALSTYLE
  5
2A4
102
{ACAD_REACTORS
330
296
102
}
330
296
100
AcDbVisualStyle
  2
Linepattern
 70
    14
 71
     2
 72
     2
 73
     0
 90
        0
 40
-0.6
 41
-30.0
 62
     5
 63
     7
421
 16777215
 74
     1
 91
        4
 64
     7
 65
   257
 75
     7
175
     7
 42
1.0
 92
        8
 66
     7
 43
1.0
 76
     1
 77
     6
 78
     2
 67
     7
 79
     5
170
     0
171
     0
290
     0
174
     0
 93
        1
 44
0.0
173
     0
291
     1
 45
0.0
  0
VISUALSTYLE
  5
2A0
102
{ACAD_REACTORS
330
296
102
}
330
296
100
AcDbVisualStyle
  2
Realistic
 70
     8
 71
     2
 72
     2
 73
     0
 90
        0
 40
-0.6
 41
-30.0
 62
     5
 63
     7
421
 16777215
 74
     1
 91
        0
 64
     7
 65
   257
 75
     1
175
     1
 42
1.0
 92
        8
 66
     8
424
  7895160
 43
1.0
 76
     1
 77
     6
 78
     2
 67
     7
 79
     5
170
     0
171
     0
290
     0
174
     0
 93
       13
 44
0.0
173
     0
291
     0
 45
0.0
  0
VISUALSTYLE
  5
2A3
102
{ACAD_REACTORS
330
296
102
}
330
296
100
AcDbVisualStyle
  2
Thicken
 70
    13
 71
     2
 72
     2
 73
     0
 90
        0
 40
-0.6
 41
-30.0
 62
     5
 63
     7
421
 16777215
 74
     1
 91
        4
 64
     7
 65
   257
 75
     1
175
     1
 42
1.0
 92
       12
 66
     7
 43
1.0
 76
     1
 77
     6
 78
     2
 67
     7
 79
     5
170
     0
171
     0
290
     0
174
     0
 93
        1
 44
0.0
173
     0
291
     1
 45
0.0
  0
DICTIONARYVAR
  5
310
102
{ACAD_REACTORS
330
9E
102
}
330
9E
100
DictionaryVariables
280
     0
  1
1:1
  0
DICTIONARYVAR
  5
30E
102
{ACAD_REACTORS
330
9E
102
}
330
9E
100
DictionaryVariables
280
     0
  1
STANDARD
  0
DICTIONARYVAR
  5
144
102
{ACAD_REACTORS
330
9E
102
}
330
9E
100
DictionaryVariables
280
     0
  1
STANDARD
  0
DICTIONARYVAR
  5
A0
102
{ACAD_REACTORS
330
9E
102
}
330
9E
100
DictionaryVariables
280
     0
  1
2
  0
DICTIONARYVAR
  5
9F
102
{ACAD_REACTORS
330
9E
102
}
330
9E
100
DictionaryVariables
280
     0
  1
1
  0
DICTIONARYVAR
  5
36B
102
{ACAD_REACTORS
330
9E
102
}
330
9E
100
DictionaryVariables
280
     0
  1
1
  0
DICTIONARYVAR
  5
36C
102
{ACAD_REACTORS
330
9E
102
}
330
9E
100
DictionaryVariables
280
     0
  1
15
  0
DICTIONARYVAR
  5
311
102
{ACAD_REACTORS
330
9E
102
}
330
9E
100
DictionaryVariables
280
     0
  1
0
  0
DICTIONARYVAR
  5
30F
102
{ACAD_REACTORS
330
9E
102
}
330
9E
100
DictionaryVariables
280
     0
  1
0
  0
DICTIONARY
  5
69
102
{ACAD_REACTORS
330
63
102
}
330
63
100
AcDbDictionary
281
     1
  0
XRECORD
  5
12C
102
{ACAD_REACTORS
330
63
102
}
330
63
100
AcDbXrecord
280
     1
 90
-1023410169
  0
DICTIONARY
  5
30B
330
124
100
AcDbDictionary
280
     1
281
     1
  3
ACAD_ROUNDTRIP_2008_TABLESTYLE_CELLSTYLEMAP
360
D6F
  0
CELLSTYLEMAP
  5
D6F
102
{ACAD_REACTORS
330
30B
102
}
330
30B
100
AcDbCellStyleMap
 90
        3
300
CELLSTYLE
  1
TABLEFORMAT_BEGIN
 90
        5
170
     1
 91
        0
 92
    32768
 62
   257
 93
        1
300
CONTENTFORMAT
  1
CONTENTFORMAT_BEGIN
 90
        0
 91
        0
 92
      512
 93
        0
300

 40
0.0
140
1.0
 94
        5
 62
     0
340
11
144
0.25
309
CONTENTFORMAT_END
171
     0
 94
        6
 95
        1
302
GRIDFORMAT
  1
GRIDFORMAT_BEGIN
 90
        0
 91
        1
 62
     0
 92
       -2
340
0
 93
        0
 40
0.045
309
GRIDFORMAT_END
 95
        2
302
GRIDFORMAT
  1
GRIDFORMAT_BEGIN
 90
        0
 91
        1
 62
     0
 92
       -2
340
0
 93
        0
 40
0.045
309
GRIDFORMAT_END
 95
        4
302
GRIDFORMAT
  1
GRIDFORMAT_BEGIN
 90
        0
 91
        1
 62
     0
 92
       -2
340
0
 93
        0
 40
0.045
309
GRIDFORMAT_END
 95
        8
302
GRIDFORMAT
  1
GRIDFORMAT_BEGIN
 90
        0
 91
        1
 62
     0
 92
       -2
340
0
 93
        0
 40
0.045
309
GRIDFORMAT_END
 95
       16
302
GRIDFORMAT
  1
GRIDFORMAT_BEGIN
 90
        0
 91
        1
 62
     0
 92
       -2
340
0
 93
        0
 40
0.045
309
GRIDFORMAT_END
 95
       32
302
GRIDFORMAT
  1
GRIDFORMAT_BEGIN
 90
        0
 91
        1
 62
     0
 92
       -2
340
0
 93
        0
 40
0.045
309
GRIDFORMAT_END
309
TABLEFORMAT_END
  1
CELLSTYLE_BEGIN
 90
        1
 91
        1
300
_TITLE
309
CELLSTYLE_END
300
CELLSTYLE
  1
TABLEFORMAT_BEGIN
 90
        5
170
     1
 91
        0
 92
        0
 62
   257
 93
        1
300
CONTENTFORMAT
  1
CONTENTFORMAT_BEGIN
 90
        0
 91
        0
 92
      512
 93
        0
300

 40
0.0
140
1.0
 94
        5
 62
     0
340
11
144
0.18
309
CONTENTFORMAT_END
171
     0
 94
        6
 95
        1
302
GRIDFORMAT
  1
GRIDFORMAT_BEGIN
 90
        0
 91
        1
 62
     0
 92
       -2
340
0
 93
        0
 40
0.045
309
GRIDFORMAT_END
 95
        2
302
GRIDFORMAT
  1
GRIDFORMAT_BEGIN
 90
        0
 91
        1
 62
     0
 92
       -2
340
0
 93
        0
 40
0.045
309
GRIDFORMAT_END
 95
        4
302
GRIDFORMAT
  1
GRIDFORMAT_BEGIN
 90
        0
 91
        1
 62
     0
 92
       -2
340
0
 93
        0
 40
0.045
309
GRIDFORMAT_END
 95
        8
302
GRIDFORMAT
  1
GRIDFORMAT_BEGIN
 90
        0
 91
        1
 62
     0
 92
       -2
340
0
 93
        0
 40
0.045
309
GRIDFORMAT_END
 95
       16
302
GRIDFORMAT
  1
GRIDFORMAT_BEGIN
 90
        0
 91
        1
 62
     0
 92
       -2
340
0
 93
        0
 40
0.045
309
GRIDFORMAT_END
 95
       32
302
GRIDFORMAT
  1
GRIDFORMAT_BEGIN
 90
        0
 91
        1
 62
     0
 92
       -2
340
0
 93
        0
 40
0.045
309
GRIDFORMAT_END
309
TABLEFORMAT_END
  1
CELLSTYLE_BEGIN
 90
        2
 91
        1
300
_HEADER
309
CELLSTYLE_END
300
CELLSTYLE
  1
TABLEFORMAT_BEGIN
 90
        5
170
     1
 91
        0
 92
        0
 62
   257
 93
        1
300
CONTENTFORMAT
  1
CONTENTFORMAT_BEGIN
 90
        0
 91
        0
 92
      512
 93
        0
300

 40
0.0
140
1.0
 94
        2
 62
     0
340
11
144
0.18
309
CONTENTFORMAT_END
171
     0
 94
        6
 95
        1
302
GRIDFORMAT
  1
GRIDFORMAT_BEGIN
 90
        0
 91
        1
 62
     0
 92
       -2
340
0
 93
        0
 40
0.045
309
GRIDFORMAT_END
 95
        2
302
GRIDFORMAT
  1
GRIDFORMAT_BEGIN
 90
        0
 91
        1
 62
     0
 92
       -2
340
0
 93
        0
 40
0.045
309
GRIDFORMAT_END
 95
        4
302
GRIDFORMAT
  1
GRIDFORMAT_BEGIN
 90
        0
 91
        1
 62
     0
 92
       -2
340
0
 93
        0
 40
0.045
309
GRIDFORMAT_END
 95
        8
302
GRIDFORMAT
  1
GRIDFORMAT_BEGIN
 90
        0
 91
        1
 62
     0
 92
       -2
340
0
 93
        0
 40
0.045
309
GRIDFORMAT_END
 95
       16
302
GRIDFORMAT
  1
GRIDFORMAT_BEGIN
 90
        0
 91
        1
 62
     0
 92
       -2
340
0
 93
        0
 40
0.045
309
GRIDFORMAT_END
 95
       32
302
GRIDFORMAT
  1
GRIDFORMAT_BEGIN
 90
        0
 91
        1
 62
     0
 92
       -2
340
0
 93
        0
 40
0.045
309
GRIDFORMAT_END
309
TABLEFORMAT_END
  1
CELLSTYLE_BEGIN
 90
        3
 91
        2
300
_DATA
309
CELLSTYLE_END
  0
ENDSEC
  0
EOF
