  0
SECTION
  2
HEADER
  9
$ACADVER
  1
AC1021
  9
$ACADMAINTVER
 70
    50
  9
$DWGCODEPAGE
  3
ANSI_936
  9
$LASTSAVEDBY
  1
ko69185
  9
$CUSTOMPROPERTYTAG
  1
AmdtFileType
  9
$CUSTOMPROPERTY
  1
84
  9
$INSBASE
 10
0.0
 20
0.0
 30
0.0
  9
$EXTMIN
 10
16.00259144273759
 20
20.32440761330175
 30
0.0
  9
$EXTMAX
 10
30.23504372083697
 20
26.25437104912043
 30
0.0
  9
$LIMMIN
 10
0.0
 20
0.0
  9
$LIMMAX
 10
17.0
 20
11.0
  9
$ORTHOMODE
 70
     0
  9
$REGENMODE
 70
     1
  9
$FILLMODE
 70
     1
  9
$QTEXTMODE
 70
     0
  9
$MIRRTEXT
 70
     1
  9
$LTSCALE
 40
1.0
  9
$ATTMODE
 70
     1
  9
$TEXTSIZE
 40
0.2
  9
$TRACEWID
 40
0.05
  9
$TEXTSTYLE
  7
STANDARD
  9
$CLAYER
  8
0
  9
$CELTYPE
  6
ByLayer
  9
$CECOLOR
 62
   256
  9
$CELTSCALE
 40
1.0
  9
$DISPSILH
 70
     0
  9
$DIMSCALE
 40
1.0
  9
$DIMASZ
 40
0.12
  9
$DIMEXO
 40
0.05
  9
$DIMDLI
 40
0.5
  9
$DIMRND
 40
0.0
  9
$DIMDLE
 40
0.0
  9
$DIMEXE
 40
0.1
  9
$DIMTP
 40
0.1
  9
$DIMTM
 40
0.1
  9
$DIMTXT
 40
0.12
  9
$DIMCEN
 40
0.0
  9
$DIMTSZ
 40
0.0
  9
$DIMTOL
 70
     0
  9
$DIMLIM
 70
     0
  9
$DIMTIH
 70
     1
  9
$DIMTOH
 70
     1
  9
$DIMSE1
 70
     0
  9
$DIMSE2
 70
     0
  9
$DIMTAD
 70
     0
  9
$DIMZIN
 70
     7
  9
$DIMBLK
  1

  9
$DIMASO
 70
     1
  9
$DIMSHO
 70
     1
  9
$DIMPOST
  1

  9
$DIMAPOST
  1
mm
  9
$DIMALT
 70
     0
  9
$DIMALTD
 70
     2
  9
$DIMALTF
 40
25.4
  9
$DIMLFAC
 40
1.0
  9
$DIMTOFL
 70
     0
  9
$DIMTVP
 40
0.0
  9
$DIMTIX
 70
     0
  9
$DIMSOXD
 70
     0
  9
$DIMSAH
 70
     0
  9
$DIMBLK1
  1

  9
$DIMBLK2
  1

  9
$DIMSTYLE
  2
AM_ANSI
  9
$DIMCLRD
 70
   256
  9
$DIMCLRE
 70
   256
  9
$DIMCLRT
 70
   140
  9
$DIMTFAC
 40
0.71
  9
$DIMGAP
 40
0.06
  9
$DIMJUST
 70
     0
  9
$DIMSD1
 70
     0
  9
$DIMSD2
 70
     0
  9
$DIMTOLJ
 70
     1
  9
$DIMTZIN
 70
     7
  9
$DIMALTZ
 70
     0
  9
$DIMALTTZ
 70
     0
  9
$DIMUPT
 70
     0
  9
$DIMDEC
 70
     4
  9
$DIMTDEC
 70
     4
  9
$DIMALTU
 70
     2
  9
$DIMALTTD
 70
     4
  9
$DIMTXSTY
  7
STANDARD
  9
$DIMAUNIT
 70
     0
  9
$DIMADEC
 70
     0
  9
$DIMALTRND
 40
0.0
  9
$DIMAZIN
 70
     2
  9
$DIMDSEP
 70
    46
  9
$DIMATFIT
 70
     3
  9
$DIMFRAC
 70
     0
  9
$DIMLDRBLK
  1

  9
$DIMLUNIT
 70
     2
  9
$DIMLWD
 70
    -1
  9
$DIMLWE
 70
    -1
  9
$DIMTMOVE
 70
     0
  9
$DIMFXL
 40
1.0
  9
$DIMFXLON
 70
     0
  9
$DIMJOGANG
 40
0.7853981633974483
  9
$DIMTFILL
 70
     0
  9
$DIMTFILLCLR
 70
     0
  9
$DIMARCSYM
 70
     1
  9
$DIMLTYPE
  6
ByBlock
  9
$DIMLTEX1
  6
ByBlock
  9
$DIMLTEX2
  6
ByBlock
  9
$LUNITS
 70
     2
  9
$LUPREC
 70
     4
  9
$SKETCHINC
 40
0.1
  9
$FILLETRAD
 40
0.125
  9
$AUNITS
 70
     0
  9
$AUPREC
 70
     0
  9
$MENU
  1
.
  9
$ELEVATION
 40
0.0
  9
$PELEVATION
 40
0.0
  9
$THICKNESS
 40
0.0
  9
$LIMCHECK
 70
     0
  9
$CHAMFERA
 40
0.125
  9
$CHAMFERB
 40
0.125
  9
$CHAMFERC
 40
1.0
  9
$CHAMFERD
 40
0.0
  9
$SKPOLY
 70
     0
  9
$TDCREATE
 40
2455335.584189132
  9
$TDUCREATE
 40
2455335.250855799
  9
$TDUPDATE
 40
2455335.584782627
  9
$TDUUPDATE
 40
2455335.251449294
  9
$TDINDWG
 40
0.0005943981
  9
$TDUSRTIMER
 40
0.0005942130
  9
$USRTIMER
 70
     1
  9
$ANGBASE
 50
0.0
  9
$ANGDIR
 70
     0
  9
$PDMODE
 70
     0
  9
$PDSIZE
 40
0.0
  9
$PLINEWID
 40
0.0
  9
$SPLFRAME
 70
     0
  9
$SPLINETYPE
 70
     6
  9
$SPLINESEGS
 70
     8
  9
$HANDSEED
  5
5A6
  9
$SURFTAB1
 70
     6
  9
$SURFTAB2
 70
     6
  9
$SURFTYPE
 70
     6
  9
$SURFU
 70
     6
  9
$SURFV
 70
     6
  9
$UCSBASE
  2

  9
$UCSNAME
  2

  9
$UCSORG
 10
0.0
 20
0.0
 30
0.0
  9
$UCSXDIR
 10
1.0
 20
0.0
 30
0.0
  9
$UCSYDIR
 10
0.0
 20
1.0
 30
0.0
  9
$UCSORTHOREF
  2

  9
$UCSORTHOVIEW
 70
     0
  9
$UCSORGTOP
 10
0.0
 20
0.0
 30
0.0
  9
$UCSORGBOTTOM
 10
0.0
 20
0.0
 30
0.0
  9
$UCSORGLEFT
 10
0.0
 20
0.0
 30
0.0
  9
$UCSORGRIGHT
 10
0.0
 20
0.0
 30
0.0
  9
$UCSORGFRONT
 10
0.0
 20
0.0
 30
0.0
  9
$UCSORGBACK
 10
0.0
 20
0.0
 30
0.0
  9
$PUCSBASE
  2

  9
$PUCSNAME
  2

  9
$PUCSORG
 10
0.0
 20
0.0
 30
0.0
  9
$PUCSXDIR
 10
1.0
 20
0.0
 30
0.0
  9
$PUCSYDIR
 10
0.0
 20
1.0
 30
0.0
  9
$PUCSORTHOREF
  2

  9
$PUCSORTHOVIEW
 70
     0
  9
$PUCSORGTOP
 10
0.0
 20
0.0
 30
0.0
  9
$PUCSORGBOTTOM
 10
0.0
 20
0.0
 30
0.0
  9
$PUCSORGLEFT
 10
0.0
 20
0.0
 30
0.0
  9
$PUCSORGRIGHT
 10
0.0
 20
0.0
 30
0.0
  9
$PUCSORGFRONT
 10
0.0
 20
0.0
 30
0.0
  9
$PUCSORGBACK
 10
0.0
 20
0.0
 30
0.0
  9
$USERI1
 70
     0
  9
$USERI2
 70
     0
  9
$USERI3
 70
     0
  9
$USERI4
 70
     0
  9
$USERI5
 70
     0
  9
$USERR1
 40
0.0
  9
$USERR2
 40
0.0
  9
$USERR3
 40
0.0
  9
$USERR4
 40
0.0
  9
$USERR5
 40
0.0
  9
$WORLDVIEW
 70
     1
  9
$SHADEDGE
 70
     3
  9
$SHADEDIF
 70
    70
  9
$TILEMODE
 70
     1
  9
$MAXACTVP
 70
    64
  9
$PINSBASE
 10
0.0
 20
0.0
 30
0.0
  9
$PLIMCHECK
 70
     0
  9
$PEXTMIN
 10
1.000000000000000E+20
 20
1.000000000000000E+20
 30
1.000000000000000E+20
  9
$PEXTMAX
 10
-1.000000000000000E+20
 20
-1.000000000000000E+20
 30
-1.000000000000000E+20
  9
$PLIMMIN
 10
0.0
 20
0.0
  9
$PLIMMAX
 10
12.0
 20
9.0
  9
$UNITMODE
 70
     0
  9
$VISRETAIN
 70
     1
  9
$PLINEGEN
 70
     0
  9
$PSLTSCALE
 70
     1
  9
$TREEDEPTH
 70
  3020
  9
$CMLSTYLE
  2
Standard
  9
$CMLJUST
 70
     0
  9
$CMLSCALE
 40
1.0
  9
$PROXYGRAPHICS
 70
     1
  9
$MEASUREMENT
 70
     0
  9
$CELWEIGHT
370
    -1
  9
$ENDCAPS
280
     0
  9
$JOINSTYLE
280
     0
  9
$LWDISPLAY
290
     0
  9
$INSUNITS
 70
     1
  9
$HYPERLINKBASE
  1

  9
$STYLESHEET
  1

  9
$XEDIT
290
     1
  9
$CEPSNTYPE
380
     0
  9
$PSTYLEMODE
290
     1
  9
$FINGERPRINTGUID
  2
{8468FD0E-16A3-431B-BE70-EC8B2AEA5E5A}
  9
$VERSIONGUID
  2
{F634CB1B-E920-442B-B9F2-54BD33980A8F}
  9
$EXTNAMES
290
     1
  9
$PSVPSCALE
 40
0.0
  9
$OLESTARTUP
290
     0
  9
$SORTENTS
280
   127
  9
$INDEXCTL
280
     0
  9
$HIDETEXT
280
     0
  9
$XCLIPFRAME
290
     0
  9
$HALOGAP
280
     0
  9
$OBSCOLOR
 70
   257
  9
$OBSLTYPE
280
     0
  9
$INTERSECTIONDISPLAY
280
     0
  9
$INTERSECTIONCOLOR
 70
   257
  9
$DIMASSOC
280
     2
  9
$PROJECTNAME
  1

  9
$CAMERADISPLAY
290
     0
  9
$LENSLENGTH
 40
50.0
  9
$CAMERAHEIGHT
 40
0.0
  9
$STEPSPERSEC
 40
2.0
  9
$STEPSIZE
 40
6.0
  9
$3DDWFPREC
 40
2.0
  9
$PSOLWIDTH
 40
0.25
  9
$PSOLHEIGHT
 40
4.0
  9
$LOFTANG1
 40
1.570796326794896
  9
$LOFTANG2
 40
1.570796326794896
  9
$LOFTMAG1
 40
0.0
  9
$LOFTMAG2
 40
0.0
  9
$LOFTPARAM
 70
     7
  9
$LOFTNORMALS
280
     1
  9
$LATITUDE
 40
37.795
  9
$LONGITUDE
 40
-122.394
  9
$NORTHDIRECTION
 40
0.0
  9
$TIMEZONE
 70
 -8000
  9
$LIGHTGLYPHDISPLAY
280
     1
  9
$TILEMODELIGHTSYNCH
280
     1
  9
$CMATERIAL
347
293
  9
$SOLIDHIST
280
     1
  9
$SHOWHIST
280
     1
  9
$DWFFRAME
280
     2
  9
$DGNFRAME
280
     0
  9
$REALWORLDSCALE
290
     1
  9
$INTERFERECOLOR
 62
     1
  9
$INTERFEREOBJVS
345
2A0
  9
$INTERFEREVPVS
346
29D
  9
$CSHADOW
280
     0
  9
$SHADOWPLANELOCATION
 40
0.0
  0
ENDSEC
  0
SECTION
  2
CLASSES
  0
CLASS
  1
ACDBDICTIONARYWDFLT
  2
AcDbDictionaryWithDefault
  3
ObjectDBX Classes
 90
        0
 91
        1
280
     0
281
     0
  0
CLASS
  1
ACME_DOCUMENT
  2
AcMeDbDoc
  3
AcMeServices
 90
     1024
 91
        2
280
     0
281
     0
  0
CLASS
  1
AMGSETTINGSOBJ
  2
AmgSettingsObj
  3
"AcadM|Product Description: AutoCAD Mechanical|Company: Autodesk, Inc."
 90
     1024
 91
        4
280
     0
281
     0
  0
CLASS
  1
ACMESCOPE
  2
AcMeScope
  3
AcMeServices
 90
     1024
 91
        1
280
     0
281
     0
  0
CLASS
  1
ACMECOMMANDHISTORY
  2
AcMeCommandHistory
  3
AcMeServices
 90
     1024
 91
        1
280
     0
281
     0
  0
CLASS
  1
ACIMSYSVARMAN
  2
AcImSysVarManager
  3
AcMeServices
 90
     1024
 91
        5
280
     0
281
     0
  0
CLASS
  1
ACIMREALSYSVAR
  2
AcImRealSysVar
  3
AcMeServices
 90
     1024
 91
        3
280
     0
281
     0
  0
CLASS
  1
ACIMINTSYSVAR
  2
AcImIntSysVar
  3
AcMeServices
 90
     1024
 91
       27
280
     0
281
     0
  0
CLASS
  1
ACMEDRAWINGMAN
  2
AcMeDrawingMan
  3
AcMeServices
 90
     1024
 91
        1
280
     0
281
     0
  0
CLASS
  1
ACMEVIEW
  2
AcMeView
  3
AcMeServices
 90
     1024
 91
        1
280
     0
281
     0
  0
CLASS
  1
ACDBENTITYCACHE
  2
AcMeEntityCache
  3
AcMeServices
 90
     1024
 91
        1
280
     0
281
     0
  0
CLASS
  1
GSMANAGER
  2
AcMeGSManager
  3
AcMeServices
 90
     1024
 91
        1
280
     0
281
     0
  0
CLASS
  1
AMDTINTERNALREACTOR
  2
AmdtInternalReactor
  3
AcMeServices
 90
     1024
 91
        2
280
     0
281
     0
  0
CLASS
  1
ACMESTATEMGR
  2
AcMeStateMgr
  3
AcMeServices
 90
     1024
 91
        1
280
     0
281
     0
  0
CLASS
  1
ACGREFMASTER
  2
AcGrefMaster
  3
AcAttribServices
 90
     1024
 91
        1
280
     0
281
     0
  0
CLASS
  1
ACME_DATABASE
  2
AcMeDbDatabase
  3
AcMeServices
 90
     1024
 91
        3
280
     0
281
     0
  0
CLASS
  1
ACRFINSADJUSTERMGR
  2
AcRfInsAdjusterMgr
  3
AcMeServices
 90
     1024
 91
        1
280
     0
281
     0
  0
CLASS
  1
ACGREFACADMASTER
  2
AcGrefacadMaster
  3
AcGrefServices
 90
     1024
 91
        1
280
     0
281
     0
  0
CLASS
  1
AMIMASTER
  2
AmiMaster
  3
AmiServices
 90
     1024
 91
        1
280
     0
281
     0
  0
CLASS
  1
ACMDATADICTIONARY
  2
AcmDataDictionary
  3
"AcmSymBB|Product Description: AutoCAD Mechanical|Company: Autodesk, Inc."
 90
     1024
 91
        1
280
     0
281
     0
  0
CLASS
  1
ACMDATAENTRYBLOCK
  2
AcmDataEntryBlock
  3
AcmSymBB|Product Description: AutoCAD Mechanical|Company: Autodesk, Inc.
 90
     1024
 91
        1
280
     0
281
     0
  0
CLASS
  1
ACIMSTRSYSVAR
  2
AcImStrSysVar
  3
AcMeServices
 90
     1024
 91
        5
280
     0
281
     0
  0
CLASS
  1
ACMSTANDARDANSI
  2
AcmStandardANSI
  3
"Amdt_StdImp|Product Description: AutoCAD Mechanical|Company: Autodesk, Inc."
 90
     1024
 91
        1
280
     0
281
     0
  0
CLASS
  1
AMGOBJPROPCFG
  2
AmgObjPropCfg
  3
"AmgLay|Product Description: AutoCAD Mechanical|Company: Autodesk, Inc."
 90
     1025
 91
        1
280
     0
281
     0
  0
CLASS
  1
ACMSURFSTANDARDANSI
  2
AcmSurfTextStdANSI
  3
"Amdt_StdImp|Product Description: AutoCAD Mechanical|Company: Autodesk, Inc."
 90
     1024
 91
        1
280
     0
281
     0
  0
CLASS
  1
ACMFCFSTANDARDANSI
  2
AcmFCFStdANSI
  3
"Amdt_StdImp|Product Description: AutoCAD Mechanical|Company: Autodesk, Inc."
 90
     1024
 91
        1
280
     0
281
     0
  0
CLASS
  1
ACMWELDSTANDARDANSI
  2
AcmWeldingStdANSI
  3
"Amdt_StdImp|Product Description: AutoCAD Mechanical|Company: Autodesk, Inc."
 90
     1024
 91
        1
280
     0
281
     0
  0
CLASS
  1
ACMIDSTANDARDANSI
  2
AcmIdStdANSI
  3
"Amdt_StdImp|Product Description: AutoCAD Mechanical|Company: Autodesk, Inc."
 90
     1024
 91
        1
280
     0
281
     0
  0
CLASS
  1
ACMDATUMSTANDARDANSI
  2
AcmDatumStdANSI
  3
"Amdt_StdImp|Product Description: AutoCAD Mechanical|Company: Autodesk, Inc."
 90
     1024
 91
        1
280
     0
281
     0
  0
CLASS
  1
ACMBOMSTANDARDANSI
  2
AcmBOMStdANSI
  3
"Amdt_StdImp|Product Description: AutoCAD Mechanical|Company: Autodesk, Inc."
 90
     1024
 91
        1
280
     0
281
     0
  0
CLASS
  1
ACMDETAILSTANDARDANSI
  2
AmdtDetailSymStdANSI
  3
"Amdt_StdImp|Product Description: AutoCAD Mechanical|Company: Autodesk, Inc."
 90
     1024
 91
        1
280
     0
281
     0
  0
CLASS
  1
ACMSECTIONSTANDARDANSI
  2
AmdtSectionSymStdANSI
  3
"Amdt_StdImp|Product Description: AutoCAD Mechanical|Company: Autodesk, Inc."
 90
     1024
 91
        1
280
     0
281
     0
  0
CLASS
  1
ACMCENTERLINESTANDARDANSI
  2
AmdtCenterLineStdANSI
  3
"Amdt_StdImp|Product Description: AutoCAD Mechanical|Company: Autodesk, Inc."
 90
     1024
 91
        1
280
     0
281
     0
  0
CLASS
  1
ACMNOTESTANDARDANSI
  2
AmdtNoteStdANSI
  3
"Amdt_StdImp|Product Description: AutoCAD Mechanical|Company: Autodesk, Inc."
 90
     1024
 91
        1
280
     0
281
     0
  0
CLASS
  1
ACAMGLAYSTD
  2
AcAmgLayStd
  3
"AmgLay|Product Description: AutoCAD Mechanical|Company: Autodesk, Inc."
 90
     1024
 91
        1
280
     0
281
     0
  0
CLASS
  1
ACAMGDIMSTD
  2
AcAmgDimStd
  3
"AmgDim|Product Description: AutoCAD Mechanical|Company: Autodesk, Inc."
 90
     1024
 91
        1
280
     0
281
     0
  0
CLASS
  1
ACAMGHOLECHARTSTDANSI
  2
AcAmgHoleChartStdANSI
  3
AmgDim|Product Description: AutoCAD Mechanical|Company: Autodesk, Inc.
 90
     1024
 91
        1
280
     0
281
     0
  0
CLASS
  1
ACAMGTITLESTD
  2
AcAmgTitleStd
  3
"AmgTitle|Product Description: AutoCAD Mechanical|Company: Autodesk, Inc."
 90
     4095
 91
        1
280
     0
281
     0
  0
CLASS
  1
LAYER_INDEX
  2
AcDbLayerIndex
  3
ObjectDBX Classes
 90
        0
 91
        0
280
     0
281
     0
  0
CLASS
  1
IDBUFFER
  2
AcDbIdBuffer
  3
ObjectDBX Classes
 90
        0
 91
        0
280
     0
281
     0
  0
CLASS
  1
DICTIONARYVAR
  2
AcDbDictionaryVar
  3
ObjectDBX Classes
 90
        0
 91
        9
280
     0
281
     0
  0
CLASS
  1
AM_DRAWING_MGR
  2
AcDmDwgMgr
  3
AcMechDwgViewMgmt
 90
     1024
 91
        1
280
     0
281
     0
  0
CLASS
  1
AM_DWG_DOCUMENT
  2
AcDmDwgDocument
  3
AcMechDwgViewMgmt
 90
     1024
 91
        1
280
     0
281
     0
  0
CLASS
  1
AM_DWG_SHEET
  2
AcDmSheet
  3
AcMechDwgViewMgmt
 90
     1024
 91
        2
280
     0
281
     0
  0
CLASS
  1
AM_VIEWDIMPARMAP
  2
AcDmViewDimParMap
  3
AcMechDwgViewMgmt
 90
     1024
 91
        2
280
     0
281
     0
  0
CLASS
  1
AM_DWGMGR_NAME
  2
AcDmDwgMgrName
  3
AcMechDwgViewMgmt
 90
     1024
 91
        1
280
     0
281
     0
  0
CLASS
  1
AMDTMENUSTATEMGR
  2
AmdtMenuStateMgr
  3
McadcomServices
 90
     1024
 91
        1
280
     0
281
     0
  0
CLASS
  1
AMDTMCOMMENUSTATE
  2
AmdtMcomMenuState
  3
McadcomServices
 90
     1024
 91
        1
280
     0
281
     0
  0
CLASS
  1
MAPIAMMOUDLE
  2
MApiAmModule
  3
MApiAmServices
 90
     1024
 91
        1
280
     0
281
     0
  0
CLASS
  1
AMDTADMENUSTATE
  2
AmdtAdMenuState
  3
DesignerServices
 90
     1024
 91
        1
280
     0
281
     0
  0
CLASS
  1
ADAPPL
  2
AcAdAppl
  3
DesignerServices
 90
     1024
 91
        1
280
     0
281
     0
  0
CLASS
  1
DEPMGR
  2
AcAdDepMgr
  3
DesignerServices
 90
     1024
 91
        1
280
     0
281
     0
  0
CLASS
  1
PARAMMGR
  2
AcAdParamMgr
  3
DesignerServices
 90
     1024
 91
        1
280
     0
281
     0
  0
CLASS
  1
PARAMSCOPE
  2
AcAdParamScope
  3
DesignerServices
 90
     1024
 91
        1
280
     0
281
     0
  0
CLASS
  1
NAMEDAPPL
  2
AcAdNamedAppl
  3
DesignerServices
 90
     1024
 91
        1
280
     0
281
     0
  0
CLASS
  1
AMDTDMMENUSTATE
  2
AmdtDmMenuState
  3
AcMechDwgViewMgmt
 90
     1024
 91
        1
280
     0
281
     0
  0
CLASS
  1
AMDTAMMENUSTATE
  2
AmdtAmMenuState
  3
DesignerAssemblies
 90
     1024
 91
        1
280
     0
281
     0
  0
CLASS
  1
ACAMPROJECT
  2
AcAmProject
  3
DesignerAssemblies
 90
     1024
 91
        1
280
     0
281
     0
  0
CLASS
  1
ACAMGRCOMPDEF
  2
AcAmGrCompDef
  3
DesignerAssemblies
 90
     1024
 91
        1
280
     0
281
     0
  0
CLASS
  1
ACCMCONTEXT
  2
AcCmContext
  3
DesignerAssemblies
 90
     1024
 91
        1
280
     0
281
     0
  0
CLASS
  1
ACAMCOMPDEF
  2
AcAmCompDef
  3
DesignerAssemblies
 90
     1024
 91
        1
280
     0
281
     0
  0
CLASS
  1
ACAMCOMPDEFMGR
  2
AcAmCompDefMgr
  3
DesignerAssemblies
 90
     1024
 91
        1
280
     0
281
     0
  0
CLASS
  1
AMCONTEXTMGR
  2
AcAmContextMgr
  3
DesignerAssemblies
 90
     1024
 91
        1
280
     0
281
     0
  0
CLASS
  1
ACAMCONTEXTMODELER
  2
AcAmContextModeler
  3
DesignerAssemblies
 90
     1024
 91
        1
280
     0
281
     0
  0
CLASS
  1
ACMTHREADLINESTANDARDANSI
  2
AmdtThreadLineStdANSI
  3
"Amdt_StdImp|Product Description: AutoCAD Mechanical|Company: Autodesk, Inc."
 90
     1024
 91
        1
280
     0
281
     0
  0
CLASS
  1
CATALOGSTATE
  2
AcAmCatalogState
  3
DesignerAssemblies
 90
     1024
 91
        1
280
     0
281
     0
  0
CLASS
  1
ACAMGRCOMPDEFSET
  2
AcAmGrCompDefSet
  3
DesignerAssemblies
 90
     1024
 91
        1
280
     0
281
     0
  0
CLASS
  1
AMDTBROWSERDBTAB
  2
AmdtBrowserDbTab
  3
McadcomServices
 90
     1024
 91
        1
280
     0
281
     0
  0
CLASS
  1
CBROWSERAPPOBJECT
  2
CBrowserAppObject
  3
McadcomServices
 90
     1024
 91
        3
280
     0
281
     0
  0
CLASS
  1
DM_PLACEHOLDER
  2
AcDmSelsetPlaceholder
  3
AcMechDwgViewMgmt
 90
     1024
 91
        1
280
     0
281
     0
  0
CLASS
  1
TABLESTYLE
  2
AcDbTableStyle
  3
ObjectDBX Classes
 90
     4095
 91
        1
280
     0
281
     0
  0
CLASS
  1
AMDTNOTETEMPLATEDB
  2
AmdtNoteTemplateDB
  3
AcmSymBB|Product Description: AutoCAD Mechanical|Company: Autodesk, Inc.
 90
     1024
 91
        6
280
     0
281
     0
  0
CLASS
  1
MATERIAL
  2
AcDbMaterial
  3
ObjectDBX Classes
 90
     1153
 91
        3
280
     0
281
     0
  0
CLASS
  1
VISUALSTYLE
  2
AcDbVisualStyle
  3
ObjectDBX Classes
 90
     4095
 91
       16
280
     0
281
     0
  0
CLASS
  1
ACRFATTGENMGR
  2
AcRfAttGeneralMgr
  3
AcAttribServices
 90
     1024
 91
        1
280
     0
281
     0
  0
CLASS
  1
ACRFOBJATTMGR
  2
AcRfObjAttGroupMgr
  3
AcAttribServices
 90
     1024
 91
        1
280
     0
281
     0
  0
CLASS
  1
ACRFMCADAPIATTHOLDER
  2
AcRfMCADAPIAttHolder
  3
AcAttribServices
 90
     1024
 91
        1
280
     0
281
     0
  0
CLASS
  1
AMDTSYSATTR
  2
AmdtSystemAttribute
  3
AcAttribServices
 90
     1024
 91
        1
280
     0
281
     0
  0
CLASS
  1
ACMTAPERSTANDARDANSI
  2
AcmTaperStdANSI
  3
"Amdt_StdImp|Product Description: AutoCAD Mechanical|Company: Autodesk, Inc."
 90
     1024
 91
        1
280
     0
281
     0
  0
CLASS
  1
CAMSSTRUCTBTNSTATE
  2
StructBtnState
  3
DesignerAssemblies
 90
     1024
 91
        1
280
     0
281
     0
  0
CLASS
  1
SCALE
  2
AcDbScale
  3
ObjectDBX Classes
 90
     1153
 91
       33
280
     0
281
     0
  0
CLASS
  1
MLEADERSTYLE
  2
AcDbMLeaderStyle
  3
ACDB_MLEADERSTYLE_CLASS
 90
     4095
 91
        1
280
     0
281
     0
  0
CLASS
  1
ACMANOOTATIONVIEWSTANDARDANSI
  2
AmdtAnViewStdANSI
  3
"Amdt_StdImp|Product Description: AutoCAD Mechanical|Company: Autodesk, Inc."
 90
     1024
 91
        1
280
     0
281
     0
  0
CLASS
  1
CELLSTYLEMAP
  2
AcDbCellStyleMap
  3
ObjectDBX Classes
 90
     1152
 91
        2
280
     0
281
     0
  0
CLASS
  1
EXACXREFPANELOBJECT
  2
ExAcXREFPanelObject
  3
EXAC_ESW
 90
     1025
 91
        1
280
     0
281
     0
  0
CLASS
  1
NPOCOLLECTION
  2
AcDbImpNonPersistentObjectsCollection
  3
ObjectDBX Classes
 90
     1153
 91
        1
280
     0
281
     0
  0
CLASS
  1
ACAMGFILTERDAT
  2
AcAmgFilterDat
  3
"AcadM|Product Description: AutoCAD Mechanical|Company: Autodesk, Inc."
 90
     1024
 91
        6
280
     0
281
     0
  0
ENDSEC
  0
SECTION
  2
TABLES
  0
TABLE
  2
VPORT
  5
8
330
0
100
AcDbSymbolTable
 70
     1
  0
VPORT
  5
291
330
8
100
AcDbSymbolTableRecord
100
AcDbViewportTableRecord
  2
*Active
 70
     0
 10
0.0
 20
0.0
 11
1.0
 21
1.0
 12
22.98462437640588
 22
22.51690847401474
 13
0.0
 23
0.0
 14
0.125
 24
0.125
 15
1.0
 25
1.0
 16
0.0
 26
0.0
 36
1.0
 17
0.0
 27
0.0
 37
0.0
 40
10.88919176487067
 41
1.439655172413793
 42
50.0
 43
0.0
 44
0.0
 50
0.0
 51
0.0
 71
     0
 72
   100
 73
     1
 74
     3
 75
     0
 76
     0
 77
     0
 78
     0
281
     0
 65
     1
110
0.0
120
0.0
130
0.0
111
1.0
121
0.0
131
0.0
112
0.0
122
1.0
132
0.0
 79
     0
146
0.0
348
29C
 60
     3
 61
     5
292
     1
282
     0
141
0.0
142
0.0
 63
   250
421
  3355443
  0
ENDTAB
  0
TABLE
  2
LTYPE
  5
5
330
0
100
AcDbSymbolTable
 70
    16
  0
LTYPE
  5
14
330
5
100
AcDbSymbolTableRecord
100
AcDbLinetypeTableRecord
  2
ByBlock
 70
     0
  3

 72
    65
 73
     0
 40
0.0
  0
LTYPE
  5
15
330
5
100
AcDbSymbolTableRecord
100
AcDbLinetypeTableRecord
  2
ByLayer
 70
     0
  3

 72
    65
 73
     0
 40
0.0
  0
LTYPE
  5
16
330
5
100
AcDbSymbolTableRecord
100
AcDbLinetypeTableRecord
  2
Continuous
 70
     0
  3
Solid line
 72
    65
 73
     0
 40
0.0
  0
LTYPE
  5
6C
330
5
100
AcDbSymbolTableRecord
100
AcDbLinetypeTableRecord
  2
AM_ISO02W050
 70
     0
  3
__ __ __ __ __ __ __ __ __ __ __ __ __ __ __
 72
    65
 73
     2
 40
7.5
 49
6.0
 74
     0
 49
-1.5
 74
     0
  0
LTYPE
  5
6D
330
5
100
AcDbSymbolTableRecord
100
AcDbLinetypeTableRecord
  2
AM_ISO08W050
 70
     0
  3
____ . ____ . ____ . ____ . ____ . ____ . ____
 72
    65
 73
     4
 40
18.0
 49
12.0
 74
     0
 49
-1.5
 74
     0
 49
3.0
 74
     0
 49
-1.5
 74
     0
  0
LTYPE
  5
6E
330
5
100
AcDbSymbolTableRecord
100
AcDbLinetypeTableRecord
  2
AM_ISO09W050
 70
     0
  3
_____ . . _____ . . _____ . . ____ .. ____
 72
    65
 73
     6
 40
22.5
 49
12.0
 74
     0
 49
-1.5
 74
     0
 49
3.0
 74
     0
 49
-1.5
 74
     0
 49
3.0
 74
     0
 49
-1.5
 74
     0
  0
LTYPE
  5
6F
330
5
100
AcDbSymbolTableRecord
100
AcDbLinetypeTableRecord
  2
Amconstr
 70
     0
  3
_______________________
 72
    65
 73
     2
 40
9999.0
 49
9999.0
 74
     0
 49
0.0
 74
     0
  0
LTYPE
  5
70
330
5
100
AcDbSymbolTableRecord
100
AcDbLinetypeTableRecord
  2
AM_ISO08W050x2
 70
     0
  3
__ . __ . __ . __ . __ . __
 72
    65
 73
     4
 40
9.0
 49
6.0
 74
     0
 49
-0.75
 74
     0
 49
1.5
 74
     0
 49
-0.75
 74
     0
  0
LTYPE
  5
71
330
5
100
AcDbSymbolTableRecord
100
AcDbLinetypeTableRecord
  2
AM_ISO02W050x2
 70
     0
  3
 _ _ _ _ _ _ _ _ _ _ _ _
 72
    65
 73
     2
 40
3.75
 49
3.0
 74
     0
 49
-0.75
 74
     0
  0
LTYPE
  5
74
330
5
100
AcDbSymbolTableRecord
100
AcDbLinetypeTableRecord
  2
Amzigzag
 70
     0
  3
/\/-/\/-/\/-/\/-/\/-/\/
 72
    65
 73
     2
 40
11.0001
 49
0.0001
 74
     4
 75
   136
340
254
 46
0.04
 50
0.0
 44
0.0
 45
0.0
 49
-11.0
 74
     0
  0
LTYPE
  5
75
330
5
100
AcDbSymbolTableRecord
100
AcDbLinetypeTableRecord
  2
HIDDEN
 70
     0
  3
Hidden __ __ __ __ __ __ __ __ __ __ __ __ __ _
 72
    65
 73
     2
 40
0.375
 49
0.25
 74
     0
 49
-0.125
 74
     0
  0
LTYPE
  5
76
330
5
100
AcDbSymbolTableRecord
100
AcDbLinetypeTableRecord
  2
CENTER
 70
     0
  3
Center ____ _ ____ _ ____ _ ____ _ ____ _ ____
 72
    65
 73
     4
 40
2.0
 49
1.25
 74
     0
 49
-0.25
 74
     0
 49
0.25
 74
     0
 49
-0.25
 74
     0
  0
LTYPE
  5
77
330
5
100
AcDbSymbolTableRecord
100
AcDbLinetypeTableRecord
  2
PHANTOM2
 70
     0
  3
Phantom (.5x) ___ _ _ ___ _ _ ___ _ _ ___ _ _
 72
    65
 73
     6
 40
1.25
 49
0.625
 74
     0
 49
-0.125
 74
     0
 49
0.125
 74
     0
 49
-0.125
 74
     0
 49
0.125
 74
     0
 49
-0.125
 74
     0
  0
LTYPE
  5
78
330
5
100
AcDbSymbolTableRecord
100
AcDbLinetypeTableRecord
  2
CENTER2
 70
     0
  3
Center (.5x) ___ _ ___ _ ___ _ ___ _ ___ _ ___
 72
    65
 73
     4
 40
1.125
 49
0.75
 74
     0
 49
-0.125
 74
     0
 49
0.125
 74
     0
 49
-0.125
 74
     0
  0
LTYPE
  5
79
330
5
100
AcDbSymbolTableRecord
100
AcDbLinetypeTableRecord
  2
HIDDEN2
 70
     0
  3
Hidden (.5x) _ _ _ _ _ _ _ _ _ _ _ _ _ _ _ _ _
 72
    65
 73
     2
 40
0.1875
 49
0.125
 74
     0
 49
-0.0625
 74
     0
  0
LTYPE
  5
7A
330
5
100
AcDbSymbolTableRecord
100
AcDbLinetypeTableRecord
  2
Amzigzag2
 70
     0
  3
/\/-/\/-/\/-/\/-/\/-/\/
 72
    65
 73
     2
 40
0.4401
 49
0.0001
 74
     4
 75
   136
340
254
 46
0.0016
 50
0.0
 44
0.0
 45
0.0
 49
-0.4400000000000001
 74
     0
  0
LTYPE
  5
87
330
5
100
AcDbSymbolTableRecord
100
AcDbLinetypeTableRecord
  2
ACANSTGB
 70
     0
  3
__ . . __ . .
 72
    65
 73
     6
 40
0.35433070866
 49
0.15748031496
 74
     0
 49
-0.03937007874
 74
     0
 49
0.03937007874
 74
     0
 49
-0.03937007874
 74
     0
 49
0.03937007874
 74
     0
 49
-0.03937007874
 74
     0
  0
LTYPE
  5
88
330
5
100
AcDbSymbolTableRecord
100
AcDbLinetypeTableRecord
  2
ACANSTGL
 70
     0
  3
_ _ _ _ _
 72
    65
 73
     2
 40
0.11811023622
 49
0.07874015748
 74
     0
 49
-0.03937007874
 74
     0
  0
ENDTAB
  0
TABLE
  2
LAYER
  5
2
330
0
100
AcDbSymbolTable
 70
     5
  0
LAYER
  5
10
102
{ACAD_XDICTIONARY
360
59D
102
}
330
2
100
AcDbSymbolTableRecord
100
AcDbLayerTableRecord
  2
0
 70
     0
 62
     7
  6
Continuous
370
    -3
390
F
347
295
  0
LAYER
  5
38C
102
{ACAD_XDICTIONARY
360
59F
102
}
330
2
100
AcDbSymbolTableRecord
100
AcDbLayerTableRecord
  2
_SURFACE
 70
     0
 62
     7
  6
Continuous
370
    -3
390
F
347
295
  0
LAYER
  5
4F2
102
{ACAD_XDICTIONARY
360
5A1
102
}
330
2
100
AcDbSymbolTableRecord
100
AcDbLayerTableRecord
  2
___NOTE
 70
     0
 62
     7
  6
Continuous
370
    -3
390
F
347
295
  0
LAYER
  5
4F3
102
{ACAD_XDICTIONARY
360
5A3
102
}
330
2
100
AcDbSymbolTableRecord
100
AcDbLayerTableRecord
  2
___SYMBOL
 70
     0
 62
     7
  6
Continuous
370
    -3
390
F
347
295
  0
LAYER
  5
58F
330
2
100
AcDbSymbolTableRecord
100
AcDbLayerTableRecord
  2
Defpoints
 70
     0
 62
     7
  6
Continuous
290
     0
370
    -3
390
F
347
295
  0
ENDTAB
  0
TABLE
  2
STYLE
  5
3
330
0
100
AcDbSymbolTable
 70
     9
  0
STYLE
  5
11
330
3
100
AcDbSymbolTableRecord
100
AcDbTextStyleTableRecord
  2
STANDARD
 70
     0
 40
0.0
 41
1.0
 50
0.0
 71
     0
 42
0.2
  3
ROMANS.SHX
  4

  0
STYLE
  5
73
330
3
100
AcDbSymbolTableRecord
100
AcDbTextStyleTableRecord
  2

 70
     1
 40
0.0
 41
1.0
 50
0.0
 71
     0
 42
0.2
  3
ltypeshp.shx
  4

  0
STYLE
  5
7B
330
3
100
AcDbSymbolTableRecord
100
AcDbTextStyleTableRecord
  2
ACANSTS
 70
     0
 40
1.0
 41
1.0
 50
0.0
 71
     0
 42
0.2
  3
romans.shx
  4

  0
STYLE
  5
86
330
3
100
AcDbSymbolTableRecord
100
AcDbTextStyleTableRecord
  2
ACANSGDT
 70
     0
 40
0.0
 41
1.0
 50
0.0
 71
     0
 42
0.2
  3
amgdt.shx
  4

  0
STYLE
  5
13F
330
3
100
AcDbSymbolTableRecord
100
AcDbTextStyleTableRecord
  2
USER1
 70
     0
 40
0.0
 41
1.0
 50
0.0
 71
     0
 42
0.2
  3
TXT.SHX
  4

  0
STYLE
  5
140
330
3
100
AcDbSymbolTableRecord
100
AcDbTextStyleTableRecord
  2
USER2
 70
     0
 40
0.0
 41
1.0
 50
0.0
 71
     0
 42
0.2
  3
SIMPLEX.SHX
  4

  0
STYLE
  5
141
330
3
100
AcDbSymbolTableRecord
100
AcDbTextStyleTableRecord
  2
USER3
 70
     0
 40
0.0
 41
1.0
 50
0.0
 71
     0
 42
0.2
  3
ITALIC.SHX
  4

  0
STYLE
  5
254
330
3
100
AcDbSymbolTableRecord
100
AcDbTextStyleTableRecord
  2

 70
     1
 40
0.0
 41
1.0
 50
0.0
 71
     0
 42
0.2
  3
genltshp.shx
  4

  0
STYLE
  5
4F4
330
3
100
AcDbSymbolTableRecord
100
AcDbTextStyleTableRecord
  2
TEXTSTYLE_1
 70
     0
 40
0.0
 41
0.8
 50
0.0
 71
     0
 42
0.2
  3
gdt
  4

  0
ENDTAB
  0
TABLE
  2
VIEW
  5
6
330
0
100
AcDbSymbolTable
 70
     0
  0
ENDTAB
  0
TABLE
  2
UCS
  5
7
330
0
100
AcDbSymbolTable
 70
     0
  0
ENDTAB
  0
TABLE
  2
APPID
  5
9
330
0
100
AcDbSymbolTable
 70
    11
  0
APPID
  5
12
330
9
100
AcDbSymbolTableRecord
100
AcDbRegAppTableRecord
  2
ACAD
 70
     0
  0
APPID
  5
4E
330
9
100
AcDbSymbolTableRecord
100
AcDbRegAppTableRecord
  2
MCAD_NO_VIS
 70
     0
  0
APPID
  5
4F
330
9
100
AcDbSymbolTableRecord
100
AcDbRegAppTableRecord
  2
ACAD_TEMP_GRAPHIC
 70
     0
  0
APPID
  5
60
330
9
100
AcDbSymbolTableRecord
100
AcDbRegAppTableRecord
  2
ACATTRIBSERVICES
 70
     0
  0
APPID
  5
F7
330
9
100
AcDbSymbolTableRecord
100
AcDbRegAppTableRecord
  2
AD_DRAW
 70
     0
  0
APPID
  5
115
330
9
100
AcDbSymbolTableRecord
100
AcDbRegAppTableRecord
  2
DESIGNERASSEMBLIES
 70
     0
  0
APPID
  5
11A
330
9
100
AcDbSymbolTableRecord
100
AcDbRegAppTableRecord
  2
ACADM_DIM_EDIT
 70
     0
  0
APPID
  5
11B
330
9
100
AcDbSymbolTableRecord
100
AcDbRegAppTableRecord
  2
AMDT_DM_ADJ
 70
     0
  0
APPID
  5
1D3
330
9
100
AcDbSymbolTableRecord
100
AcDbRegAppTableRecord
  2
ACAD_DSTYLE_DIMARC_LENGTH_SYMBOL
 70
     0
  0
APPID
  5
1D4
330
9
100
AcDbSymbolTableRecord
100
AcDbRegAppTableRecord
  2
ACAD_DSTYLE_DIMJOGGED_JOGANGLE_SYMBOL
 70
     0
  0
APPID
  5
2EE
330
9
100
AcDbSymbolTableRecord
100
AcDbRegAppTableRecord
  2
ACAD_MLEADERVER
 70
     0
  0
ENDTAB
  0
TABLE
  2
DIMSTYLE
  5
A
330
0
100
AcDbSymbolTable
 70
     8
100
AcDbDimStyleTable
 71
     1
340
8C
  0
DIMSTYLE
105
27
330
A
100
AcDbSymbolTableRecord
100
AcDbDimStyleTableRecord
  2
Standard
 70
     0
340
11
  0
DIMSTYLE
105
8C
102
{ACAD_REACTORS
330
6A
102
}
330
A
100
AcDbSymbolTableRecord
100
AcDbDimStyleTableRecord
  2
AM_ANSI
 70
     0
  4
mm
 41
0.12
 42
0.05
 43
0.5
 44
0.1
 47
0.1
 48
0.1
 78
     7
 79
     2
 90
     1
140
0.12
141
0.0
146
0.71
147
0.06
176
   256
177
   256
178
   140
274
     4
284
     7
340
11
345
14
346
14
347
14
371
    -1
372
    -1
1001
ACAD_DSTYLE_DIMJOGGED_JOGANGLE_SYMBOL
1070
   384
1040
0.7853981633974483
  0
DIMSTYLE
105
8D
330
A
100
AcDbSymbolTableRecord
100
AcDbDimStyleTableRecord
  2
AM_ANSI$3
 70
     0
  4
mm
 41
0.12
 42
0.05
 43
0.5
 44
0.1
 47
0.1
 48
0.1
 78
     7
 79
     2
 90
     1
140
0.12
141
0.0
146
0.71
147
0.06
176
   256
177
   256
178
   140
274
     4
284
     7
288
     1
289
     0
340
11
345
14
346
14
347
14
371
    -1
372
    -1
1001
ACAD_DSTYLE_DIMJOGGED_JOGANGLE_SYMBOL
1070
   384
1040
0.7853981633974483
  0
DIMSTYLE
105
8E
330
A
100
AcDbSymbolTableRecord
100
AcDbDimStyleTableRecord
  2
AM_ANSI$4
 70
     0
  4
mm
 41
0.12
 42
0.05
 43
0.5
 44
0.1
 47
0.1
 48
0.1
 78
     7
 79
     2
 90
     1
140
0.12
141
0.0
146
0.71
147
0.06
176
   256
177
   256
178
   140
274
     4
284
     7
340
11
345
14
346
14
347
14
371
    -1
372
    -1
1001
ACAD_DSTYLE_DIMJOGGED_JOGANGLE_SYMBOL
1070
   384
1040
0.7853981633974483
  0
DIMSTYLE
105
8F
330
A
100
AcDbSymbolTableRecord
100
AcDbDimStyleTableRecord
  2
AM_ANSI$7
 70
     0
  4
mm
 41
0.12
 42
0.05
 43
0.5
 44
0.1
 47
0.1
 48
0.1
 78
     7
 79
     2
 90
     1
140
0.12
141
0.0
146
0.71
147
0.06
176
   256
177
   256
178
   140
274
     4
284
     7
340
11
345
14
346
14
347
14
371
    -1
372
    -1
1001
ACAD_DSTYLE_DIMJOGGED_JOGANGLE_SYMBOL
1070
   384
1040
0.7853981633974483
  0
DIMSTYLE
105
90
330
A
100
AcDbSymbolTableRecord
100
AcDbDimStyleTableRecord
  2
AM_ANSI$SF
 70
     0
  4
mm
 41
0.12
 42
0.05
 43
0.5
 44
0.1
 47
0.1
 48
0.1
 75
     1
 76
     1
 78
     7
 79
     2
 90
     1
140
0.12
141
0.0
146
0.71
147
0.06
176
   256
177
   256
178
   140
274
     4
284
     7
340
11
345
14
346
14
347
14
371
    -1
372
    -1
1001
ACAD_DSTYLE_DIMJOGGED_JOGANGLE_SYMBOL
1070
   384
1040
0.7853981633974483
  0
DIMSTYLE
105
95
330
A
100
AcDbSymbolTableRecord
100
AcDbDimStyleTableRecord
  2
AM_ANSI$SH
 70
     0
  4
mm
 41
0.12
 42
0.05
 43
0.5
 44
0.1
 47
0.1
 48
0.1
 75
     1
 76
     1
 78
     7
 79
     2
 90
     1
140
0.12
141
0.0
146
0.71
147
0.06
173
     1
176
   256
177
   256
178
   140
274
     4
284
     7
340
11
343
91
345
14
346
14
347
14
371
    -1
372
    -1
1001
ACAD_DSTYLE_DIMJOGGED_JOGANGLE_SYMBOL
1070
   384
1040
0.7853981633974483
  0
DIMSTYLE
105
4F5
102
{ACAD_REACTORS
330
4F7
102
}
330
A
100
AcDbSymbolTableRecord
100
AcDbDimStyleTableRecord
  2
DIMSTYLE_3
 70
     0
 41
0.1875
 47
5.0
 48
5.0
 71
     1
 78
     4
140
0.15625
144
5.0
271
     3
272
     3
284
     4
340
11
341
4D9
342
4D9
343
4D9
344
4D9
  0
ENDTAB
  0
TABLE
  2
BLOCK_RECORD
  5
1
330
0
100
AcDbSymbolTable
 70
     9
  0
BLOCK_RECORD
  5
1F
102
{ACAD_XDICTIONARY
360
99
102
}
330
1
100
AcDbSymbolTableRecord
100
AcDbBlockTableRecord
  2
*Model_Space
340
22
 70
     0
280
     1
281
     0
  0
BLOCK_RECORD
  5
1B
330
1
100
AcDbSymbolTableRecord
100
AcDbBlockTableRecord
  2
*Paper_Space
340
1E
 70
     0
280
     1
281
     0
  0
BLOCK_RECORD
  5
23
330
1
100
AcDbSymbolTableRecord
100
AcDbBlockTableRecord
  2
*Paper_Space0
340
26
 70
     0
280
     1
281
     0
  0
BLOCK_RECORD
  5
91
330
1
100
AcDbSymbolTableRecord
100
AcDbBlockTableRecord
  2
GENAXEH
340
0
 70
     0
280
     1
281
     0
  0
BLOCK_RECORD
  5
4D9
330
1
100
AcDbSymbolTableRecord
100
AcDbBlockTableRecord
  2
_FILLED
340
0
102
{BLKREFS
331
4E6
331
4E7
331
597
331
598
102
}
 70
     0
280
     1
281
     0
  0
BLOCK_RECORD
  5
4DD
330
1
100
AcDbSymbolTableRecord
100
AcDbBlockTableRecord
  2
*D5
340
0
 70
     0
280
     1
281
     0
  0
BLOCK_RECORD
  5
4E9
330
1
100
AcDbSymbolTableRecord
100
AcDbBlockTableRecord
  2
CHARACTERISTIC_BL7
340
0
102
{BLKREFS
331
4FA
102
}
 70
     0
280
     1
281
     0
  0
BLOCK_RECORD
  5
590
330
1
100
AcDbSymbolTableRecord
100
AcDbBlockTableRecord
  2
*D8
340
0
 70
     0
280
     1
281
     0
  0
ENDTAB
  0
ENDSEC
  0
SECTION
  2
BLOCKS
  0
BLOCK
  5
20
330
1F
100
AcDbEntity
  8
0
100
AcDbBlockBegin
  2
*Model_Space
 70
     0
 10
0.0
 20
0.0
 30
0.0
  3
*Model_Space
  1

  0
ENDBLK
  5
21
330
1F
100
AcDbEntity
  8
0
100
AcDbBlockEnd
  0
BLOCK
  5
1C
330
1B
100
AcDbEntity
 67
     1
  8
0
100
AcDbBlockBegin
  2
*Paper_Space
 70
     0
 10
0.0
 20
0.0
 30
0.0
  3
*Paper_Space
  1

  0
ENDBLK
  5
1D
330
1B
100
AcDbEntity
 67
     1
  8
0
100
AcDbBlockEnd
  0
BLOCK
  5
24
330
23
100
AcDbEntity
 67
     1
  8
0
100
AcDbBlockBegin
  2
*Paper_Space0
 70
     0
 10
0.0
 20
0.0
 30
0.0
  3
*Paper_Space0
  1

  0
ENDBLK
  5
25
330
23
100
AcDbEntity
 67
     1
  8
0
100
AcDbBlockEnd
  0
BLOCK
  5
93
330
91
100
AcDbEntity
  8
0
100
AcDbBlockBegin
  2
GENAXEH
 70
     0
 10
0.0
 20
0.0
 30
0.0
  3
GENAXEH
  1

  0
LINE
  5
92
330
91
100
AcDbEntity
  8
0
100
AcDbLine
 10
-1.0
 20
0.0
 30
0.0
 11
1.0
 21
0.0
 31
0.0
  0
ENDBLK
  5
94
330
91
100
AcDbEntity
  8
0
100
AcDbBlockEnd
  0
BLOCK
  5
4DA
330
4D9
100
AcDbEntity
  8
0
100
AcDbBlockBegin
  2
_FILLED
 70
     0
 10
0.0
 20
0.0
 30
0.0
  3
_FILLED
  1

  0
SOLID
  5
4DB
330
4D9
100
AcDbEntity
  8
0
  6
ByBlock
 62
     0
100
AcDbTrace
 10
0.0
 20
0.0
 30
0.0
 11
-1.0
 21
0.1666666667
 31
0.0
 12
-1.0
 22
-0.1666666667
 32
0.0
 13
-1.0
 23
-0.1666666667
 33
0.0
  0
ENDBLK
  5
4DC
330
4D9
100
AcDbEntity
  8
0
  6
ByBlock
 62
     0
100
AcDbBlockEnd
  0
BLOCK
  5
4DE
330
4DD
100
AcDbEntity
  8
0
  6
Continuous
 62
     2
100
AcDbBlockBegin
  2
*D5
 70
     1
 10
0.0
 20
0.0
 30
0.0
  3
*D5
  1

  0
TEXT
  5
4DF
330
4DD
100
AcDbEntity
  8
0
  6
Continuous
 62
     2
100
AcDbText
 10
28.03091847722857
 20
9.822976220199999
 30
0.0
 40
0.15625
  1
762
 41
0.8
 72
     1
 11
28.2094899058
 21
9.822976220199999
 31
0.0
100
AcDbText
  0
TEXT
  5
4E0
330
4DD
100
AcDbEntity
  8
0
  6
Continuous
 62
     2
100
AcDbText
 10
28.42117145338571
 20
9.822976220199999
 30
0.0
 40
0.15625
  1
`
  7
TEXTSTYLE_1
 72
     1
 11
28.4881357391
 21
9.822976220199999
 31
0.0
100
AcDbText
  0
TEXT
  5
4E1
330
4DD
100
AcDbEntity
  8
0
  6
Continuous
 62
     2
100
AcDbText
 10
28.58225776287619
 20
9.822976220199999
 30
0.0
 40
0.15625
  1
5
 41
0.8
 72
     1
 11
28.6417815724
 21
9.822976220199999
 31
0.0
100
AcDbText
  0
LINE
  5
4E2
330
4DD
100
AcDbEntity
  8
0
  6
Continuous
 62
     2
100
AcDbLine
 10
31.3631357391
 20
8.7595804372
 30
0.0
 11
31.3631357391
 21
10.0261012202
 31
0.0
  0
LINE
  5
4E3
330
4DD
100
AcDbEntity
  8
0
  6
Continuous
 62
     2
100
AcDbLine
 10
25.3631357391
 20
8.7595804372
 30
0.0
 11
25.3631357391
 21
10.0261012202
 31
0.0
  0
LINE
  5
4E4
330
4DD
100
AcDbEntity
  8
0
  6
Continuous
 62
     2
100
AcDbLine
 10
31.3631357391
 20
9.901101220199999
 30
0.0
 11
28.7824065724
 21
9.901101220199999
 31
0.0
  0
LINE
  5
4E5
330
4DD
100
AcDbEntity
  8
0
  6
Continuous
 62
     2
100
AcDbLine
 10
25.3631357391
 20
9.901101220199999
 30
0.0
 11
27.9438649058
 21
9.901101220199999
 31
0.0
  0
INSERT
  5
4E6
330
4DD
100
AcDbEntity
  8
0
  6
Continuous
 62
     2
100
AcDbBlockReference
  2
_FILLED
 10
31.3631357391
 20
9.901101220199999
 30
0.0
 41
0.1875
 42
0.1875
 43
0.1875
  0
INSERT
  5
4E7
330
4DD
100
AcDbEntity
  8
0
  6
Continuous
 62
     2
100
AcDbBlockReference
  2
_FILLED
 10
25.3631357391
 20
9.901101220199999
 30
0.0
 41
0.1875
 42
0.1875
 43
0.1875
 50
180.0
  0
ENDBLK
  5
4E8
330
4DD
100
AcDbEntity
  8
0
  6
ByBlock
 62
     0
100
AcDbBlockEnd
  0
BLOCK
  5
4EA
330
4E9
100
AcDbEntity
  8
___SYMBOL
  6
Continuous
 62
     2
100
AcDbBlockBegin
  2
CHARACTERISTIC_BL7
 70
     0
 10
28.9104510603
 20
9.8865345248
 30
0.0
  3
CHARACTERISTIC_BL7
  1

  0
LINE
  5
4EB
330
4E9
100
AcDbEntity
  8
___SYMBOL
  6
Continuous
 62
     7
100
AcDbLine
 10
28.7754509747
 20
10.156534696
 30
0.0
 11
28.7754509747
 21
9.6165343535
 31
0.0
  0
LINE
  5
4EC
330
4E9
100
AcDbEntity
  8
___SYMBOL
  6
Continuous
 62
     7
100
AcDbLine
 10
28.7754509747
 20
9.6165343535
 30
0.0
 11
29.0454511459
 21
9.6165343535
 31
0.0
  0
LINE
  5
4ED
330
4E9
100
AcDbEntity
  8
___SYMBOL
  6
Continuous
 62
     7
100
AcDbLine
 10
28.7754509747
 20
9.8865345248
 30
0.0
 11
29.0454511459
 21
9.8865345248
 31
0.0
  0
LINE
  5
4EE
330
4E9
100
AcDbEntity
  8
___SYMBOL
  6
Continuous
 62
     7
100
AcDbLine
 10
28.7754509747
 20
10.156534696
 30
0.0
 11
29.0454511459
 21
10.156534696
 31
0.0
  0
LINE
  5
4EF
330
4E9
100
AcDbEntity
  8
___SYMBOL
  6
Continuous
 62
     7
100
AcDbLine
 10
29.0454511459
 20
9.6165343535
 30
0.0
 11
29.0454511459
 21
10.156534696
 31
0.0
  0
MTEXT
  5
4F0
330
4E9
100
AcDbEntity
  8
___SYMBOL
  6
Continuous
 62
     2
100
AcDbMText
 10
28.84514572530001
 20
10.1039381376
 30
0.0
 40
0.15625
 41
0.125
 46
0.0
 71
     1
 72
     1
  1
3
 73
     1
 44
0.9
  0
ENDBLK
  5
4F1
330
4E9
100
AcDbEntity
  8
0
  6
ByBlock
 62
     0
100
AcDbBlockEnd
  0
BLOCK
  5
591
330
590
100
AcDbEntity
  8
0
100
AcDbBlockBegin
  2
*D8
 70
     1
 10
0.0
 20
0.0
 30
0.0
  3
*D8
  1

  0
LINE
  5
593
330
590
100
AcDbEntity
  8
0
  6
Continuous
 62
     0
370
    -2
100
AcDbLine
 10
30.23504372083697
 20
24.91991679032043
 30
0.0
 11
30.23504372083697
 21
26.17893757332043
 31
0.0
  0
LINE
  5
594
330
590
100
AcDbEntity
  8
0
  6
Continuous
 62
     0
370
    -2
100
AcDbLine
 10
24.23504372083697
 20
24.91991679032043
 30
0.0
 11
24.23504372083697
 21
26.17893757332043
 31
0.0
  0
LINE
  5
595
330
590
100
AcDbEntity
  8
0
  6
Continuous
 62
     0
370
    -2
100
AcDbLine
 10
30.04754372083697
 20
25.99893757332043
 30
0.0
 11
28.01849610178935
 21
25.99893757332043
 31
0.0
  0
LINE
  5
596
330
590
100
AcDbEntity
  8
0
  6
Continuous
 62
     0
370
    -2
100
AcDbLine
 10
24.42254372083697
 20
25.99893757332043
 30
0.0
 11
26.20159133988459
 21
25.99893757332043
 31
0.0
  0
INSERT
  5
597
330
590
100
AcDbEntity
  8
0
  6
Continuous
 62
     0
370
    -2
100
AcDbBlockReference
  2
_FILLED
 10
30.23504372083697
 20
25.99893757332043
 30
0.0
 41
0.1875
 42
0.1875
 43
0.1875
  0
INSERT
  5
598
330
590
100
AcDbEntity
  8
0
  6
Continuous
 62
     0
370
    -2
100
AcDbBlockReference
  2
_FILLED
 10
24.23504372083697
 20
25.99893757332043
 30
0.0
 41
0.1875
 42
0.1875
 43
0.1875
 50
180.0
  0
MTEXT
  5
599
330
590
100
AcDbEntity
  8
0
  6
Continuous
 62
     0
100
AcDbMText
 10
27.11004372083697
 20
26.07706257332043
 30
0.0
 40
0.15625
 41
0.0
 46
0.0
 71
     2
 72
     1
  1
\A1;30.000±5.000
 73
     1
 44
1.0
  0
POINT
  5
59A
330
590
100
AcDbEntity
  8
Defpoints
  6
Continuous
 62
     0
100
AcDbPoint
 10
30.23504372083697
 20
24.85741679032043
 30
0.0
  0
POINT
  5
59B
330
590
100
AcDbEntity
  8
Defpoints
  6
Continuous
 62
     0
100
AcDbPoint
 10
24.23504372083697
 20
24.85741679032043
 30
0.0
  0
POINT
  5
59C
330
590
100
AcDbEntity
  8
Defpoints
  6
Continuous
 62
     0
100
AcDbPoint
 10
24.23504372083697
 20
25.99893757332043
 30
0.0
  0
ENDBLK
  5
592
330
590
100
AcDbEntity
  8
0
100
AcDbBlockEnd
  0
ENDSEC
  0
SECTION
  2
ENTITIES
  0
LINE
  5
438
330
1F
100
AcDbEntity
  8
0
  6
Continuous
 62
     7
100
AcDbLine
 10
16.00259144273759
 20
24.73385643220175
 30
0.0
 11
16.02037660893759
 21
25.07321762000175
 31
0.0
  0
LINE
  5
439
330
1F
100
AcDbEntity
  8
0
  6
Continuous
 62
     7
100
AcDbLine
 10
16.45479850253759
 20
20.60393183490175
 30
0.0
 11
16.33268729513759
 21
21.73832868390175
 31
0.0
  0
LINE
  5
43A
330
1F
100
AcDbEntity
  8
0
  6
Continuous
 62
     7
100
AcDbLine
 10
16.33268729263759
 20
21.73832870620175
 30
0.0
 11
16.33268843503759
 21
21.73831808920175
 31
0.0
  0
LINE
  5
43B
330
1F
100
AcDbEntity
  8
0
  6
Continuous
 62
     7
100
AcDbLine
 10
16.01051181083759
 20
24.73385646010175
 30
0.0
 11
16.33268728413759
 21
21.73832878610175
 31
0.0
  0
LINE
  5
43C
330
1F
100
AcDbEntity
  8
0
  6
Continuous
 62
     7
100
AcDbLine
 10
16.45479736013759
 20
20.60394245190175
 30
0.0
 11
16.45479850253759
 21
20.60393183490175
 31
0.0
  0
LINE
  5
43D
330
1F
100
AcDbEntity
  8
0
  6
Continuous
 62
     7
100
AcDbLine
 10
16.57223044253759
 20
20.49897293930175
 30
0.0
 11
16.45012037503759
 21
21.63335919370175
 31
0.0
  0
LINE
  5
43E
330
1F
100
AcDbEntity
  8
0
  6
Continuous
 62
     7
100
AcDbLine
 10
16.07541918173759
 20
25.12545107120175
 30
0.0
 11
16.07541918173759
 21
25.07321762000175
 31
0.0
  0
LINE
  5
43F
330
1F
100
AcDbEntity
  8
0
  6
Continuous
 62
     7
100
AcDbLine
 10
16.05763401543759
 20
24.73385643220175
 30
0.0
 11
16.07541918173759
 21
25.07321762000175
 31
0.0
  0
LINE
  5
440
330
1F
100
AcDbEntity
  8
0
  6
Continuous
 62
     7
100
AcDbLine
 10
16.47097940373759
 20
21.76386998770174
 30
0.0
 11
16.06664681553759
 21
24.73385645130175
 31
0.0
  0
LINE
  5
441
330
1F
100
AcDbEntity
  8
0
  6
Continuous
 62
     7
100
AcDbLine
 10
16.60349750583759
 20
20.74786797260175
 30
0.0
 11
16.60913182843759
 21
20.70609877330175
 31
0.0
  0
LWPOLYLINE
  5
442
330
1F
100
AcDbEntity
  8
0
  6
Continuous
 62
     7
100
AcDbPolyline
 90
      127
 70
     0
 43
0.0
 10
16.45479730583759
 20
20.60394297860175
 10
16.45497254373759
 20
20.60240774720175
 10
16.45530399573759
 20
20.59988966450175
 10
16.45569250373759
 20
20.59735977260175
 10
16.45613957863759
 20
20.59481714220175
 10
16.45664594273759
 20
20.59226553240175
 10
16.45721102283759
 20
20.58971328860175
 10
16.45783535783759
 20
20.58716183810175
 10
16.45851945373759
 20
20.58461263810174
 10
16.45926173083759
 20
20.58207391050175
 10
16.46006217413759
 20
20.57954702700175
 10
16.46092073493759
 20
20.57703336840175
 10
16.46183483213759
 20
20.57454090470175
 10
16.46280391233759
 20
20.57207084450174
 10
16.46382738793759
 20
20.56962439930175
 10
16.46490170383759
 20
20.56720918010175
 10
16.46602579693759
 20
20.56482615360175
 10
16.46719858863759
 20
20.56247625200175
 10
16.46841562503759
 20
20.56016658500174
 10
16.46967538193759
 20
20.55789781160175
 10
16.47097636553759
 20
20.55567048880174
 10
16.47231336153759
 20
20.55349105450175
 10
16.47368396993759
 20
20.55136054900175
 10
16.47508683473759
 20
20.54927832790175
 10
16.47651773893759
 20
20.54724783230175
 10
16.47797399243759
 20
20.54526988830175
 10
16.47945428343759
 20
20.54334340300175
 10
16.48095627553759
 20
20.54146867460175
 10
16.48247800813759
 20
20.53964547260175
 10
16.48401765863759
 20
20.53787339730175
 10
16.48557311553759
 20
20.53615236830175
 10
16.48714258973759
 20
20.53448192020175
 10
16.48872432163759
 20
20.53286156050175
 10
16.49031628103759
 20
20.53129105990175
 10
16.49191692353759
 20
20.52976969320175
 10
16.49352449983759
 20
20.52829694260175
 10
16.49513669813759
 20
20.52687276800175
 10
16.49675220573759
 20
20.52549621090175
 10
16.49836927793759
 20
20.52416670130175
 10
16.49998494153759
 20
20.52288461030175
 10
16.50159777403759
 20
20.52164899070175
 10
16.50320633563759
 20
20.52045892980175
 10
16.50480759783759
 20
20.51931464420175
 10
16.50639991073759
 20
20.51821527500175
 10
16.50798228733759
 20
20.51715952490175
 10
16.50955271043759
 20
20.51614680220175
 10
16.51110935693759
 20
20.51517635530175
 10
16.51265172483759
 20
20.51424662670175
 10
16.51417988593759
 20
20.51335581020175
 10
16.51569281643759
 20
20.51250282250175
 10
16.51718963643759
 20
20.51168652770175
 10
16.51867079123759
 20
20.51090513350175
 10
16.52013550073759
 20
20.51015758070175
 10
16.52158302313759
 20
20.50944281810175
 10
16.52301401113759
 20
20.50875916560174
 10
16.52442785313759
 20
20.50810562740175
 10
16.52582398843759
 20
20.50748121050175
 10
16.52720328783759
 20
20.50688433920175
 10
16.52856534563759
 20
20.50631406640174
 10
16.52990972023759
 20
20.50576948640175
 10
16.53123736233759
 20
20.50524917960175
 10
16.53254843943759
 20
20.50475210990175
 10
16.53384224483759
 20
20.50427760230175
 10
16.53511852433759
 20
20.50382482530175
 10
16.53637758683759
 20
20.50339278010175
 10
16.53761884023759
 20
20.50298080820175
 10
16.53884073863759
 20
20.50258855720175
 10
16.54004303503759
 20
20.50221524360175
 10
16.54122589263759
 20
20.50185998450175
 10
16.54238840113759
 20
20.50152223970175
 10
16.54352960473759
 20
20.50120147560175
 10
16.54465055213759
 20
20.50089661810175
 10
16.54575336083759
 20
20.50060638270175
 10
16.54683539183759
 20
20.50033077510175
 10
16.54789955563759
 20
20.50006839290174
 10
16.54895644273759
 20
20.49981614700175
 10
16.55000595743759
 20
20.49957371550175
 10
16.55104887063759
 20
20.49934058850175
 10
16.55209741903759
 20
20.49911384550175
 10
16.55315492113759
 20
20.49889274840175
 10
16.55421931983759
 20
20.49867771100175
 10
16.55529519203759
 20
20.49846780720175
 10
16.55638510773759
 20
20.49826259630175
 10
16.55748825473759
 20
20.49806229660175
 10
16.55860445193759
 20
20.49786698300175
 10
16.55973507653759
 20
20.49767645240175
 10
16.56088087683759
 20
20.49749062260175
 10
16.56204091343759
 20
20.49730967480175
 10
16.56321650753759
 20
20.49713342110175
 10
16.56440873643759
 20
20.49696172480174
 10
16.56561634723759
 20
20.49679477690175
 10
16.56684045713759
 20
20.49663242170175
 10
16.56808244253759
 20
20.49647448270174
 10
16.56934133193759
 20
20.49632108280174
 10
16.57061829353759
 20
20.49617207260175
 10
16.57191457283759
 20
20.49602730780175
 10
16.57322905593759
 20
20.49588690800175
 10
16.57456168713759
 20
20.49575086120175
 10
16.57591464053759
 20
20.49561893550174
 10
16.57728988353759
 20
20.49549095430175
 10
16.57868674383759
 20
20.49536700010175
 10
16.58010780473759
 20
20.49524687060175
 10
16.58155988703759
 20
20.49513007290175
 10
16.58304406663759
 20
20.49501664540175
 10
16.58456129453759
 20
20.49490664760174
 10
16.58611834793759
 20
20.49479976010175
 10
16.58771696413759
 20
20.49469607760175
 10
16.58935747333759
 20
20.49459580020175
 10
16.59104466023759
 20
20.49449887860175
 10
16.59278403133759
 20
20.49440529360175
 10
16.59457199963759
 20
20.49431554060175
 10
16.59639937633759
 20
20.49423031430174
 10
16.59826905473759
 20
20.49414967900175
 10
16.60017884373759
 20
20.49407393710175
 10
16.60211090983759
 20
20.49400390460175
 10
16.60406493143759
 20
20.49393962000175
 10
16.60604040533759
 20
20.49388113300175
 10
16.60801809993759
 20
20.49382896490175
 10
16.60999692363759
 20
20.49378301340174
 10
16.61197610623759
 20
20.49374317640175
 10
16.61393596743759
 20
20.49370965340175
 10
16.61587522953759
 20
20.49368219740175
 10
16.61779292813759
 20
20.49366056350175
 10
16.61966925993759
 20
20.49364465120175
 10
16.62149687763759
 20
20.49363410780175
 10
16.62328116723759
 20
20.49362850480175
 10
16.96832448913759
 20
20.49362732880175
  0
LINE
  5
443
330
1F
100
AcDbEntity
  8
_SURFACE
  6
Continuous
 62
     7
100
AcDbLine
 10
16.84925488123759
 20
21.58137755550175
 30
0.0
 11
16.97532607683759
 21
20.42966492270175
 31
0.0
  0
LINE
  5
444
330
1F
100
AcDbEntity
  8
_SURFACE
  6
Continuous
 62
     7
100
AcDbLine
 10
16.84683659073759
 20
21.60350767480175
 30
0.0
 11
16.84925882283759
 21
21.58137702430175
 31
0.0
  0
LINE
  5
445
330
1F
100
AcDbEntity
  8
0
  6
Continuous
 62
     7
100
AcDbLine
 10
16.47097918913759
 20
21.76386998770174
 30
0.0
 11
16.47097820483759
 21
21.63529872720175
 31
0.0
  0
LINE
  5
446
330
1F
100
AcDbEntity
  8
0
  6
Continuous
 62
     7
100
AcDbLine
 10
16.60104813133759
 20
21.33290102970175
 30
0.0
 11
16.60104089413759
 21
21.25977189750175
 31
0.0
  0
LINE
  5
447
330
1F
100
AcDbEntity
  8
0
  6
Continuous
 62
     7
100
AcDbLine
 10
16.60107504733759
 20
21.04038450110175
 30
0.0
 11
16.60106781013759
 21
20.96725536900175
 31
0.0
  0
LINE
  5
448
330
1F
100
AcDbEntity
  8
0
  6
Continuous
 62
     7
100
AcDbLine
 10
16.60110196333759
 20
20.74786797260175
 30
0.0
 11
16.60109472613759
 21
20.67473884040175
 31
0.0
  0
LINE
  5
449
330
1F
100
AcDbEntity
  8
0
  6
Continuous
 62
     7
100
AcDbLine
 10
16.62455541733759
 20
20.49362732880175
 30
0.0
 11
16.62455551863759
 21
20.49413781660175
 31
0.0
  0
LINE
  5
44A
330
1F
100
AcDbEntity
  8
0
  6
Continuous
 62
     7
100
AcDbLine
 10
16.75036894523759
 20
21.56280533850175
 30
0.0
 11
16.74630244583759
 21
21.58649203120175
 31
0.0
  0
LINE
  5
44B
330
1F
100
AcDbEntity
  8
_SURFACE
  6
Continuous
 62
     7
100
AcDbLine
 10
17.09274262703759
 20
20.45405401420175
 30
0.0
 11
16.96660906203759
 21
21.60632001110175
 31
0.0
  0
LINE
  5
44C
330
1F
100
AcDbEntity
  8
0
  6
Continuous
 62
     7
100
AcDbLine
 10
16.82563871063759
 20
21.31465163660175
 30
0.0
 11
16.82563868353759
 21
21.34617768620175
 31
0.0
  0
LINE
  5
44D
330
1F
100
AcDbEntity
  8
0
  6
Continuous
 62
     7
100
AcDbLine
 10
16.84481655313759
 20
21.38778091230175
 30
0.0
 11
16.84481641923759
 21
21.52890061030175
 31
0.0
  0
LINE
  5
44E
330
1F
100
AcDbEntity
  8
0
  6
Continuous
 62
     7
100
AcDbLine
 10
16.85713860593759
 20
21.31465161140175
 30
0.0
 11
16.85713848443759
 21
21.45577147820175
 31
0.0
  0
LINE
  5
44F
330
1F
100
AcDbEntity
  8
0
  6
Continuous
 62
     7
100
AcDbLine
 10
16.87399626233759
 20
21.02213525160175
 30
0.0
 11
16.87399623303759
 21
21.05334400700175
 31
0.0
  0
LINE
  5
450
330
1F
100
AcDbEntity
  8
0
  6
Continuous
 62
     7
100
AcDbLine
 10
16.89354882313759
 20
21.09526438370175
 30
0.0
 11
16.89354874373759
 21
21.17673476020175
 31
0.0
  0
LINE
  5
451
330
1F
100
AcDbEntity
  8
0
  6
Continuous
 62
     7
100
AcDbLine
 10
16.90549592563759
 20
21.02213525160175
 30
0.0
 11
16.90549588293759
 21
21.06759269070175
 31
0.0
  0
LINE
  5
452
330
1F
100
AcDbEntity
  8
0
  6
Continuous
 62
     7
100
AcDbLine
 10
16.92080098603759
 20
20.72961872300175
 30
0.0
 11
16.92080095573759
 21
20.76049940100175
 31
0.0
  0
LINE
  5
453
330
1F
100
AcDbEntity
  8
_SURFACE
  6
Continuous
 62
     7
100
AcDbLine
 10
17.09274304453759
 20
20.32516041100175
 30
0.0
 11
17.09274310183759
 21
20.32440761330175
 31
0.0
  0
LINE
  5
454
330
1F
100
AcDbEntity
  8
_SURFACE
  6
Continuous
 62
     7
100
AcDbLine
 10
17.09274275773759
 20
20.35590367620175
 30
0.0
 11
17.09274304453759
 21
20.32516041100175
 31
0.0
  0
LINE
  5
455
330
1F
100
AcDbEntity
  8
_SURFACE
  6
Continuous
 62
     7
100
AcDbLine
 10
17.09274259653759
 20
20.45405401420175
 30
0.0
 11
17.09274275773759
 21
20.35590367620175
 31
0.0
  0
LINE
  5
456
330
1F
100
AcDbEntity
  8
0
  6
Continuous
 62
     7
100
AcDbLine
 10
16.95957962123759
 20
21.60655735990175
 30
0.0
 11
16.95957957403759
 21
21.60632001110175
 31
0.0
  0
LWPOLYLINE
  5
457
330
1F
100
AcDbEntity
  8
0
  6
Continuous
 62
     7
100
AcDbPolyline
 90
      125
 70
     0
 43
0.0
 10
21.38393540103759
 20
20.49363429170174
 10
21.38576358233759
 20
20.49364494890175
 10
21.38763992963759
 20
20.49366097650175
 10
21.38955714343759
 20
20.49368272290175
 10
21.39149556083759
 20
20.49371028560175
 10
21.39345421933759
 20
20.49374390660175
 10
21.39543184893759
 20
20.49378382990175
 10
21.39740891803759
 20
20.49382985520175
 10
21.39938466053759
 20
20.49388208270174
 10
21.40135799243759
 20
20.49394061310175
 10
21.40330983163759
 20
20.49400492710175
 10
21.40523967983759
 20
20.49407497490175
 10
21.40714721843759
 20
20.49415071710175
 10
21.40901475273759
 20
20.49423134300175
 10
21.4108401265376
 20
20.49431655250175
 10
21.41262619693759
 20
20.49440628090175
 10
21.41436380223759
 20
20.49449983550175
 10
21.41604937603759
 20
20.49459672350175
 10
21.41768839833759
 20
20.49469696390175
 10
21.41928561043759
 20
20.49480060450175
 10
21.42084133893759
 20
20.49490744570175
 10
21.42235732063759
 20
20.49501739330175
 10
21.42384029753759
 20
20.49513076510175
 10
21.42529121353759
 20
20.49524750100175
 10
21.42671114873759
 20
20.49536756330175
 10
21.42810690573759
 20
20.49549144350175
 10
21.42948104663759
 20
20.49561934170175
 10
21.43083291783759
 20
20.49575117700175
 10
21.43216452553759
 20
20.49588713000175
 10
21.4334780536376
 20
20.49602743380175
 10
21.43477343023759
 20
20.49617209940175
 10
21.43604953983759
 20
20.49632100730175
 10
21.43730762663759
 20
20.49647430200175
 10
21.43854885413759
 20
20.49663213270175
 10
21.4397722441376
 20
20.49679437610175
 10
21.44097916963759
 20
20.49696120820175
 10
21.44217074603759
 20
20.49713278510175
 10
21.44334571643759
 20
20.49730891530175
 10
21.44450514723759
 20
20.49748973420175
 10
21.44565036663759
 20
20.49767543060175
 10
21.44678045873759
 20
20.49786582790175
 10
21.44789615153759
 20
20.49806100540175
 10
21.44899883873759
 20
20.49826116950175
 10
21.45008841643759
 20
20.49846626110175
 10
21.45116413533759
 20
20.49867607680175
 10
21.45222849723759
 20
20.49889104680175
 10
21.45328596243759
 20
20.49911207490175
 10
21.45433446703759
 20
20.49933874580175
 10
21.45537733703759
 20
20.49957179890175
 10
21.45642671833759
 20
20.49981413290175
 10
21.45748333293759
 20
20.50006624360175
 10
21.4585471367376
 20
20.50032846240175
 10
21.45962877863759
 20
20.50060389030175
 10
21.46073115963759
 20
20.50089392570175
 10
21.46185165093759
 20
20.50119856460175
 10
21.46299245563759
 20
20.50151911450175
 10
21.46415465193759
 20
20.50185665930175
 10
21.46533725333759
 20
20.50221172520175
 10
21.46653934343759
 20
20.50258485180175
 10
21.46776108823759
 20
20.50297692450175
 10
21.46900223753759
 20
20.50338872680175
 10
21.47026123123759
 20
20.50382060810175
 10
21.47153748233759
 20
20.50427322950175
 10
21.47283129453759
 20
20.50474758920175
 10
21.47414238503759
 20
20.50524450900175
 10
21.47547003203759
 20
20.50576465780175
 10
21.47681441883759
 20
20.50630907780174
 10
21.47817651313759
 20
20.50687919590175
 10
21.47955587333759
 20
20.50747591860175
 10
21.48095209393759
 20
20.50810019400175
 10
21.48236606283759
 20
20.50875360680175
 10
21.48379722263759
 20
20.50943715330175
 10
21.48524495763759
 20
20.51015182960175
 10
21.48670992663759
 20
20.51089932080175
 10
21.48819139233759
 20
20.51168068300175
 10
21.48968856833759
 20
20.51249697490175
 10
21.49120189023759
 20
20.51334998590175
 10
21.49273047693759
 20
20.51424085360175
 10
21.49427330363759
 20
20.51517066340175
 10
21.49583043403759
 20
20.51614121870175
 10
21.49740135863759
 20
20.51715407460175
 10
21.49898425963759
 20
20.51820998830175
 10
21.50057713013759
 20
20.51930956130175
 10
21.50217898003759
 20
20.52045409230175
 10
21.50378815873759
 20
20.52164444350175
 10
21.50540165053759
 20
20.52288041170175
 10
21.50701801413759
 20
20.52416291420175
 10
21.50863582263759
 20
20.52549289960175
 10
21.51025210943759
 20
20.52687000840175
 10
21.51186513963759
 20
20.52829482620175
 10
21.51347358243759
 20
20.52976830310175
 10
21.51507509163759
 20
20.53129045320175
 10
21.51666792133759
 20
20.53286180210175
 10
21.51825051763759
 20
20.53448307010175
 10
21.51982080073759
 20
20.53615443750175
 10
21.52137701063759
 20
20.53787639540175
 10
21.52291735823759
 20
20.53964940740175
 10
21.52443968833759
 20
20.54147349910175
 10
21.52594218093759
 20
20.54334906520175
 10
21.52742287913759
 20
20.54527633260175
 10
21.52887941173759
 20
20.54725494490175
 10
21.53031046283759
 20
20.54928597240175
 10
21.53171336183759
 20
20.55136859800175
 10
21.53308389643759
 20
20.55349936780175
 10
21.53442070943759
 20
20.55567890320175
 10
21.53572142103759
 20
20.55790617420175
 10
21.53698085153759
 20
20.56017478130175
 10
21.53819751393759
 20
20.56248416300175
 10
21.53936989213759
 20
20.56483365770175
 10
21.54049356233759
 20
20.56721620030175
 10
21.54156745083759
 20
20.56963085730175
 10
21.54259049943759
 20
20.57207666100175
 10
21.54355917673759
 20
20.57454604880175
 10
21.54447289693759
 20
20.57703781000175
 10
21.54533110813759
 20
20.57955073640175
 10
21.54613124613759
 20
20.58207690940175
 10
21.54687326013759
 20
20.58461494980175
 10
21.54755713333759
 20
20.58716348790175
 10
21.54818129573759
 20
20.58971435460175
 10
21.54874624773759
 20
20.59226609510175
 10
21.54925252233759
 20
20.59481728430175
 10
21.54969954923759
 20
20.59735963030175
 10
21.55008804403759
 20
20.59988939380175
 10
21.55041950533759
 20
20.60240748820175
 10
21.55059472623759
 20
20.60394252060175
  0
LINE
  5
458
330
1F
100
AcDbEntity
  8
0
  6
Continuous
 62
     7
100
AcDbLine
 10
21.38083567703759
 20
20.49362732890175
 30
0.0
 11
21.38393540103759
 21
20.49363429170174
 31
0.0
  0
LINE
  5
459
330
1F
100
AcDbEntity
  8
0
  6
Continuous
 62
     7
100
AcDbLine
 10
17.09274310183759
 20
20.32440761330175
 30
0.0
 11
20.91236162923759
 21
20.32440761330175
 31
0.0
  0
LINE
  5
45A
330
1F
100
AcDbEntity
  8
_SURFACE
  6
Continuous
 62
     7
100
AcDbLine
 10
20.91249047483759
 20
20.32440768670175
 30
0.0
 11
17.09274310183759
 21
20.32440761330175
 31
0.0
  0
LINE
  5
45B
330
1F
100
AcDbEntity
  8
0
  6
Continuous
 62
     7
100
AcDbLine
 10
17.09274262703759
 20
20.45405401420175
 30
0.0
 11
20.91236109523759
 21
20.45405401420175
 31
0.0
  0
LINE
  5
45C
330
1F
100
AcDbEntity
  8
0
  6
Continuous
 62
     7
100
AcDbLine
 10
21.38083567703759
 20
20.49362732880175
 30
0.0
 11
21.03678029583759
 21
20.49362732880175
 31
0.0
  0
LINE
  5
45D
330
1F
100
AcDbEntity
  8
0
  6
Continuous
 62
     7
100
AcDbLine
 10
21.38083577823759
 20
20.49413781660175
 30
0.0
 11
21.03683617633759
 21
20.49413781660175
 31
0.0
  0
LINE
  5
45E
330
1F
100
AcDbEntity
  8
0
  6
Continuous
 62
     7
100
AcDbLine
 10
16.96826860903759
 20
20.49413781660175
 30
0.0
 11
16.62455551863759
 21
20.49413781660175
 31
0.0
  0
LINE
  5
45F
330
1F
100
AcDbEntity
  8
_SURFACE
  6
Continuous
 62
     7
100
AcDbLine
 10
17.09261517463759
 20
20.32440768570175
 30
0.0
 11
17.09274310163759
 21
20.32440761640175
 31
0.0
  0
LINE
  5
460
330
1F
100
AcDbEntity
  8
0
  6
Continuous
 62
     7
100
AcDbLine
 10
16.60109472613759
 20
20.67473884040175
 30
0.0
 11
16.89717648033759
 21
20.67473884040175
 31
0.0
  0
LINE
  5
461
330
1F
100
AcDbEntity
  8
0
  6
Continuous
 62
     7
100
AcDbLine
 10
16.60109469913759
 20
20.70609877330175
 30
0.0
 11
16.89717645333759
 21
20.70609877330175
 31
0.0
  0
LINE
  5
462
330
1F
100
AcDbEntity
  8
0
  6
Continuous
 62
     7
100
AcDbLine
 10
16.88562561703759
 20
20.74786797260175
 30
0.0
 11
16.60110196333759
 21
20.74786797260175
 31
0.0
  0
LINE
  5
463
330
1F
100
AcDbEntity
  8
0
  6
Continuous
 62
     7
100
AcDbLine
 10
16.60106781013759
 20
20.96725536900175
 30
0.0
 11
16.85037157313759
 21
20.96725536900175
 31
0.0
  0
LINE
  5
464
330
1F
100
AcDbEntity
  8
0
  6
Continuous
 62
     7
100
AcDbLine
 10
16.60106778313759
 20
20.99861530190175
 30
0.0
 11
16.85037154613759
 21
20.99861530190175
 31
0.0
  0
LINE
  5
465
330
1F
100
AcDbEntity
  8
0
  6
Continuous
 62
     7
100
AcDbLine
 10
16.83842437313759
 20
21.04038450110175
 30
0.0
 11
16.60107504733759
 21
21.04038450110175
 31
0.0
  0
LINE
  5
466
330
1F
100
AcDbEntity
  8
0
  6
Continuous
 62
     7
100
AcDbLine
 10
16.89354875683759
 20
21.16325494970175
 30
0.0
 11
16.89502429913759
 21
21.16325494970175
 31
0.0
  0
LINE
  5
467
330
1F
100
AcDbEntity
  8
0
  6
Continuous
 62
     7
100
AcDbLine
 10
16.60104089413759
 20
21.25977189750175
 30
0.0
 11
16.80201384303759
 21
21.25977189750175
 31
0.0
  0
LINE
  5
468
330
1F
100
AcDbEntity
  8
0
  6
Continuous
 62
     7
100
AcDbLine
 10
16.60104086713759
 20
21.29113183040175
 30
0.0
 11
16.80201381603759
 21
21.29113183040175
 31
0.0
  0
LINE
  5
469
330
1F
100
AcDbEntity
  8
0
  6
Continuous
 62
     7
100
AcDbLine
 10
16.78969169603759
 20
21.33290102970175
 30
0.0
 11
16.60104813133759
 21
21.33290102970175
 31
0.0
  0
LINE
  5
46A
330
1F
100
AcDbEntity
  8
0
  6
Continuous
 62
     7
100
AcDbLine
 10
16.84481648863759
 20
21.45577147820175
 30
0.0
 11
16.85713848443759
 21
21.45577147820175
 31
0.0
  0
LINE
  5
46B
330
1F
100
AcDbEntity
  8
0
  6
Continuous
 62
     7
100
AcDbLine
 10
16.95957962123759
 20
21.60655735910175
 30
0.0
 11
21.04560180943759
 21
21.60655908520174
 31
0.0
  0
LINE
  5
46C
330
1F
100
AcDbEntity
  8
0
  6
Continuous
 62
     7
100
AcDbLine
 10
16.47097820483759
 20
21.63529872720175
 30
0.0
 11
21.53420138123759
 21
21.63529872720175
 31
0.0
  0
LINE
  5
46D
330
1F
100
AcDbEntity
  8
0
  6
Continuous
 62
     7
100
AcDbLine
 10
16.47097940373759
 20
21.76386998770174
 30
0.0
 11
21.53420216023759
 21
21.76386998770174
 31
0.0
  0
LWPOLYLINE
  5
46E
330
1F
100
AcDbEntity
  8
0
  6
Continuous
 62
     7
100
AcDbPolyline
 90
       90
 70
     0
 43
0.0
 10
16.95957957403759
 20
21.60632001110175
 10
21.04909664583759
 20
21.60631953280175
 10
21.0536798936376
 20
21.60631001590175
 10
21.05819332813759
 20
21.60629311030175
 10
21.06263129003759
 20
21.60626901770175
 10
21.06699579383759
 20
21.60623790400175
 10
21.07129652623759
 20
21.60619991720175
 10
21.07553201843759
 20
21.60615525130175
 10
21.07970065663759
 20
21.60610408980175
 10
21.08381189793759
 20
21.60604646890174
 10
21.08786429413759
 20
21.60598255780175
 10
21.09185645113759
 20
21.60591252060175
 10
21.09579779413759
 20
21.60583631080175
 10
21.09968696203759
 20
21.60575408010175
 10
21.10352260113759
 20
21.60566597190175
 10
21.10731380253759
 20
21.60557183720175
 10
21.11106066263759
 20
21.60547178310175
 10
21.11476014413759
 20
21.60536596370175
 10
21.1184165830376
 20
21.60525434930175
 10
21.12203295563759
 20
21.60513688390174
 10
21.12560389073759
 20
21.60501379450175
 10
21.12912129203759
 20
21.60488543570175
 10
21.13258471263759
 20
21.60475191930175
 10
21.13599248843759
 20
21.60461340990175
 10
21.13933503553759
 20
21.60447040980175
 10
21.14261119333759
 20
21.60432316500175
 10
21.14581940203759
 20
21.60417187330175
 10
21.14895154193759
 20
21.60401725770175
 10
21.15200557773759
 20
21.60385970210175
 10
21.15498437183759
 20
21.60369937570175
 10
21.15788844253759
 20
21.60353653380175
 10
21.16071700123759
 20
21.60337150850175
 10
21.16347169613759
 20
21.60320447830175
 10
21.16615655533759
 20
21.60303545430175
 10
21.16877189063759
 20
21.60286465990175
 10
21.17131804103759
 20
21.60269230040175
 10
21.17379883163759
 20
21.60251834290175
 10
21.17621441653759
 20
21.60234297570175
 10
21.17856472843759
 20
21.60216642250174
 10
21.18085313933759
 20
21.60198864840175
 10
21.18308076733759
 20
21.60180984210175
 10
21.18524766733759
 20
21.60163021370175
 10
21.18735602583759
 20
21.60144983000175
 10
21.1894065610376
 20
21.60126884470175
 10
21.19139969403759
 20
21.60108744490175
 10
21.19333702133759
 20
21.60090570410175
 10
21.19521901463759
 20
21.60072377120175
 10
21.19704620053759
 20
21.60054185730175
 10
21.19882013883759
 20
21.60036001300175
 10
21.20054154433759
 20
21.60017836560175
 10
21.20221091133759
 20
21.59999707810175
 10
21.20382932053759
 20
21.59981628160175
 10
21.20539714983759
 20
21.59963612950175
 10
21.20691504873759
 20
21.59945670060174
 10
21.20838441783759
 20
21.59927808000174
 10
21.20980610783759
 20
21.59910041400175
 10
21.21118050913759
 20
21.59892385570175
 10
21.21250833483759
 20
21.59874852440175
 10
21.21379022033759
 20
21.59857456910175
 10
21.21502678573759
 20
21.59840213540175
 10
21.21621864593759
 20
21.59823136020175
 10
21.21736641533759
 20
21.59806238210175
 10
21.21847068883759
 20
21.59789535070175
 10
21.21953199523759
 20
21.59773042510175
 10
21.22055105703759
 20
21.59756773120175
 10
21.22152836023759
 20
21.59740743480174
 10
21.22246402793759
 20
21.59724976810175
 10
21.22335883143759
 20
21.59709485700175
 10
21.22421317533759
 20
21.59694288780174
 10
21.22502664093759
 20
21.59679420160175
 10
21.22580026023759
 20
21.59664889850175
 10
21.22653425013759
 20
21.59650723370175
 10
21.22722705253759
 20
21.59636981500175
 10
21.22787897383759
 20
21.59623690350175
 10
21.22849107053759
 20
21.59610861440175
 10
21.22906302493759
 20
21.59598536880175
 10
21.22959576953759
 20
21.59586734390175
 10
21.23008987213759
 20
21.59575479800174
 10
21.23054460663759
 20
21.59564828090175
 10
21.23096085233759
 20
21.59554799640175
 10
21.23133939183759
 20
21.59545418350175
 10
21.23167947313759
 20
21.59536750340175
 10
21.23198202603759
 20
21.59528820730175
 10
21.23224785393759
 20
21.59521654750175
 10
21.23247613073759
 20
21.59515322680175
 10
21.23266731333759
 20
21.59509865270175
 10
21.23282275593759
 20
21.59505299170175
 10
21.23294306583759
 20
21.59501662970175
 10
21.23302942103759
 20
21.59498977890175
 10
21.23304895883759
 20
21.59498358450175
  0
LINE
  5
46F
330
1F
100
AcDbEntity
  8
0
  6
Continuous
 62
     7
100
AcDbLine
 10
16.77207208913759
 20
21.59496124630175
 30
0.0
 11
16.77206802173759
 21
21.59495985760175
 31
0.0
  0
LWPOLYLINE
  5
470
330
1F
100
AcDbEntity
  8
0
  6
Continuous
 62
     7
100
AcDbPolyline
 90
       91
 70
     0
 43
0.0
 10
16.77206802173759
 20
21.59495985760175
 10
16.77210665503759
 20
21.59497243790175
 10
16.77217534343759
 20
21.59499419820175
 10
16.77227369673759
 20
21.59502452700175
 10
16.77240089683759
 20
21.59506269480175
 10
16.77255903093759
 20
21.59510885140175
 10
16.77274915053759
 20
21.59516283570175
 10
16.77297244133759
 20
21.59522453050175
 10
16.77322902143759
 20
21.59529353100175
 10
16.77351842343759
 20
21.59536928480175
 10
16.77384087683759
 20
21.59545144630175
 10
16.77419760823759
 20
21.59553992900175
 10
16.77458981803759
 20
21.59563463110174
 10
16.77501845853759
 20
21.59573538820175
 10
16.77548424053759
 20
21.59584198360175
 10
16.77598817123759
 20
21.59595426060175
 10
16.77653150663759
 20
21.59607210860174
 10
16.77711483323759
 20
21.59619527850175
 10
16.77773818963759
 20
21.59632342050175
 10
16.77840269923759
 20
21.59645640960175
 10
16.77910900393759
 20
21.59659401590175
 10
16.77985632963759
 20
21.59673576100175
 10
16.78064541183759
 20
21.59688147160175
 10
16.78147721423759
 20
21.59703099810175
 10
16.78235118183759
 20
21.59718392980175
 10
16.78326798283759
 20
21.59734009500175
 10
16.78422852153759
 20
21.59749936200175
 10
16.78523250603759
 20
21.59766140120175
 10
16.78628049763759
 20
21.59782602830174
 10
16.78737345283759
 20
21.59799312020175
 10
16.78851162283759
 20
21.59816245050174
 10
16.78969597663759
 20
21.59833391840175
 10
16.79092699763759
 20
21.59850734860174
 10
16.79220417383759
 20
21.59868242500175
 10
16.79352782013759
 20
21.59885892650175
 10
16.79489894873759
 20
21.59903672710175
 10
16.79631804053759
 20
21.59921567970175
 10
16.79778568543759
 20
21.59939567800175
 10
16.79930239983759
 20
21.59957655110175
 10
16.80086852753759
 20
21.59975809960175
 10
16.80248438833759
 20
21.59994015350175
 10
16.80415077493759
 20
21.60012264420175
 10
16.80586884153759
 20
21.60030548730174
 10
16.80763878013759
 20
21.60048841600175
 10
16.80946144393759
 20
21.60067127740175
 10
16.81133908673759
 20
21.60085416770175
 10
16.81327241973759
 20
21.60103694510175
 10
16.81526169943759
 20
21.60121936750175
 10
16.81730871173759
 20
21.60140140660175
 10
16.81941385733759
 20
21.60158293460175
 10
16.82157799133759
 20
21.60176373870175
 10
16.82380359963759
 20
21.60194370870175
 10
16.82609077563759
 20
21.60212271860175
 10
16.82844001553759
 20
21.60230059960175
 10
16.83085453973759
 20
21.60247731390175
 10
16.83333468273759
 20
21.60265269320175
 10
16.83588116203759
 20
21.60282656660175
 10
16.83849800203759
 20
21.60299887970175
 10
16.84118551133759
 20
21.60316941540175
 10
16.84394402453759
 20
21.60333794440175
 10
16.84677742773759
 20
21.60350433630175
 10
16.84968692233759
 20
21.60366851590175
 10
16.85267157013759
 20
21.60383017010175
 10
16.85573207643759
 20
21.60398897830175
 10
16.85887145103759
 20
21.60414492560175
 10
16.86208706493759
 20
21.60429751710175
 10
16.86537038843759
 20
21.60444600310174
 10
16.86872097123759
 20
21.60459034740175
 10
16.87213771153759
 20
21.60473026810175
 10
16.87561051913759
 20
21.60486516240175
 10
16.87913773153759
 20
21.60499486280174
 10
16.88271916183759
 20
21.60511925030175
 10
16.88634642143759
 20
21.60523794920175
 10
16.89001324803759
 20
21.60535060530175
 10
16.89372228173759
 20
21.60545738840175
 10
16.89747841663759
 20
21.60555837530175
 10
16.90127881333759
 20
21.60565337650175
 10
16.90512377503759
 20
21.60574235810175
 10
16.90902319553759
 20
21.60582546930175
 10
16.91297576513759
 20
21.60590254290175
 10
16.91698014213759
 20
21.60597341530175
 10
16.92104635863759
 20
21.60603815340175
 10
16.92517285293759
 20
21.60609655700175
 10
16.92935825043759
 20
21.60614846920175
 10
16.93361300993759
 20
21.60619383050175
 10
16.93793545603759
 20
21.60623244460175
 10
16.94232405053759
 20
21.60626412380175
 10
16.94678942353759
 20
21.60628873520175
 10
16.95133390323759
 20
21.60630607830175
 10
16.95595146823759
 20
21.60631591470175
 10
16.95957957383759
 20
21.60631825190175
  0
LINE
  5
471
330
1F
100
AcDbEntity
  8
_SURFACE
  6
Continuous
 62
     7
100
AcDbLine
 10
20.91236157223759
 20
20.32516041100175
 30
0.0
 11
20.91236162923759
 21
20.32440761330175
 31
0.0
  0
LINE
  5
472
330
1F
100
AcDbEntity
  8
_SURFACE
  6
Continuous
 62
     7
100
AcDbLine
 10
20.91236128603759
 20
20.35590367620175
 30
0.0
 11
20.91236157223759
 21
20.32516041100175
 31
0.0
  0
LINE
  5
473
330
1F
100
AcDbEntity
  8
_SURFACE
  6
Continuous
 62
     7
100
AcDbLine
 10
20.91236112563759
 20
20.45405401420175
 30
0.0
 11
20.91236128603759
 21
20.35590367620175
 31
0.0
  0
LINE
  5
474
330
1F
100
AcDbEntity
  8
0
  6
Continuous
 62
     7
100
AcDbLine
 10
21.04560180943759
 20
21.60655908600175
 30
0.0
 11
21.04560176223759
 21
21.60632001410175
 31
0.0
  0
LINE
  5
475
330
1F
100
AcDbEntity
  8
0
  6
Continuous
 62
     7
100
AcDbLine
 10
21.53420236553759
 20
21.76386998770174
 30
0.0
 11
21.53420138123759
 21
21.63529872720175
 31
0.0
  0
LINE
  5
476
330
1F
100
AcDbEntity
  8
0
  6
Continuous
 62
     7
100
AcDbLine
 10
21.38083567703759
 20
20.49362732880175
 30
0.0
 11
21.38083577823759
 21
20.49413781660175
 31
0.0
  0
LINE
  5
477
330
1F
100
AcDbEntity
  8
0
  6
Continuous
 62
     7
100
AcDbLine
 10
20.91236109523759
 20
20.45405401420175
 30
0.0
 11
21.03697751743759
 21
21.59246415240175
 31
0.0
  0
LINE
  5
478
330
1F
100
AcDbEntity
  8
0
  6
Continuous
 62
     7
100
AcDbLine
 10
21.03697751743759
 20
21.59246415240175
 30
0.0
 11
21.03849563073759
 21
21.60632001110175
 31
0.0
  0
LINE
  5
479
330
1F
100
AcDbEntity
  8
_SURFACE
  6
Continuous
 62
     7
100
AcDbLine
 10
21.15584686833759
 20
21.58137693130175
 30
0.0
 11
21.15826985233759
 21
21.60351428140175
 31
0.0
  0
LINE
  5
47A
330
1F
100
AcDbEntity
  8
_SURFACE
  6
Continuous
 62
     7
100
AcDbLine
 10
21.02977864353759
 20
20.42966482490175
 30
0.0
 11
21.15585080963759
 21
21.58137746110175
 31
0.0
  0
LINE
  5
47B
330
1F
100
AcDbEntity
  8
0
  6
Continuous
 62
     7
100
AcDbLine
 10
21.25887406973759
 20
21.58649585080175
 30
0.0
 11
21.25480751883759
 21
21.56280914440175
 31
0.0
  0
LINE
  5
47C
330
1F
100
AcDbEntity
  8
0
  6
Continuous
 62
     7
100
AcDbLine
 10
21.55505883303759
 20
21.63335926290175
 30
0.0
 11
21.43316186013759
 21
20.49897311580175
 31
0.0
  0
LINE
  5
47D
330
1F
100
AcDbEntity
  8
0
  6
Continuous
 62
     7
100
AcDbLine
 10
21.67249171023759
 20
21.73832875210175
 30
0.0
 11
21.55059474213759
 21
20.60394264900175
 31
0.0
  0
LINE
  5
47E
330
1F
100
AcDbEntity
  8
0
  6
Continuous
 62
     7
100
AcDbLine
 10
21.67249171023759
 20
21.73832875210175
 30
0.0
 11
21.99467059423759
 21
24.73385646250175
 31
0.0
  0
LINE
  5
47F
330
1F
100
AcDbEntity
  8
0
  6
Continuous
 62
     7
100
AcDbLine
 10
21.99478830633759
 20
24.73385909250175
 30
0.0
 11
21.55059470503759
 21
20.60394230380175
 31
0.0
  0
LINE
  5
480
330
1F
100
AcDbEntity
  8
0
  6
Continuous
 62
     7
100
AcDbLine
 10
21.53420216023759
 20
21.76386998770174
 30
0.0
 11
21.93853673543759
 21
24.73385645130175
 31
0.0
  0
LINE
  5
481
330
1F
100
AcDbEntity
  8
0
  6
Continuous
 62
     7
100
AcDbLine
 10
22.00259144273759
 20
24.73385643220175
 30
0.0
 11
16.00259144273759
 21
24.73385643220175
 31
0.0
  0
LINE
  5
482
330
1F
100
AcDbEntity
  8
0
  6
Continuous
 62
     7
100
AcDbLine
 10
21.94754886993759
 20
24.73385643220175
 30
0.0
 11
21.92975063243759
 21
25.07346703390175
 31
0.0
  0
LINE
  5
483
330
1F
100
AcDbEntity
  8
0
  6
Continuous
 62
     7
100
AcDbLine
 10
22.00259144273759
 20
24.73385643220175
 30
0.0
 11
21.98479320523759
 21
25.07346703390175
 31
0.0
  0
LINE
  5
484
330
1F
100
AcDbEntity
  8
0
  6
Continuous
 62
     7
100
AcDbLine
 10
21.92260835133759
 20
25.07321762000175
 30
0.0
 11
21.92975063243759
 21
25.07346703390175
 31
0.0
  0
LINE
  5
485
330
1F
100
AcDbEntity
  8
0
  6
Continuous
 62
     7
100
AcDbLine
 10
21.92370661153759
 20
25.12552302020175
 30
0.0
 11
21.92782703813759
 21
25.12566690870175
 31
0.0
  0
LINE
  5
486
330
1F
100
AcDbEntity
  8
0
  6
Continuous
 62
     7
100
AcDbLine
 10
16.07541918173759
 20
25.07321762000175
 30
0.0
 11
21.92260835133759
 21
25.07321762000175
 31
0.0
  0
LINE
  5
487
330
1F
100
AcDbEntity
  8
0
  6
Continuous
 62
     7
100
AcDbLine
 10
16.07541918173759
 20
25.12545107120175
 30
0.0
 11
21.91958464583759
 21
25.12545107120175
 31
0.0
  0
ARC
  5
488
330
1F
100
AcDbEntity
  8
0
  6
Continuous
 62
     7
100
AcDbCircle
 10
-45.3516805466624
 20
10.82257796270174
 30
0.0
 40
63.0239401749
100
AcDbArc
 50
9.599907383600099
 51
9.81195131109998
  0
ARC
  5
489
330
1F
100
AcDbEntity
  8
0
  6
Continuous
 62
     7
100
AcDbCircle
 10
-41.81310860286241
 20
11.41902446130174
 30
0.0
 40
59.43545145329999
100
AcDbArc
 50
9.315985350600087
 51
9.53036781389995
  0
ARC
  5
48A
330
1F
100
AcDbEntity
  8
0
  6
Continuous
 62
     7
100
AcDbCircle
 10
-38.51518309666241
 20
11.95786572850175
 30
0.0
 40
56.09379418069999
100
AcDbArc
 50
9.015512282500068
 51
9.242475686800043
  0
ARC
  5
48B
330
1F
100
AcDbEntity
  8
0
  6
Continuous
 62
     7
100
AcDbCircle
 10
-35.68792672926241
 20
12.40517814300174
 30
0.0
 40
53.23136963949999
100
AcDbArc
 50
8.772091309300074
 51
8.937169126600016
  0
ARC
  5
48C
330
1F
100
AcDbEntity
  8
_SURFACE
  6
Continuous
 62
     7
100
AcDbCircle
 10
17.09274310033759
 20
20.44251785070175
 30
0.0
 40
0.1181102343
100
AcDbArc
 50
186.2469974702
 51
269.9378935017
  0
ARC
  5
48D
330
1F
100
AcDbEntity
  8
_SURFACE
  6
Continuous
 62
     7
100
AcDbCircle
 10
20.91236163073759
 20
20.44251785070175
 30
0.0
 40
0.1181102343
100
AcDbArc
 50
270.0625523645999
 51
353.7529548875
  0
ARC
  5
48E
330
1F
100
AcDbEntity
  8
0
  6
Continuous
 62
     7
100
AcDbCircle
 10
21.91958463723759
 20
25.24356128250175
 30
0.0
 40
0.1181102193
100
AcDbArc
 50
269.9999997900999
 51
272.0000002099001
  0
ARC
  5
48F
330
1F
100
AcDbEntity
  8
0
  6
Continuous
 62
     7
100
AcDbCircle
 10
21.43414109163759
 20
20.61646924260175
 30
0.0
 40
0.1171254523
100
AcDbArc
 50
351.5290751848999
 51
352.2685636326
  0
ARC
  5
490
330
1F
100
AcDbEntity
  8
0
  6
Continuous
 62
     7
100
AcDbCircle
 10
16.57125097003759
 20
20.61646886930175
 30
0.0
 40
0.1171253931
100
AcDbArc
 50
187.7316640057999
 51
188.4702450509999
  0
ARC
  5
491
330
1F
100
AcDbEntity
  8
0
  6
Continuous
 62
     7
100
AcDbCircle
 10
21.43414709433759
 20
20.61646833840175
 30
0.0
 40
0.1171193819
100
AcDbArc
 50
351.0588239771001
 51
351.5290801262
  0
ARC
  5
492
330
1F
100
AcDbEntity
  8
0
  6
Continuous
 62
     7
100
AcDbCircle
 10
16.57124495873759
 20
20.61646796380175
 30
0.0
 40
0.117119314
100
AcDbArc
 50
188.4702400882999
 51
188.9417130268999
  0
ARC
  5
493
330
1F
100
AcDbEntity
  8
0
  6
Continuous
 62
     7
100
AcDbCircle
 10
21.43415884683759
 20
20.61646684120175
 30
0.0
 40
0.1171075355
100
AcDbArc
 50
352.2685592344
 51
352.8271644755999
  0
ARC
  5
494
330
1F
100
AcDbEntity
  8
0
  6
Continuous
 62
     7
100
AcDbCircle
 10
16.57123319753759
 20
20.61646646550175
 30
0.0
 40
0.1171074588
100
AcDbArc
 50
187.1715537145998
 51
187.7316684745
  0
ARC
  5
495
330
1F
100
AcDbEntity
  8
0
  6
Continuous
 62
     7
100
AcDbCircle
 10
21.43418087063759
 20
20.61646296410175
 30
0.0
 40
0.1170851807
100
AcDbArc
 50
350.1909237324
 51
351.0588531025001
  0
ARC
  5
496
330
1F
100
AcDbEntity
  8
0
  6
Continuous
 62
     7
100
AcDbCircle
 10
16.57121119023759
 20
20.61646259060175
 30
0.0
 40
0.1170851207
100
AcDbArc
 50
188.9416840433001
 51
189.8081059323999
  0
ARC
  5
497
330
1F
100
AcDbEntity
  8
0
  6
Continuous
 62
     7
100
AcDbCircle
 10
21.43419543103759
 20
20.61646078620175
 30
0.0
 40
0.1170704632
100
AcDbArc
 50
348.8084388398001
 51
349.8703729729
  0
ARC
  5
498
330
1F
100
AcDbEntity
  8
0
  6
Continuous
 62
     7
100
AcDbCircle
 10
16.57119660123759
 20
20.61646040810175
 30
0.0
 40
0.1170703741
100
AcDbArc
 50
190.1304611991999
 51
191.1902701855
  0
ARC
  5
499
330
1F
100
AcDbEntity
  8
0
  6
Continuous
 62
     7
100
AcDbCircle
 10
16.57117500023759
 20
20.61645925680175
 30
0.0
 40
0.1170488168
100
AcDbArc
 50
186.1439821343999
 51
187.1716090630999
  0
ARC
  5
49A
330
1F
100
AcDbEntity
  8
0
  6
Continuous
 62
     7
100
AcDbCircle
 10
21.43421728643759
 20
20.61645960270174
 30
0.0
 40
0.1170486494
100
AcDbArc
 50
352.8271081531999
 51
353.8611527094001
  0
ARC
  5
49B
330
1F
100
AcDbEntity
  8
0
  6
Continuous
 62
     7
100
AcDbCircle
 10
21.43422752603759
 20
20.61645497450175
 30
0.0
 40
0.1170378463
100
AcDbArc
 50
349.8704103284
 51
350.1908866576
  0
ARC
  5
49C
330
1F
100
AcDbEntity
  8
0
  6
Continuous
 62
     7
100
AcDbCircle
 10
16.57116454053759
 20
20.61645460250175
 30
0.0
 40
0.1170377921
100
AcDbArc
 50
189.8081428089
 51
190.1304240266
  0
ARC
  5
49D
330
1F
100
AcDbEntity
  8
0
  6
Continuous
 62
     7
100
AcDbCircle
 10
21.92975063243759
 20
25.07058237490175
 30
0.0
 40
0.0551181102
100
AcDbArc
 50
2.999999999999891
 51
91.99999999999997
  0
ARC
  5
49E
330
1F
100
AcDbEntity
  8
_SURFACE
  6
Continuous
 62
     7
100
AcDbCircle
 10
21.92975063243759
 20
25.07058237490175
 30
0.0
 40
0.0551181102
100
AcDbArc
 50
2.999999999999891
 51
91.99999999999997
  0
ARC
  5
49F
330
1F
100
AcDbEntity
  8
0
  6
Continuous
 62
     7
100
AcDbCircle
 10
16.07541914983759
 20
25.07033297680175
 30
0.0
 40
0.0551180776
100
AcDbArc
 50
89.99996689099999
 51
177.0000147451999
  0
SPLINE
  5
4A0
330
1F
100
AcDbEntity
  8
0
  6
Continuous
 62
     7
100
AcDbSpline
210
0.0
220
0.0
230
1.0
 70
     8
 71
     3
 72
    29
 73
    25
 74
    23
 42
0.0000000001
 43
0.0000000001
 44
0.0000000001
 12
0.0958437879297531
 22
0.9953963875337686
 32
0.0
 13
-0.9999999618347194
 23
-0.0002762798576384
 33
0.0
 40
0.0
 40
0.0
 40
0.0
 40
0.0
 40
0.0007439424671017
 40
0.0018514492846336
 40
0.003444576191914
 40
0.005578934288374
 40
0.0082695077425798
 40
0.0115196091955999
 40
0.0153232347694466
 40
0.0196611233035257
 40
0.0245064721443246
 40
0.0298323705113878
 40
0.035617858139376
 40
0.0418424745868458
 40
0.0484815582250569
 40
0.055508779970793
 40
0.0628854653934599
 40
0.0705641178526924
 40
0.0785022707398559
 40
0.0866614543950382
 40
0.0950000505699075
 40
0.103472648505444
 40
0.112029999469027
 40
0.1206213113239657
 40
0.1206213113239657
 40
0.1206213113239657
 40
0.1206213113239657
 10
21.15584656243759
 20
21.58137792110175
 30
0.0
 10
21.15587032985894
 20
21.58162476031651
 30
0.0
 10
21.15567567990976
 20
21.5822621193684
 30
0.0
 10
21.15477247658601
 20
21.58302031841456
 30
0.0
 10
21.15334957726084
 20
21.58377552030236
 30
0.0
 10
21.15133685671561
 20
21.58452046621635
 30
0.0
 10
21.148748019967
 20
21.58525860675755
 30
0.0
 10
21.14557957653026
 20
21.58598069543044
 30
0.0
 10
21.14184739858729
 20
21.58668306476231
 30
0.0
 10
21.13757135785983
 20
21.58736116230283
 30
0.0
 10
21.13277837260177
 20
21.58800994146512
 30
0.0
 10
21.1274949004477
 20
21.5886251679487
 30
0.0
 10
21.12174510074875
 20
21.58920403202354
 30
0.0
 10
21.11555200482732
 20
21.58974361915932
 30
0.0
 10
21.10894032092226
 20
21.59024198386558
 30
0.0
 10
21.10194061374038
 20
21.59069644066967
 30
0.0
 10
21.09459095698826
 20
21.59110407778098
 30
0.0
 10
21.08693475480772
 20
21.59146245742535
 30
0.0
 10
21.0790152823213
 20
21.59176919705983
 30
0.0
 10
21.07087383411278
 20
21.59202243619159
 30
0.0
 10
21.06255266741448
 20
21.59222077069934
 30
0.0
 10
21.05409760575444
 20
21.59236258484616
 30
0.0
 10
21.04555754119875
 20
21.59244713770908
 30
0.0
 10
21.0398412961466
 20
21.59246494410389
 30
0.0
 10
21.03697752563759
 20
21.59246415290175
 30
0.0
 11
21.15584656243759
 21
21.58137792110175
 31
0.0
 11
21.15566694823759
 21
21.58209985540175
 31
0.0
 11
21.15488524033759
 21
21.58288439610175
 31
0.0
 11
21.15349570853759
 21
21.58366366160175
 31
0.0
 11
21.15150468303759
 21
21.58443262320175
 31
0.0
 11
21.14892184543759
 21
21.58518637080175
 31
0.0
 11
21.14575586623759
 21
21.58592103750175
 31
0.0
 11
21.14201953293759
 21
21.58663334430174
 31
0.0
 11
21.13773622323759
 21
21.58731929980175
 31
0.0
 11
21.13293534173759
 21
21.58797423660175
 31
0.0
 11
21.12764565733759
 21
21.58859426270175
 31
0.0
 11
21.12188958693759
 21
21.58917694670175
 31
0.0
 11
21.11568869963759
 21
21.58971994450175
 31
0.0
 11
21.10906855843759
 21
21.59022110520175
 31
0.0
 11
21.10205621463759
 21
21.59067813900175
 31
0.0
 11
21.0946909308376
 21
21.59108811750175
 31
0.0
 11
21.08702072943759
 21
21.59144827590175
 31
0.0
 11
21.07908855923759
 21
21.59175641090175
 31
0.0
 11
21.07093334253759
 21
21.59201080920174
 31
0.0
 11
21.06259712523759
 21
21.59220997570175
 31
0.0
 11
21.05412572543759
 21
21.59235245800175
 31
0.0
 11
21.04556879573759
 21
21.59243736750175
 31
0.0
 11
21.03697752563759
 21
21.59246415290175
 31
0.0
  0
SPLINE
  5
4A1
330
1F
100
AcDbEntity
  8
_SURFACE
  6
Continuous
 62
     7
100
AcDbSpline
210
0.0
220
0.0
230
1.0
 70
     8
 71
     3
 72
    12
 73
     8
 74
     6
 42
0.0000000001
 43
0.0000000001
 44
0.0000000001
 12
0.1304076521776718
 22
0.9914604602572447
 32
0.0
 13
-0.9941782438333646
 23
0.1077479442421396
 33
0.0
 40
0.0
 40
0.0
 40
0.0
 40
0.0
 40
0.0074195742662836
 40
0.0262791052697901
 40
0.0547159189977446
 40
0.0882588172976606
 40
0.1208064333960723
 40
0.1208064333960723
 40
0.1208064333960723
 40
0.1208064333960723
 10
21.02977305773759
 20
20.42967790820175
 30
0.0
 10
21.03009558082433
 20
20.4321299797074
 30
0.0
 10
21.01823610817228
 20
20.43576370882969
 30
0.0
 10
21.00379853361779
 20
20.44034863635233
 30
0.0
 10
20.97574156856442
 20
20.44549577921987
 30
0.0
 10
20.94514669190781
 20
20.45021239200861
 30
0.0
 10
20.92314716937548
 20
20.45288503452689
 30
0.0
 10
20.91236112543759
 20
20.45405401410175
 30
0.0
 11
21.02977305773759
 21
20.42967790820175
 31
0.0
 11
21.02379145733759
 21
20.43406773040175
 31
0.0
 11
21.00569989693759
 21
20.43939477010175
 31
0.0
 11
20.97781916643759
 21
20.44499095110175
 31
0.0
 11
20.94466780203759
 21
20.45010104550175
 31
0.0
 11
20.91236112543759
 21
20.45405401410175
 31
0.0
  0
SPLINE
  5
4A2
330
1F
100
AcDbEntity
  8
_SURFACE
  6
Continuous
 62
     7
100
AcDbSpline
210
0.0
220
0.0
230
1.0
 70
     8
 71
     3
 72
    12
 73
     8
 74
     6
 42
0.0000000001
 43
0.0000000001
 44
0.0000000001
 12
-0.1304421436540546
 22
0.9914559229531764
 32
0.0
 13
0.9941782449158358
 23
0.107747934254298
 33
0.0
 40
0.0
 40
0.0
 40
0.0
 40
0.0
 40
0.0074192497721871
 40
0.0262785002825651
 40
0.0547150954693736
 40
0.088257865879733
 40
0.1208054462446411
 40
0.1208054462446411
 40
0.1208054462446411
 40
0.1208054462446411
 10
16.97533165553759
 20
20.42967803370175
 30
0.0
 10
16.97500906125606
 20
20.43212998674525
 30
0.0
 10
16.98686832931943
 20
20.43576378940654
 30
0.0
 10
17.00130556079135
 20
20.44034862478832
 30
0.0
 10
17.02936236328128
 20
20.44549579892042
 30
0.0
 10
17.05995709132861
 20
20.45021239480018
 30
0.0
 10
17.08195656462978
 20
20.45288503591865
 30
0.0
 10
17.09274259673759
 20
20.45405401410175
 30
0.0
 11
16.97533165553759
 21
20.42967803370175
 31
0.0
 11
16.98131294553759
 21
20.43406773040175
 31
0.0
 11
16.99940421353759
 21
20.43939477010175
 31
0.0
 11
17.02728472113759
 21
20.44499095110175
 31
0.0
 11
17.06043595613759
 21
20.45010104550175
 31
0.0
 11
17.09274259673759
 21
20.45405401410175
 31
0.0
  0
SPLINE
  5
4A3
330
1F
100
AcDbEntity
  8
_SURFACE
  6
Continuous
 62
     7
100
AcDbSpline
210
0.0
220
0.0
230
1.0
 70
     8
 71
     3
 72
    29
 73
    25
 74
    23
 42
0.0000000001
 43
0.0000000001
 44
0.0000000001
 12
-0.0958249706056676
 22
0.9953981992189975
 32
0.0
 13
0.9999999618347603
 23
-0.0002762797102277
 33
0.0
 40
0.0
 40
0.0
 40
0.0
 40
0.0
 40
0.0007438369533128
 40
0.0018512929524958
 40
0.0034443573231287
 40
0.0055786494675931
 40
0.0082691563967777
 40
0.0115191920969332
 40
0.0153227534278295
 40
0.0196605796558382
 40
0.0245058689482015
 40
0.0298317105042064
 40
0.0356171448047349
 40
0.0418417113431942
 40
0.0484807488135085
 40
0.055507928548378
 40
0.0628845763293167
 40
0.070563195625088
 40
0.078501320133655
 40
0.086660480400216
 40
0.0949990582803053
 40
0.1034716431176933
 40
0.1120289860816712
 40
0.1206202953366223
 40
0.1206202953366223
 40
0.1206202953366223
 40
0.1206202953366223
 10
16.84925912973759
 20
21.58137801560175
 30
0.0
 10
16.84923537035286
 20
21.58162482025636
 30
0.0
 10
16.84942995406521
 20
21.58226212746889
 30
0.0
 10
16.85033308021704
 20
21.58302032493954
 30
0.0
 10
16.85175591003462
 20
21.58377552186409
 30
0.0
 10
16.85376856303717
 20
21.58452046895666
 30
0.0
 10
16.85635733090247
 20
21.58525860814658
 30
0.0
 10
16.85952570748327
 20
21.58598069665647
 30
0.0
 10
16.86325782023169
 20
21.58668306558924
 30
0.0
 10
16.86753379821628
 20
21.58736116299522
 30
0.0
 10
16.87232672340732
 20
21.58800994196048
 30
0.0
 10
16.87761013863362
 20
21.58862516838558
 30
0.0
 10
16.88335988472965
 20
21.58920403235155
 30
0.0
 10
16.88955293066931
 20
21.58974361943477
 30
0.0
 10
16.89616456842058
 20
21.5902419840974
 30
0.0
 10
16.9031642335789
 20
21.59069644085762
 30
0.0
 10
16.91051385267153
 20
21.59110407792985
 30
0.0
 10
16.91817002175689
 20
21.59146245754914
 30
0.0
 10
16.92608946591369
 20
21.59176919715882
 30
0.0
 10
16.93423089075828
 20
21.59202243626728
 30
0.0
 10
16.94255203919183
 20
21.59222077075451
 30
0.0
 10
16.95100708771983
 20
21.5923625848803
 30
0.0
 10
16.95954714437623
 20
21.59244713772719
 30
0.0
 10
16.96526338589524
 20
21.59246494410322
 30
0.0
 10
16.96812715553759
 20
21.59246415290175
 30
0.0
 11
16.84925912973759
 21
21.58137801560175
 31
0.0
 11
16.84943868673759
 21
21.58209985540175
 31
0.0
 11
16.85022032263759
 21
21.58288439610175
 31
0.0
 11
16.85160978273759
 21
21.58366366160175
 31
0.0
 11
16.85360073753759
 21
21.58443262320175
 31
0.0
 11
16.85618350583759
 21
21.58518637080175
 31
0.0
 11
16.85934941753759
 21
21.58592103750175
 31
0.0
 11
16.86308568543759
 21
21.58663334430174
 31
0.0
 11
16.86736893203759
 21
21.58731929980175
 31
0.0
 11
16.87216975343759
 21
21.58797423660175
 31
0.0
 11
16.87745938063759
 21
21.58859426270175
 31
0.0
 11
16.88321539743759
 21
21.58917694670175
 31
0.0
 11
16.88941623463759
 21
21.58971994450175
 31
0.0
 11
16.89603632953759
 21
21.59022110520175
 31
0.0
 11
16.90304863123759
 21
21.59067813900175
 31
0.0
 11
16.91041387733759
 21
21.59108811750175
 31
0.0
 11
16.91808404553759
 21
21.59144827590175
 31
0.0
 11
16.92601618733759
 21
21.59175641090175
 31
0.0
 11
16.93417138063759
 21
21.59201080920174
 31
0.0
 11
16.94250757963759
 21
21.59220997570175
 31
0.0
 11
16.95097896633759
 21
21.59235245800175
 31
0.0
 11
16.95953588803759
 21
21.59243736750175
 31
0.0
 11
16.96812715553759
 21
21.59246415290175
 31
0.0
  0
SPLINE
  5
4A4
330
1F
100
AcDbEntity
  8
0
  6
Continuous
 62
     7
100
AcDbSpline
210
0.0
220
0.0
230
1.0
 70
     8
 71
     3
 72
    24
 73
    20
 74
    18
 42
0.0000000001
 43
0.0000000001
 44
0.0000000001
 12
0.0523359553985866
 22
0.9986295347988248
 32
0.0
 13
0.998637016679282
 23
-0.0521929968281498
 33
0.0
 40
0.0
 40
0.0
 40
0.0
 40
0.0
 40
0.000353981614278
 40
0.0011026518462578
 40
0.00229267027781
 40
0.0039245960540257
 40
0.005988402947244
 40
0.0084683889382289
 40
0.0113445154955806
 40
0.0145929943868152
 40
0.0181866658868154
 40
0.0220953141048342
 40
0.0262859694835388
 40
0.0307232150443962
 40
0.0353695040517419
 40
0.040185488826941
 40
0.0451303635484585
 40
0.0501622152950053
 40
0.0552383858516721
 40
0.0552383858516721
 40
0.0552383858516721
 40
0.0552383858516721
 10
16.02037660893759
 20
25.07321762000175
 30
0.0
 10
16.02038278425958
 20
25.07333545216668
 30
0.0
 10
16.02076727834059
 20
25.07357095441797
 30
0.0
 10
16.02146241103171
 20
25.07373122988187
 30
0.0
 10
16.02266378599483
 20
25.07393135663539
 30
0.0
 10
16.02427490797194
 20
25.0740807698828
 30
0.0
 10
16.02633358732883
 20
25.07421317184594
 30
0.0
 10
16.02880370551864
 20
25.07431048093089
 30
0.0
 10
16.03167170967845
 20
25.07437675761803
 30
0.0
 10
16.03491089543551
 20
25.07440907516838
 30
0.0
 10
16.03849459474274
 20
25.07440755111397
 30
0.0
 10
16.04239211747387
 20
25.07437184046569
 30
0.0
 10
16.04657042552404
 20
25.07430220996522
 30
0.0
 10
16.05099398320152
 20
25.0741991611891
 30
0.0
 10
16.05562519662685
 20
25.07406353659114
 30
0.0
 10
16.06042469406755
 20
25.07389643530889
 30
0.0
 10
16.06535167694304
 20
25.07369929858416
 30
0.0
 10
16.07036425496344
 20
25.07347371447851
 30
0.0
 10
16.07372943113064
 20
25.07330593351967
 30
0.0
 10
16.07541918173759
 20
25.07321762000175
 30
0.0
 11
16.02037660893759
 21
25.07321762000175
 31
0.0
 11
16.02062447993759
 21
25.07347033120175
 31
0.0
 11
16.02133821233759
 21
25.07369636920175
 31
0.0
 11
16.02251173763759
 21
25.07389380840175
 31
0.0
 11
16.02413507903759
 21
25.07406097430175
 31
0.0
 11
16.02619443483759
 21
25.07419644600175
 31
0.0
 11
16.02867229653759
 21
25.07429907110175
 31
0.0
 11
16.03154759753759
 21
25.07436797780175
 31
0.0
 11
16.03479589213759
 21
25.07440257980175
 31
0.0
 11
16.03838956363759
 21
25.07440258260175
 31
0.0
 11
16.04229805873759
 21
25.07436798570175
 31
0.0
 11
16.04648814763759
 21
25.07429908350175
 31
0.0
 11
16.05092420633759
 21
25.07419646100175
 31
0.0
 11
16.05556852003759
 21
25.07406099220175
 31
0.0
 11
16.06038160263759
 21
25.07389382390175
 31
0.0
 11
16.06532253433759
 21
25.07369639050175
 31
0.0
 11
16.07034930593759
 21
25.07347033900174
 31
0.0
 11
16.07541918173759
 21
25.07321762000175
 31
0.0
  0
SPLINE
  5
4A5
330
1F
100
AcDbEntity
  8
0
  6
Continuous
 62
     7
100
AcDbSpline
210
0.0
220
0.0
230
1.0
 70
     8
 71
     3
 72
    24
 73
    20
 74
    18
 42
0.0000000001
 43
0.0000000001
 44
0.0000000001
 12
0.9986370166766478
 22
0.0521929968785537
 32
0.0
 13
0.0523359554292939
 23
-0.9986295347972154
 33
0.0
 40
0.0
 40
0.0
 40
0.0
 40
0.0
 40
0.0050761704928687
 40
0.0101080223087183
 40
0.0150528970180538
 40
0.0198688818133566
 40
0.0245151707907207
 40
0.0289524163047996
 40
0.0331430715509458
 40
0.0370517195114641
 40
0.040645390711465
 40
0.0438938693483901
 40
0.0467699956003884
 40
0.0492499812839528
 40
0.0513137878804639
 40
0.0529457138820375
 40
0.0541357311374922
 40
0.0548844060524365
 40
0.0552383935153484
 40
0.0552383935153484
 40
0.0552383935153484
 40
0.0552383935153484
 10
21.92975063243759
 20
25.07346703390175
 30
0.0
 10
21.9314403830233
 20
25.07355534741865
 30
0.0
 10
21.93480555948928
 20
25.07372312300874
 30
0.0
 10
21.93981813833627
 20
25.07394868787257
 30
0.0
 10
21.94474512067602
 20
25.07414583845672
 30
0.0
 10
21.94954461840942
 20
25.07431293156451
 30
0.0
 10
21.95417583164429
 20
25.07444856144483
 30
0.0
 10
21.95859938923539
 20
25.07455161115728
 30
0.0
 10
21.96277769705545
 20
25.0746212463309
 30
0.0
 10
21.96667521951077
 20
25.07465696149353
 30
0.0
 10
21.97025891855145
 20
25.07465849127523
 30
0.0
 10
21.97349810404272
 20
25.07462617843497
 30
0.0
 10
21.9763661081127
 20
25.0745599074324
 30
0.0
 10
21.97883622585403
 20
25.07446259814513
 30
0.0
 10
21.98089490589473
 20
25.07433020518885
 30
0.0
 10
21.98250602608674
 20
25.07418077938865
 30
0.0
 10
21.98370740452455
 20
25.07398067176357
 30
0.0
 10
21.9844025387276
 20
25.07382037780981
 30
0.0
 10
21.98478702981356
 20
25.07358486801355
 30
0.0
 10
21.98479320523759
 20
25.07346703390175
 30
0.0
 11
21.92975063243759
 21
25.07346703390175
 31
0.0
 11
21.93482050853759
 21
25.07371974560175
 31
0.0
 11
21.93984728073759
 21
25.07394578530174
 31
0.0
 11
21.94478821223759
 21
25.07414322340175
 31
0.0
 11
21.94960129493759
 21
25.07431038940175
 31
0.0
 11
21.95424560853759
 21
25.07444586060175
 31
0.0
 11
21.95868166713759
 21
25.07454848540175
 31
0.0
 11
21.96287175583759
 21
25.07461739170175
 31
0.0
 11
21.96678025063759
 21
25.07465199340175
 31
0.0
 11
21.97037392183759
 21
25.07465199600175
 31
0.0
 11
21.97362221623759
 21
25.07461739910175
 31
0.0
 11
21.97649751703759
 21
25.07454849680175
 31
0.0
 11
21.97897537853759
 21
25.07444587430175
 31
0.0
 11
21.98103473423759
 21
25.07431040560175
 31
0.0
 11
21.98265807563759
 21
25.07414323750175
 31
0.0
 11
21.98383160073759
 21
25.07394580420175
 31
0.0
 11
21.98454533383759
 21
25.07371975290175
 31
0.0
 11
21.98479320523759
 21
25.07346703390175
 31
0.0
  0
LINE
  5
4A6
330
1F
100
AcDbEntity
  8
0
  6
Continuous
 62
     7
100
AcDbLine
 10
21.92370662553759
 20
25.12552302070175
 30
0.0
 11
21.92303039513759
 21
25.09414659880175
 31
0.0
  0
LINE
  5
4A7
330
1F
100
AcDbEntity
  8
0
  6
Continuous
 62
     7
100
AcDbLine
 10
21.92303039513759
 20
25.09414659880175
 30
0.0
 11
21.92302614273759
 21
25.09393806760175
 31
0.0
  0
LINE
  5
4A8
330
1F
100
AcDbEntity
  8
0
  6
Continuous
 62
     7
100
AcDbLine
 10
21.92302614273759
 20
25.09393806760175
 30
0.0
 11
21.92260835133759
 21
25.07321762000175
 31
0.0
  0
LINE
  5
4A9
330
1F
100
AcDbEntity
  8
0
  6
Continuous
 62
     7
100
AcDbLine
 10
21.92782703813759
 20
25.12566690870175
 30
0.0
 11
21.92903688413759
 21
25.09364478530175
 31
0.0
  0
LINE
  5
4AA
330
1F
100
AcDbEntity
  8
0
  6
Continuous
 62
     7
100
AcDbLine
 10
21.92903688413759
 20
25.09364478530175
 30
0.0
 11
21.92975063243759
 21
25.07346703390175
 31
0.0
  0
SPLINE
  5
4AB
330
1F
100
AcDbEntity
  8
0
  6
Continuous
 62
     7
100
AcDbSpline
210
0.0
220
0.0
230
1.0
 70
     8
 71
     3
 72
     8
 73
     4
 74
     2
 42
0.0000000001
 43
0.0000000001
 44
0.0000000001
 12
0.9999572808280344
 22
0.0092431877079126
 32
0.0
 13
-0.1824938763890335
 23
-0.983206989946931
 33
0.0
 40
0.0
 40
0.0
 40
0.0
 40
0.0
 40
0.0005630449656803
 40
0.0005630449656803
 40
0.0005630449656803
 40
0.0005630449656803
 10
21.91958464183759
 20
25.12545107120175
 30
0.0
 10
21.91977231547522
 20
25.12545280597852
 30
0.0
 10
21.91972817019038
 20
25.12508326241705
 30
0.0
 10
21.91969391943759
 20
25.12489873250175
 30
0.0
 11
21.91958464183759
 21
25.12545107120175
 31
0.0
 11
21.91969391943759
 21
25.12489873250175
 31
0.0
  0
LINE
  5
4AC
330
1F
100
AcDbEntity
  8
0
  6
Continuous
 62
     7
100
AcDbLine
 10
21.91969391943759
 20
25.12489873250175
 30
0.0
 11
21.92144642113759
 21
25.09411895050174
 31
0.0
  0
LINE
  5
4AD
330
1F
100
AcDbEntity
  8
0
  6
Continuous
 62
     7
100
AcDbLine
 10
21.92144642113759
 20
25.09411895050174
 30
0.0
 11
21.9214573413376
 21
25.09392472310175
 31
0.0
  0
LINE
  5
4AE
330
1F
100
AcDbEntity
  8
0
  6
Continuous
 62
     7
100
AcDbLine
 10
21.9214573413376
 20
25.09392472310175
 30
0.0
 11
21.92260835133759
 21
25.07321762000175
 31
0.0
  0
SPLINE
  5
4AF
330
1F
100
AcDbEntity
  8
0
  6
Continuous
 62
     7
100
AcDbSpline
210
0.0
220
0.0
230
1.0
 70
     8
 71
     3
 72
    23
 73
    19
 74
    17
 42
0.0000000001
 43
0.0000000001
 44
0.0000000001
 12
1.0
 22
0.0
 32
0.0
 13
0.3758490736613464
 23
0.9266808910449743
 33
0.0
 40
0.0
 40
0.0
 40
0.0
 40
0.0
 40
0.0043226822365204
 40
0.0086589854435856
 40
0.0129921010726467
 40
0.0173112218247621
 40
0.0216314644314741
 40
0.0259642249949893
 40
0.0302944030371799
 40
0.0346093877277755
 40
0.0389236375050712
 40
0.0432503185879228
 40
0.0475753300800848
 40
0.0518848220972117
 40
0.0561924057527731
 40
0.0605124621610328
 40
0.0648323026325742
 40
0.0653144942974843
 40
0.0653144942974843
 40
0.0653144942974843
 40
0.0653144942974843
 10
16.88562561703759
 20
20.74786797260175
 30
0.0
 10
16.88706651111643
 20
20.74786797260175
 30
0.0
 10
16.8899541067382
 20
20.7479807528901
 30
0.0
 10
16.89425925570208
 20
20.74848793701392
 30
0.0
 10
16.8985106180555
 20
20.74933023597302
 30
0.0
 10
16.90267791962712
 20
20.75050064879226
 30
0.0
 10
16.90674106783239
 20
20.75199272853891
 30
0.0
 10
16.91067841859013
 20
20.75379964947491
 30
0.0
 10
16.91446049611078
 20
20.75590877582175
 30
0.0
 10
16.9180606740811
 20
20.75830409533834
 30
0.0
 10
16.92146154181999
 20
20.76097297393021
 30
0.0
 10
16.92464516855736
 20
20.76390258045101
 30
0.0
 10
16.92758764423932
 20
20.76707216493085
 30
0.0
 10
16.93026820426916
 20
20.77045795496606
 30
0.0
 10
16.93267404851011
 20
20.77404225589119
 30
0.0
 10
16.93479231981954
 20
20.77780739233761
 30
0.0
 10
16.93607133505509
 20
20.78057005400977
 30
0.0
 10
16.93667947060739
 20
20.78205069546785
 30
0.0
 10
16.93673988103759
 20
20.78219964140175
 30
0.0
 11
16.88562561703759
 21
20.74786797260175
 31
0.0
 11
16.88994500463759
 21
20.74803671050175
 31
0.0
 11
16.89425152723759
 21
20.74854404530175
 31
0.0
 11
16.89850201633759
 21
20.74938620530175
 31
0.0
 11
16.90266024133759
 21
20.75055409610175
 31
0.0
 11
16.90671567183759
 21
20.75204338440175
 31
0.0
 11
16.91065354083759
 21
20.75385059270175
 31
0.0
 11
16.91443538383759
 21
20.75595964590175
 31
0.0
 11
16.91802784693759
 21
20.75834989730175
 31
0.0
 11
16.92142175133759
 21
20.76101338450175
 31
0.0
 11
16.92460551543759
 21
20.76394319940175
 31
0.0
 11
16.92754805083759
 21
20.76711293280175
 31
0.0
 11
16.93022300503759
 21
20.77049174050175
 31
0.0
 11
16.93262364123759
 21
20.77406836220175
 31
0.0
 11
16.93474182193759
 21
20.77783349140175
 31
0.0
 11
16.93655668283759
 21
20.78175360640175
 31
0.0
 11
16.93673988103759
 21
20.78219964140175
 31
0.0
  0
SPLINE
  5
4B0
330
1F
100
AcDbEntity
  8
0
  6
Continuous
 62
     7
100
AcDbSpline
210
0.0
220
0.0
230
1.0
 70
     8
 71
     3
 72
    27
 73
    23
 74
    21
 42
0.0000000001
 43
0.0000000001
 44
0.0000000001
 12
1.0
 22
0.0
 32
0.0
 13
-0.0000008613559007
 23
0.999999999999629
 33
0.0
 40
0.0
 40
0.0
 40
0.0
 40
0.0
 40
0.0043227839722106
 40
0.0086591862952187
 40
0.0129923969323685
 40
0.017311607427143
 40
0.0216319350916424
 40
0.0259647727425318
 40
0.0302950186200405
 40
0.0346100608722947
 40
0.0389243601110477
 40
0.0432510791191442
 40
0.0475761167807025
 40
0.0518856234269911
 40
0.0561932136120733
 40
0.0605132663331865
 40
0.0648330939170152
 40
0.0691381354555127
 40
0.0734405606284454
 40
0.0777556593465158
 40
0.082072653134586
 40
0.0863754459405038
 40
0.0863754459405038
 40
0.0863754459405038
 40
0.0863754459405038
 10
16.78969169603759
 20
21.33290102970175
 30
0.0
 10
16.79113262402833
 20
21.33290102970175
 30
0.0
 10
16.79402028661797
 20
21.33301381184327
 30
0.0
 10
16.79832553393561
 20
21.33352100439324
 30
0.0
 10
16.80257699017804
 20
21.33436331657454
 30
0.0
 10
16.80674438029096
 20
21.33553374690539
 30
0.0
 10
16.81080761046562
 20
21.33702584712224
 30
0.0
 10
16.8147450353465
 20
21.33883279045171
 30
0.0
 10
16.81852717757418
 20
21.34094193939947
 30
0.0
 10
16.82212741120315
 20
21.34333728064718
 30
0.0
 10
16.82552832526482
 20
21.34600617816774
 30
0.0
 10
16.82871198938757
 20
21.3489358013628
 30
0.0
 10
16.83165449176786
 20
21.3521053920758
 30
0.0
 10
16.83433507733768
 20
21.35549119927109
 30
0.0
 10
16.83674091564292
 20
21.35907544937293
 30
0.0
 10
16.83885926996121
 20
21.36284075869032
 30
0.0
 10
16.84067401970477
 20
21.36676049956632
 30
0.0
 10
16.84217254176476
 20
21.37080539062539
 30
0.0
 10
16.84334802805267
 20
21.37495402523135
 30
0.0
 10
16.84419396366763
 20
21.37918635953136
 30
0.0
 10
16.84470331635338
 20
21.38347210170865
 30
0.0
 10
16.844816554373
 20
21.38634664803311
 30
0.0
 10
16.84481655313759
 20
21.38778091230175
 30
0.0
 11
16.78969169603759
 21
21.33290102970175
 31
0.0
 11
16.79401118533759
 21
21.33306977050175
 31
0.0
 11
16.79831780673759
 21
21.33357711380175
 31
0.0
 11
16.80256839003759
 21
21.33441928720175
 31
0.0
 11
16.80672670333759
 21
21.33558719550175
 31
0.0
 11
16.81078221673759
 21
21.33707650480175
 31
0.0
 11
16.81472016013759
 21
21.33888373580175
 31
0.0
 11
16.81850206803759
 21
21.34099281190175
 31
0.0
 11
16.82209458603759
 21
21.34338308470175
 31
0.0
 11
16.82548853753759
 21
21.34604659200175
 31
0.0
 11
16.82867233863759
 21
21.34897642270175
 31
0.0
 11
16.83161490183759
 21
21.35214616600175
 31
0.0
 11
16.83428987543759
 21
21.35552497700174
 31
0.0
 11
16.83669052573759
 21
21.35910159710175
 31
0.0
 11
16.83880871473759
 21
21.36286671740175
 31
0.0
 11
16.84062357973759
 21
21.36678681630175
 31
0.0
 11
16.84211911173759
 21
21.37082374170175
 31
0.0
 11
16.84329196583759
 21
21.37496321940175
 31
0.0
 11
16.84413770573759
 21
21.37919462590175
 31
0.0
 11
16.84464714063759
 21
21.38348145590175
 31
0.0
 11
16.84481655313759
 21
21.38778091230175
 31
0.0
  0
SPLINE
  5
4B1
330
1F
100
AcDbEntity
  8
0
  6
Continuous
 62
     7
100
AcDbSpline
210
0.0
220
0.0
230
1.0
 70
     8
 71
     3
 72
    27
 73
    23
 74
    21
 42
0.0000000001
 43
0.0000000001
 44
0.0000000001
 12
1.0
 22
0.0
 32
0.0
 13
-0.0000008613590649
 23
0.999999999999629
 33
0.0
 40
0.0
 40
0.0
 40
0.0
 40
0.0
 40
0.0043227337558215
 40
0.0086590870232738
 40
0.012992250764372
 40
0.017311416930847
 40
0.0216317025578125
 40
0.0259645020494096
 40
0.030294714475331
 40
0.0346097283489343
 40
0.0389240030844901
 40
0.0432507033448443
 40
0.0475757280944131
 40
0.0518852274653181
 40
0.0561928144692306
 40
0.0605128690148517
 40
0.0648327030181665
 40
0.0691377547916679
 40
0.0734401926646734
 40
0.0777553064839949
 40
0.0820723175101904
 40
0.0863751286639607
 40
0.0863751286639607
 40
0.0863751286639607
 40
0.0863751286639607
 10
16.83842437313759
 20
21.04038450110175
 30
0.0
 10
16.83986528438953
 20
21.04038450110175
 30
0.0
 10
16.84275291387778
 20
21.04049728237113
 30
0.0
 10
16.84705811260719
 20
21.04100447074107
 30
0.0
 10
16.85130952243646
 20
21.04184677644768
 30
0.0
 10
16.85547686886227
 20
21.04301719798321
 30
0.0
 10
16.85954005844717
 20
21.04450928826415
 30
0.0
 10
16.86347744675028
 20
21.04631622040479
 30
0.0
 10
16.8672595570353
 20
21.04842535817217
 30
0.0
 10
16.87085976313669
 20
21.05082068880845
 30
0.0
 10
16.87426065432007
 20
21.05348957677104
 30
0.0
 10
16.87744430008938
 20
21.05641919223891
 30
0.0
 10
16.88038678865614
 20
21.05958877805161
 30
0.0
 10
16.88306736406442
 20
21.06297458333767
 30
0.0
 10
16.88547319558557
 20
21.06655883450552
 30
0.0
 10
16.88759154566833
 20
21.07032414813328
 30
0.0
 10
16.88940629317461
 20
21.07424389681964
 30
0.0
 10
16.89090481456438
 20
21.07828879853913
 30
0.0
 10
16.89208030083651
 20
21.08243744635477
 30
0.0
 10
16.89292623638903
 20
21.08666979586736
 30
0.0
 10
16.89343559166357
 20
21.09095555492059
 30
0.0
 10
16.89354882437301
 20
21.09383011331716
 30
0.0
 10
16.89354882313759
 20
21.09526438370175
 30
0.0
 11
16.83842437313759
 21
21.04038450110175
 31
0.0
 11
16.84274381223759
 21
21.04055324050175
 31
0.0
 11
16.84705038473759
 21
21.04106057960175
 31
0.0
 11
16.85130092153759
 21
21.04190274640175
 31
0.0
 11
16.85545919123759
 21
21.04307064600175
 31
0.0
 11
16.85951466363759
 21
21.04455994500175
 31
0.0
 11
16.86345257023759
 21
21.04636716470175
 31
0.0
 11
16.86723444613759
 21
21.04847622950175
 31
0.0
 11
16.87082693703759
 21
21.05086649180175
 31
0.0
 11
16.87422086523759
 21
21.05352998910175
 31
0.0
 11
16.87740464803759
 21
21.05645981200175
 31
0.0
 11
16.88034719753759
 21
21.05962955040175
 31
0.0
 11
16.88302216143759
 21
21.06300835980175
 31
0.0
 11
16.88542280483759
 21
21.06658498070175
 31
0.0
 11
16.88754098973759
 21
21.07035010540175
 31
0.0
 11
16.88935585273759
 21
21.07427021230175
 31
0.0
 11
16.89085138423759
 21
21.07830714880175
 31
0.0
 11
16.89202423833759
 21
21.08244663970175
 31
0.0
 11
16.89286997873759
 21
21.08667806150175
 31
0.0
 11
16.89337941413759
 21
21.09096490880175
 31
0.0
 11
16.89354882313759
 21
21.09526438370175
 31
0.0
  0
LINE
  5
4B2
330
1F
100
AcDbEntity
  8
0
  6
Continuous
 62
     7
100
AcDbLine
 10
16.83230998053759
 20
21.60258034320175
 30
0.0
 11
16.84481641923759
 21
21.52890061030175
 31
0.0
  0
SPLINE
  5
4B3
330
1F
100
AcDbEntity
  8
_SURFACE
  6
Continuous
 62
     7
100
AcDbSpline
210
0.0
220
0.0
230
1.0
 70
     8
 71
     3
 72
    14
 73
    10
 74
     8
 42
0.0000000001
 43
0.0000000001
 44
0.0000000001
 12
0.1638323780005942
 22
0.9864881914745206
 32
0.0
 13
0.1679412017123412
 23
0.985797013977733
 33
0.0
 40
0.0
 40
0.0
 40
0.0
 40
0.0
 40
0.0152376045385384
 40
0.0554103429477965
 40
0.095486533976584
 40
0.1354662730513652
 40
0.1753495778447542
 40
0.2151366007325463
 40
0.2540447984191521
 40
0.2540447984191521
 40
0.2540447984191521
 40
0.2540447984191521
 10
21.13071909933759
 20
21.35206143020175
 30
0.0
 10
21.13155123699979
 20
21.35707200251629
 30
0.0
 10
21.13457957265853
 20
21.37529216475211
 30
0.0
 10
21.13981276393643
 20
21.40668785282939
 30
0.0
 10
21.14642833122452
 20
21.44621427608447
 30
0.0
 10
21.15305401153973
 20
21.48564117805653
 30
0.0
 10
21.15968942964252
 20
21.52496869394154
 30
0.0
 10
21.16629064736298
 20
21.56393974282863
 30
0.0
 10
21.17068798594561
 20
21.58980028636884
 30
0.0
 10
21.17286608243759
 20
21.60258548140175
 30
0.0
 11
21.13071909933759
 21
21.35206143020175
 31
0.0
 11
21.13321743503759
 21
21.36709282770175
 31
0.0
 11
21.13982246613759
 21
21.40671886050175
 31
0.0
 11
21.14643799403759
 21
21.44624525520175
 31
0.0
 11
21.15306363963759
 21
21.48567215410174
 31
0.0
 11
21.15969901623759
 21
21.52499962260175
 31
0.0
 11
21.16634376533759
 21
21.56422785860175
 31
0.0
 11
21.17286608243759
 21
21.60258548140175
 31
0.0
  0
LINE
  5
4B4
330
1F
100
AcDbEntity
  8
0
  6
Continuous
 62
     7
100
AcDbLine
 10
16.85713848443759
 20
21.45577147820175
 30
0.0
 11
16.87417119943759
 21
21.35377382420175
 31
0.0
  0
SPLINE
  5
4B5
330
1F
100
AcDbEntity
  8
0
  6
Continuous
 62
     7
100
AcDbSpline
210
0.0
220
0.0
230
1.0
 70
     8
 71
     3
 72
    24
 73
    20
 74
    18
 42
0.0000000001
 43
0.0000000001
 44
0.0000000001
 12
1.0
 22
0.0
 32
0.0
 13
-0.0000008618310187
 23
0.9999999999996285
 33
0.0
 40
0.0
 40
0.0
 40
0.0
 40
0.0
 40
0.0021810746065098
 40
0.0043633984323868
 40
0.0065449564090375
 40
0.0087270307046573
 40
0.0109069271225933
 40
0.0130882302021087
 40
0.0152661446827323
 40
0.0174461511606193
 40
0.0196221341769077
 40
0.0218003621723873
 40
0.02397462991334
 40
0.0261507609829652
 40
0.0283238438760871
 40
0.0304980320684119
 40
0.0326705577308919
 40
0.0348433239353827
 40
0.0370142166168795
 40
0.0370142166168795
 40
0.0370142166168795
 40
0.0370142166168795
 10
16.80201381603759
 20
21.29113183040175
 30
0.0
 10
16.80274084090642
 20
21.29113183040175
 30
0.0
 10
16.80419619334629
 20
21.29119876385734
 30
0.0
 10
16.80636002165423
 20
21.29149919032066
 30
0.0
 10
16.80848760387862
 20
21.29199726869778
 30
0.0
 10
16.81055957209346
 20
21.29268857875532
 30
0.0
 10
16.81255911393605
 20
21.29356747855601
 30
0.0
 10
16.81446807259699
 20
21.29462600941764
 30
0.0
 10
16.81627146584665
 20
21.29585585500498
 30
0.0
 10
16.81795247425231
 20
21.2972455610662
 30
0.0
 10
16.81949819935465
 20
21.29878446579636
 30
0.0
 10
16.82089404400037
 20
21.30045803631542
 30
0.0
 10
16.82212931837531
 20
21.30225344692172
 30
0.0
 10
16.82319247968198
 20
21.3041538870903
 30
0.0
 10
16.82407522826224
 20
21.30614451863097
 30
0.0
 10
16.82476953624335
 20
21.30820717364291
 30
0.0
 10
16.82526977783553
 20
21.31032521870269
 30
0.0
 10
16.82557149110679
 20
21.31247922193358
 30
0.0
 10
16.82563871126124
 20
21.31392800570791
 30
0.0
 10
16.82563871063759
 20
21.31465163660175
 30
0.0
 11
16.80201381603759
 21
21.29113183040175
 31
0.0
 11
16.80419258623759
 21
21.29123206440175
 31
0.0
 11
16.80635417673759
 21
21.29153217070175
 31
0.0
 11
16.80847829803759
 21
21.29202946730175
 31
0.0
 11
16.81054819263759
 21
21.29272010800175
 31
0.0
 11
16.81254380223759
 21
21.29359731420175
 31
0.0
 11
16.81445143593759
 21
21.29465515010175
 31
0.0
 11
16.81625074613759
 21
21.29588225820175
 31
0.0
 11
16.81793090783759
 21
21.29727131720175
 31
0.0
 11
16.81947292923759
 21
21.29880659310175
 31
0.0
 11
16.82086807453759
 21
21.30047938920175
 31
0.0
 11
16.82210045773759
 21
21.30227066580175
 31
0.0
 11
16.82316286573759
 21
21.30416983290175
 31
0.0
 11
16.82404376383759
 21
21.30615636450174
 31
0.0
 11
16.82473734683759
 21
21.30821695590175
 31
0.0
 11
16.82523670823759
 21
21.31033131300175
 31
0.0
 11
16.82553807383759
 21
21.31248307780175
 31
0.0
 11
16.82563871063759
 21
21.31465163660175
 31
0.0
  0
SPLINE
  5
4B6
330
1F
100
AcDbEntity
  8
0
  6
Continuous
 62
     7
100
AcDbSpline
210
0.0
220
0.0
230
1.0
 70
     8
 71
     3
 72
    24
 73
    20
 74
    18
 42
0.0000000001
 43
0.0000000001
 44
0.0000000001
 12
1.0
 22
0.0
 32
0.0
 13
-0.0000008618308697
 23
0.9999999999996287
 33
0.0
 40
0.0
 40
0.0
 40
0.0
 40
0.0
 40
0.0021810488923031
 40
0.0043633475981504
 40
0.006544881661533
 40
0.0087269338217697
 40
0.0109068101971116
 40
0.0130880958885113
 40
0.0152659959781103
 40
0.0174459911508892
 40
0.0196219661699175
 40
0.0218001893371383
 40
0.0239744555628871
 40
0.0261505878098277
 40
0.028323674664838
 40
0.0304978689865782
 40
0.0326704024064938
 40
0.0348431775933454
 40
0.0370142230109403
 40
0.0370142230109403
 40
0.0370142230109403
 40
0.0370142230109403
 10
16.85037154613759
 20
20.99861530190175
 30
0.0
 10
16.85109856243502
 20
20.99861530190175
 30
0.0
 10
16.85255389792558
 20
20.99868223476217
 30
0.0
 10
16.8547177014148
 20
20.9989826586826
 30
0.0
 10
16.85684526020059
 20
20.99948073302235
 30
0.0
 10
16.85891720689268
 20
21.00017203793898
 30
0.0
 10
16.86091672955052
 20
21.00105093199484
 30
0.0
 10
16.86282567180499
 20
21.00210945679826
 30
0.0
 10
16.86462905138592
 20
21.00333929691722
 30
0.0
 10
16.86631004912015
 20
21.00472899823508
 30
0.0
 10
16.86785576621257
 20
21.00626789959198
 30
0.0
 10
16.86925160538426
 20
21.00794146845037
 30
0.0
 10
16.87048687605118
 20
21.00973687949373
 30
0.0
 10
16.87155003579208
 20
21.01163732192792
 30
0.0
 10
16.8724327833917
 20
21.01362795796442
 30
0.0
 10
16.87312709199937
 20
21.01569061915164
 30
0.0
 10
16.87362733225432
 20
21.01780867207117
 30
0.0
 10
16.87392905798384
 20
21.01996273120938
 30
0.0
 10
16.87399626296128
 20
21.02141156979588
 30
0.0
 10
16.87399626233759
 20
21.02213525160175
 30
0.0
 11
16.85037154613759
 21
20.99861530190175
 31
0.0
 11
16.85255029063759
 21
20.99871553500175
 31
0.0
 11
16.85471185613759
 21
20.99901563870175
 31
0.0
 11
16.85683595383759
 21
20.99951293120175
 31
0.0
 11
16.85890582683759
 21
21.00020356670175
 31
0.0
 11
16.86090141713759
 21
21.00108076700175
 31
0.0
 11
16.86280903433759
 21
21.00213859680175
 31
0.0
 11
16.86460833093759
 21
21.00336569930175
 31
0.0
 11
16.86628848193759
 21
21.00475475350175
 31
0.0
 11
16.86783049543759
 21
21.00629002600175
 31
0.0
 11
16.86922563523759
 21
21.00796282040175
 31
0.0
 11
16.87045801503759
 21
21.00975409750175
 31
0.0
 11
16.87152042133759
 21
21.01165326690175
 31
0.0
 11
16.87240131883759
 21
21.01363980310175
 31
0.0
 11
16.87309490203759
 21
21.01570040090175
 31
0.0
 11
16.87359426373759
 21
21.01781476590175
 31
0.0
 11
16.87389562983759
 21
21.01996653970175
 31
0.0
 11
16.87399626233759
 21
21.02213525160175
 31
0.0
  0
SPLINE
  5
4B7
330
1F
100
AcDbEntity
  8
0
  6
Continuous
 62
     7
100
AcDbSpline
210
0.0
220
0.0
230
1.0
 70
     8
 71
     3
 72
    24
 73
    20
 74
    18
 42
0.0000000001
 43
0.0000000001
 44
0.0000000001
 12
1.0
 22
0.0
 32
0.0
 13
-0.0000008618341341
 23
0.9999999999996285
 33
0.0
 40
0.0
 40
0.0
 40
0.0
 40
0.0
 40
0.0021810227785171
 40
0.0043632957700365
 40
0.0065448053359512
 40
0.0087268348232074
 40
0.0109066907495331
 40
0.0130879586545097
 40
0.015265843909938
 40
0.0174458275597523
 40
0.0196217943692395
 40
0.0218000125801072
 40
0.0239742772649512
 40
0.0261504108149355
 40
0.0283235016318356
 40
0.0304977021458677
 40
0.0326702436381743
 40
0.0348430279777118
 40
0.0370140828392222
 40
0.0370140828392222
 40
0.0370140828392222
 40
0.0370140828392222
 10
16.89717645333759
 20
20.70609877330175
 30
0.0
 10
16.89790346093043
 20
20.70609877330175
 30
0.0
 10
16.89935877913988
 20
20.70616570556014
 30
0.0
 10
16.90152255728584
 20
20.7064661269288
 30
0.0
 10
16.9036500920197
 20
20.70696419731561
 30
0.0
 10
16.90572201674238
 20
20.70765549680797
 30
0.0
 10
16.90772151976888
 20
20.70853438503988
 30
0.0
 10
16.90963044519092
 20
20.70959290368752
 30
0.0
 10
16.91143381078511
 20
20.71082273817717
 30
0.0
 10
16.91311479757975
 20
20.71221243461328
 30
0.0
 10
16.91466050653112
 20
20.71375133247897
 30
0.0
 10
16.91605633988963
 20
20.71542489978314
 30
0.0
 10
16.91729160717142
 20
20.71722031103679
 30
0.0
 10
16.91835476498866
 20
20.71912075597525
 30
0.0
 10
16.91923751183297
 20
20.72111139648869
 30
0.0
 10
16.91993182068456
 20
20.72317406406554
 30
0.0
 10
16.92043206040153
 20
20.72529212496677
 30
0.0
 10
16.92073378953279
 20
20.72744619289835
 30
0.0
 10
16.92080098666129
 20
20.72889503804791
 30
0.0
 10
16.92080098603759
 20
20.72961872300175
 30
0.0
 11
16.89717645333759
 21
20.70609877330175
 31
0.0
 11
16.89935517173759
 21
20.70619900550175
 31
0.0
 11
16.90151671163759
 21
20.70649910660175
 31
0.0
 11
16.90364078513759
 21
20.70699639500175
 31
0.0
 11
16.90571063603759
 21
20.70768702510175
 31
0.0
 11
16.90770620663759
 21
20.70856421940175
 31
0.0
 11
16.90961380693759
 21
20.70962204300175
 31
0.0
 11
16.91141308953759
 21
20.71084913970175
 31
0.0
 11
16.91309322963759
 21
20.71223818900175
 31
0.0
 11
16.91463523503759
 21
20.71377345800175
 31
0.0
 11
16.91603036913759
 21
20.71544625070175
 31
0.0
 11
16.91726274563759
 21
20.71723752820175
 31
0.0
 11
16.91832515013759
 21
20.71913670010175
 31
0.0
 11
16.91920604703759
 21
20.72112324090175
 31
0.0
 11
16.91989963033759
 21
20.72318384520174
 31
0.0
 11
16.92039899243759
 21
20.72529821840175
 31
0.0
 11
16.92070035883759
 21
20.72745000140175
 31
0.0
 11
16.92080098603759
 21
20.72961872300175
 31
0.0
  0
SPLINE
  5
4B8
330
1F
100
AcDbEntity
  8
0
  6
Continuous
 62
     7
100
AcDbSpline
210
0.0
220
0.0
230
1.0
 70
     8
 71
     3
 72
    15
 73
    11
 74
     9
 42
0.0000000001
 43
0.0000000001
 44
0.0000000001
 12
-0.9999989098609464
 22
0.0014765760795887
 32
0.0
 13
-0.8224076983382751
 23
0.5688985653997914
 33
0.0
 40
0.0
 40
0.0
 40
0.0
 40
0.0
 40
0.0045551896555213
 40
0.0091106671450445
 40
0.0136661578390176
 40
0.0182213865412944
 40
0.0227760855014904
 40
0.0273300011481452
 40
0.0318829010326603
 40
0.0333928351978668
 40
0.0333928351978668
 40
0.0333928351978668
 40
0.0333928351978668
 10
21.25887406973759
 20
21.58649585080175
 30
0.0
 10
21.25735567484102
 20
21.58649809282978
 30
0.0
 10
21.25431749031709
 20
21.58662769807678
 30
0.0
 10
21.24979276597944
 20
21.58719605742713
 30
0.0
 10
21.24532974845706
 20
21.58813450050079
 30
0.0
 10
21.24095934024476
 20
21.5894366076694
 30
0.0
 10
21.23671122372279
 20
21.59109352617936
 30
0.0
 10
21.23261466184196
 20
21.59309379478995
 30
0.0
 10
21.22956931619233
 20
21.5949052981502
 30
0.0
 10
21.22789157669807
 20
21.59603229557494
 30
0.0
 10
21.22747764953759
 20
21.59631862870175
 30
0.0
 11
21.25887406973759
 21
21.58649585080175
 31
0.0
 11
21.25432302003759
 21
21.58669001420175
 31
0.0
 11
21.24980305713759
 21
21.58725773820175
 31
0.0
 11
21.24534505703759
 21
21.58819514450175
 31
0.0
 11
21.24097947273759
 21
21.58949582980175
 31
0.0
 11
21.23673612553759
 21
21.59115090900175
 31
0.0
 11
21.23264400193759
 21
21.59314907620175
 31
0.0
 11
21.22873105553759
 21
21.59547668180175
 31
0.0
 11
21.22747764953759
 21
21.59631862870175
 31
0.0
  0
SPLINE
  5
4B9
330
1F
100
AcDbEntity
  8
0
  6
Continuous
 62
     7
100
AcDbSpline
210
0.0
220
0.0
230
1.0
 70
     8
 71
     3
 72
    22
 73
    18
 74
    16
 42
0.0000000001
 43
0.0000000001
 44
0.0000000001
 12
-0.9999988958371339
 22
0.0014860432405843
 32
0.0
 13
-0.3258263371011178
 23
0.9454296367531901
 33
0.0
 40
0.0
 40
0.0
 40
0.0
 40
0.0
 40
0.0045551655311294
 40
0.0091106249977019
 40
0.0136661036722602
 40
0.0182213262065191
 40
0.0227760243499863
 40
0.0273299441053644
 40
0.0318828524158793
 40
0.0364345441146866
 40
0.0409848467324625
 40
0.0455336257194184
 40
0.0500807882104052
 40
0.0546262850594329
 40
0.0591701128549088
 40
0.063712313677015
 40
0.0682500345295514
 40
0.0682500345295514
 40
0.0682500345295514
 40
0.0682500345295514
 10
21.25480751883759
 20
21.56280914440175
 30
0.0
 10
21.25328913200377
 20
21.56281140079273
 30
0.0
 10
21.25025096293704
 20
21.56294103348177
 30
0.0
 10
21.24572626090381
 20
21.56350943116923
 30
0.0
 10
21.24126326578953
 20
21.56444790750033
 30
0.0
 10
21.2368928640798
 20
21.56575005340258
 30
0.0
 10
21.23264479682513
 20
21.56740697725053
 30
0.0
 10
21.22854810813245
 20
21.56940736523418
 30
0.0
 10
21.22463077208056
 20
21.57173755778637
 30
0.0
 10
21.22091954895316
 20
21.57438164290764
 30
0.0
 10
21.21743978967996
 20
21.57732156538267
 30
0.0
 10
21.21421526687039
 20
21.58053724616362
 30
0.0
 10
21.21126800759774
 20
21.58400673152002
 30
0.0
 10
21.2086181583003
 20
21.58770629810648
 30
0.0
 10
21.20628378983575
 20
21.59161078087472
 30
0.0
 10
21.20428141814261
 20
21.59569224379624
 30
0.0
 10
21.20317616125898
 20
21.59851425417598
 30
0.0
 10
21.20268332493759
 20
21.59994428610175
 30
0.0
 11
21.25480751883759
 21
21.56280914440175
 31
0.0
 11
21.25025649503759
 21
21.56300334890175
 31
0.0
 11
21.24573655503759
 21
21.56357111060175
 31
0.0
 11
21.24127857453759
 21
21.56450855170175
 31
0.0
 11
21.23691300623759
 21
21.56580926910175
 31
0.0
 11
21.23266967153759
 21
21.56746437810175
 31
0.0
 11
21.22857755703759
 21
21.56946257330175
 31
0.0
 11
21.22466461653759
 21
21.57179020530175
 31
0.0
 11
21.22095757963759
 21
21.57443137450175
 31
0.0
 11
21.21748176983759
 21
21.57736803930175
 31
0.0
 11
21.21426093093759
 21
21.58058013940175
 31
0.0
 11
21.21131706493759
 21
21.58404573310175
 31
0.0
 11
21.20867028213759
 21
21.58774114680175
 31
0.0
 11
21.20633866323759
 21
21.59164113710175
 31
0.0
 11
21.20433813593759
 21
21.59571906290175
 31
0.0
 11
21.20268332493759
 21
21.59994428610175
 31
0.0
  0
SPLINE
  5
4BA
330
1F
100
AcDbEntity
  8
0
  6
Continuous
 62
     7
100
AcDbSpline
210
0.0
220
0.0
230
1.0
 70
     8
 71
     3
 72
    18
 73
    14
 74
    12
 42
0.0000000001
 43
0.0000000001
 44
0.0000000001
 12
-0.999999115438602
 22
0.0013300834611436
 32
0.0
 13
-0.6438639710295249
 23
0.7651399785726083
 33
0.0
 40
0.0
 40
0.0
 40
0.0
 40
0.0
 40
0.0045552618657379
 40
0.0091107546215601
 40
0.0136662045270809
 40
0.0182213388355487
 40
0.0227758933953013
 40
0.0273296198477512
 40
0.0318822922556588
 40
0.0364337132018489
 40
0.0409837193276808
 40
0.0455321858459101
 40
0.048065901786411
 40
0.048065901786411
 40
0.048065901786411
 40
0.048065901786411
 10
21.08439031773759
 20
20.52320259990175
 30
0.0
 10
21.08287189845881
 20
20.5232046195279
 30
0.0
 10
21.07983366592586
 20
20.52333377675946
 30
0.0
 10
21.07530884123064
 20
20.52390146906883
 30
0.0
 10
21.07084572823524
 20
20.5248392507887
 30
0.0
 10
21.06647521408971
 20
20.52614071743152
 30
0.0
 10
21.06222704109832
 20
20.52779698103365
 30
0.0
 10
21.05813025183842
 20
20.52979673365399
 30
0.0
 10
21.05421282815488
 20
20.53212631219068
 30
0.0
 10
21.05050150434754
 20
20.53476983795853
 30
0.0
 10
21.04702172968043
 20
20.53770914872359
 30
0.0
 10
21.04427267623474
 20
20.54045020014105
 30
0.0
 10
21.04271100460656
 20
20.54222166741494
 30
0.0
 10
21.04216721513759
 20
20.54286788320175
 30
0.0
 11
21.08439031773759
 21
20.52320259990175
 31
0.0
 11
21.07983916733759
 21
20.52339609590175
 31
0.0
 11
21.07531910563759
 21
20.52396315540175
 31
0.0
 11
21.07086100913759
 21
20.52489990480175
 31
0.0
 11
21.06649533123759
 21
20.52619994520175
 31
0.0
 11
21.06225189393759
 21
20.52785439590175
 31
0.0
 11
21.05815968413759
 21
20.52985195530175
 31
0.0
 11
21.05424665583759
 21
20.53217897820175
 31
0.0
 11
21.05053953903759
 21
20.53481956860175
 31
0.0
 11
21.04706365703759
 21
20.53775568850175
 31
0.0
 11
21.04384275363759
 21
20.54096728140175
 31
0.0
 11
21.04216721513759
 21
20.54286788320175
 31
0.0
  0
SPLINE
  5
4BB
330
1F
100
AcDbEntity
  8
0
  6
Continuous
 62
     7
100
AcDbSpline
210
0.0
220
0.0
230
1.0
 70
     8
 71
     3
 72
    21
 73
    17
 74
    15
 42
0.0000000001
 43
0.0000000001
 44
0.0000000001
 12
-0.4859431688968362
 22
-0.8739904099030498
 32
0.0
 13
-1.0
 23
0.0
 33
0.0
 40
0.0
 40
0.0
 40
0.0
 40
0.0
 40
0.0024350394319398
 40
0.0067426223061457
 40
0.0110521124742089
 40
0.015377120559096
 40
0.0197037967555949
 40
0.0240180402076904
 40
0.0283330174915001
 40
0.0326631868722582
 40
0.0369959375011267
 40
0.041316169226819
 40
0.0456352784779612
 40
0.0499683820054443
 40
0.0543046723717197
 40
0.0586273416064383
 40
0.0586273416064383
 40
0.0586273416064383
 40
0.0586273416064383
 10
16.94540466073759
 20
20.70304060650175
 30
0.0
 10
16.94501023047828
 20
20.70233120613133
 30
0.0
 10
16.94387434451664
 20
20.70039097432576
 30
0.0
 10
16.94181893933265
 20
20.69732875849923
 30
0.0
 10
16.93913841615099
 20
20.6939430217268
 30
0.0
 10
16.93619593469154
 20
20.69077342449459
 30
0.0
 10
16.93301231530973
 20
20.68784382367543
 30
0.0
 10
16.92961145278039
 20
20.68517494664579
 30
0.0
 10
16.92601128219681
 20
20.68277963005465
 30
0.0
 10
16.92222921292553
 20
20.6806705065572
 30
0.0
 10
16.91829187170854
 20
20.67886358845469
 30
0.0
 10
16.91422873400621
 20
20.67737151134501
 30
0.0
 10
16.9100614437287
 20
20.67620110085536
 30
0.0
 10
16.90581009343597
 20
20.67535880355601
 30
0.0
 10
16.90150495708381
 20
20.67485162055217
 30
0.0
 10
16.8986173700825
 20
20.67473884040175
 30
0.0
 10
16.89717648033759
 20
20.67473884040175
 30
0.0
 11
16.94540466073759
 21
20.70304060650175
 31
0.0
 11
16.94417440123759
 21
20.70093920730175
 31
0.0
 11
16.94177376673759
 21
20.69736258540175
 31
0.0
 11
16.93909881513759
 21
20.69398377800175
 31
0.0
 11
16.93615628323759
 21
20.69081404600175
 31
0.0
 11
16.93297252393759
 21
20.68788423310175
 31
0.0
 11
16.92957862553759
 21
20.68522074850175
 31
0.0
 11
16.92598616953759
 21
20.68283049980175
 31
0.0
 11
16.92220433483759
 21
20.68072144950175
 31
0.0
 11
16.91826647543759
 21
20.67891424410175
 31
0.0
 11
16.91421105553759
 21
20.67742495850175
 31
0.0
 11
16.91005284183759
 21
20.67625707000175
 31
0.0
 11
16.90580236473759
 21
20.67541491170175
 31
0.0
 11
16.90149585493759
 21
20.67490757800175
 31
0.0
 11
16.89717648033759
 21
20.67473884040175
 31
0.0
  0
SPLINE
  5
4BC
330
1F
100
AcDbEntity
  8
0
  6
Continuous
 62
     7
100
AcDbSpline
210
0.0
220
0.0
230
1.0
 70
     8
 71
     3
 72
    18
 73
    14
 74
    12
 42
0.0000000001
 43
0.0000000001
 44
0.0000000001
 12
0.9999991131586167
 22
0.0013317965235895
 32
0.0
 13
0.645176162321341
 23
0.7640338471378783
 33
0.0
 40
0.0
 40
0.0
 40
0.0
 40
0.0
 40
0.0045552617974281
 40
0.0091107545319653
 40
0.0136662043366322
 40
0.0182213385527351
 40
0.0227758931191742
 40
0.0273296194970062
 40
0.0318822918055589
 40
0.0364337126021146
 40
0.040983718703715
 40
0.0455321850692734
 40
0.0479713357860512
 40
0.0479713357860512
 40
0.0479713357860512
 40
0.0479713357860512
 10
16.92078404883759
 20
20.52319908160175
 30
0.0
 10
16.92230246809013
 20
20.52320110382902
 30
0.0
 10
16.92534070037445
 20
20.52333026624974
 30
0.0
 10
16.92986552402105
 20
20.52389796640753
 30
0.0
 10
16.93432863534401
 20
20.52483575571527
 30
0.0
 10
16.93869914721801
 20
20.52613722979383
 30
0.0
 10
16.94294731733973
 20
20.5277935005211
 30
0.0
 10
16.94704410320399
 20
20.52979326027026
 30
0.0
 10
16.95096152240157
 20
20.53212284518552
 30
0.0
 10
16.95467284296709
 20
20.53476637851307
 30
0.0
 10
16.95815260774657
 20
20.53770569004885
 30
0.0
 10
16.96087932245502
 20
20.54042447895936
 30
0.0
 10
16.96242159180467
 20
20.54217091709979
 30
0.0
 10
16.96294615243759
 20
20.54279211500174
 30
0.0
 11
16.92078404883759
 21
20.52319908160175
 31
0.0
 11
16.92533519883759
 21
20.52339258540175
 31
0.0
 11
16.92985525953759
 21
20.52395965270175
 31
0.0
 11
16.93431335433759
 21
20.52489640970175
 31
0.0
 11
16.93867902993759
 21
20.52619645750175
 31
0.0
 11
16.94292246443759
 21
20.52785091540175
 31
0.0
 11
16.94701467073759
 21
20.52984848180175
 31
0.0
 11
16.95092769493759
 21
20.53217551140175
 31
0.0
 11
16.95463480713759
 21
20.53481610800175
 31
0.0
 11
16.95811068403759
 21
20.53775223390175
 31
0.0
 11
16.96133158183759
 21
20.54096383220175
 31
0.0
 11
16.96294615243759
 21
20.54279211500174
 31
0.0
  0
SPLINE
  5
4BD
330
1F
100
AcDbEntity
  8
0
  6
Continuous
 62
     7
100
AcDbSpline
210
0.0
220
0.0
230
1.0
 70
     8
 71
     3
 72
    27
 73
    23
 74
    21
 42
0.0000000001
 43
0.0000000001
 44
0.0000000001
 12
0.0000008613598657
 22
-0.999999999999629
 32
0.0
 13
-1.0
 23
0.0
 33
0.0
 40
0.0
 40
0.0
 40
0.0
 40
0.0
 40
0.0043028160469885
 40
0.0086198314660412
 40
0.0129349491097223
 40
0.0172373901850061
 40
0.021542444643159
 40
0.025862280251347
 40
0.0301823352163223
 40
0.034489921383146
 40
0.0387994189507245
 40
0.0431244403663048
 40
0.0474511359551856
 40
0.0517654045059442
 40
0.0560804111392708
 40
0.0604106149910926
 40
0.0647434048624103
 40
0.0690636797960958
 40
0.0733828347082258
 40
0.0777159865439325
 40
0.0820523273678479
 40
0.0863750483178109
 40
0.0863750483178109
 40
0.0863750483178109
 40
0.0863750483178109
 10
16.90549592563759
 20
21.02213525160175
 30
0.0
 10
16.90549592687301
 20
21.02070097958609
 30
0.0
 10
16.90538268693655
 20
21.01782641837339
 30
0.0
 10
16.90487333427101
 20
21.01354065484926
 30
0.0
 10
16.9040273981061
 20
21.00930830145413
 30
0.0
 10
16.90285191182551
 20
21.00515965032454
 30
0.0
 10
16.90135339061876
 20
21.00111474586401
 30
0.0
 10
16.8995386436337
 20
20.99719499521444
 30
0.0
 10
16.89742029469765
 20
20.99342968049198
 30
0.0
 10
16.89501446495289
 20
20.98984542902575
 30
0.0
 10
16.89233389207177
 20
20.98645962428165
 30
0.0
 10
16.8893914069788
 20
20.98329003971284
 30
0.0
 10
16.8862077658794
 20
20.98036042616274
 30
0.0
 10
16.88280688049911
 20
20.97769154058367
 30
0.0
 10
16.87920668139046
 20
20.97529621268087
 30
0.0
 10
16.87542457922933
 20
20.97318707777057
 30
0.0
 10
16.87148720026864
 20
20.97138014836111
 30
0.0
 10
16.86742402090261
 20
20.96988806080151
 30
0.0
 10
16.8632566856446
 20
20.96871764126305
 30
0.0
 10
16.85900528757001
 20
20.96787533729404
 30
0.0
 10
16.85470010119236
 20
20.9673681499949
 30
0.0
 10
16.85181248012091
 20
20.96725536900175
 30
0.0
 10
16.85037157313759
 20
20.96725536900175
 30
0.0
 11
16.90549592563759
 21
21.02213525160175
 31
0.0
 11
16.90532651163759
 21
21.01783577200174
 31
0.0
 11
16.90481707603759
 21
21.01354892030175
 31
0.0
 11
16.90397133563759
 21
21.00931749460174
 31
0.0
 11
16.90279848143759
 21
21.00517800040175
 31
0.0
 11
16.90130295003759
 21
21.00114106100175
 31
0.0
 11
16.89948808753759
 21
20.99722095210175
 31
0.0
 11
16.89736990373759
 21
20.99345582630175
 31
0.0
 11
16.89496926213759
 21
20.98987920520174
 31
0.0
 11
16.89229430063759
 21
20.98650039620175
 31
0.0
 11
16.88935175463759
 21
20.98333065910175
 31
0.0
 11
16.88616797643759
 21
20.98040083810175
 31
0.0
 11
16.88277405413759
 21
20.97773734330175
 31
0.0
 11
16.87918157013759
 21
20.97534708370175
 31
0.0
 11
16.87539970243759
 21
20.97323802180175
 31
0.0
 11
16.87146180513759
 21
20.97143080490175
 31
0.0
 11
16.86740634313759
 21
20.96994150860175
 31
0.0
 11
16.86324808453759
 21
20.96877361110175
 31
0.0
 11
16.85899755953759
 21
20.96793144600175
 31
0.0
 11
16.85469099943759
 21
20.96742410800175
 31
0.0
 11
16.85037157313759
 21
20.96725536900175
 31
0.0
  0
SPLINE
  5
4BE
330
1F
100
AcDbEntity
  8
0
  6
Continuous
 62
     7
100
AcDbSpline
210
0.0
220
0.0
230
1.0
 70
     8
 71
     3
 72
    27
 73
    23
 74
    21
 42
0.0000000001
 43
0.0000000001
 44
0.0000000001
 12
0.0000008613583638
 22
-0.999999999999629
 32
0.0
 13
-1.0
 23
0.0
 33
0.0
 40
0.0
 40
0.0
 40
0.0
 40
0.0
 40
0.004302628961618
 40
0.0086196270314442
 40
0.0129347294954127
 40
0.0172371578433633
 40
0.0215422018789667
 40
0.0258620310676665
 40
0.0301820842571636
 40
0.0344896736608839
 40
0.0387991785038449
 40
0.0431242129727357
 40
0.0474509273152273
 40
0.0517652205095829
 40
0.0560802556880701
 40
0.0604104932635625
 40
0.0647433214759427
 40
0.069063638669376
 40
0.0733828382678642
 40
0.0777160373133362
 40
0.0820524274031331
 40
0.086375198973083
 40
0.086375198973083
 40
0.086375198973083
 40
0.086375198973083
 10
16.85713860593759
 20
21.31465161140175
 30
0.0
 10
16.85713860717296
 20
21.31321740174787
 30
0.0
 10
16.85702535199737
 20
21.31034290944996
 30
0.0
 10
16.85651601188674
 20
21.30605721867299
 30
0.0
 10
16.85567007455094
 20
21.30182488063983
 30
0.0
 10
16.85449458876093
 20
21.29767624273918
 30
0.0
 10
16.85299606666917
 20
21.29363134906872
 30
0.0
 10
16.85118131755352
 20
21.28971160624228
 30
0.0
 10
16.84906296424772
 20
21.28594629585745
 30
0.0
 10
16.8466571276231
 20
21.28236204548361
 30
0.0
 10
16.84397654454919
 20
21.27897623877628
 30
0.0
 10
16.84103404564501
 20
21.27580664922766
 30
0.0
 10
16.83785038594546
 20
21.2728770280832
 30
0.0
 10
16.83444947769977
 20
21.270208132758
 30
0.0
 10
16.83084925075696
 20
21.26781279435944
 30
0.0
 10
16.8270671165895
 20
21.26570364795829
 30
0.0
 10
16.82312970074882
 20
21.26389670747684
 30
0.0
 10
16.8190664806181
 20
21.26240460971323
 30
0.0
 10
16.81489910127696
 20
21.26123418167638
 30
0.0
 10
16.81064765653908
 20
21.26039187103013
 30
0.0
 10
16.80634242126805
 20
21.25988467947755
 30
0.0
 10
16.80345476689424
 20
21.25977189750175
 30
0.0
 10
16.80201384303759
 20
21.25977189750175
 30
0.0
 11
16.85713860593759
 21
21.31465161140175
 31
0.0
 11
16.85696918763759
 21
21.31035231920175
 31
0.0
 11
16.85645975263759
 21
21.30606548490175
 31
0.0
 11
16.85561401263759
 21
21.30183407460175
 31
0.0
 11
16.85444115853759
 21
21.29769459360175
 31
0.0
 11
16.85294562663759
 21
21.29365766550175
 31
0.0
 11
16.85113076213759
 21
21.28973756460175
 31
0.0
 11
16.84901257413759
 21
21.28597244320175
 31
0.0
 11
16.84661192553759
 21
21.28239582290175
 31
0.0
 11
16.84393695433759
 21
21.27901701230175
 31
0.0
 11
16.84099439453759
 21
21.27584727020175
 31
0.0
 11
16.83781059793759
 21
21.27291744150175
 31
0.0
 11
16.83441665223759
 21
21.27025393660175
 31
0.0
 11
16.83082414093759
 21
21.26786366650175
 31
0.0
 11
16.82704224103759
 21
21.26575459310175
 31
0.0
 11
16.82310430673759
 21
21.26394736490174
 31
0.0
 11
16.81904880353759
 21
21.26245805820175
 31
0.0
 11
16.81489050093759
 21
21.26129015210175
 31
0.0
 11
16.81063992913759
 21
21.26044798030175
 31
0.0
 11
16.80633331993759
 21
21.25994063800175
 31
0.0
 11
16.80201384303759
 21
21.25977189750175
 31
0.0
  0
SPLINE
  5
4BF
330
1F
100
AcDbEntity
  8
0
  6
Continuous
 62
     7
100
AcDbSpline
210
0.0
220
0.0
230
1.0
 70
     8
 71
     3
 72
    22
 73
    18
 74
    16
 42
0.0000000001
 43
0.0000000001
 44
0.0000000001
 12
0.9999989048169556
 22
0.0014799881382655
 32
0.0
 13
0.3258086152374456
 23
0.9454357441080055
 33
0.0
 40
0.0
 40
0.0
 40
0.0
 40
0.0
 40
0.0045551886220386
 40
0.009110665748736
 40
0.0136661566758746
 40
0.0182213863926023
 40
0.0227760869837718
 40
0.0273300047672632
 40
0.031882907372622
 40
0.0364345902686892
 40
0.0409848815913549
 40
0.045533647568711
 40
0.0500807959035443
 40
0.0546262784361938
 40
0.0591700922829822
 40
0.0637122801158859
 40
0.0682508860641648
 40
0.0682508860641648
 40
0.0682508860641648
 40
0.0682508860641648
 10
16.75036894523759
 20
21.56280533850175
 30
0.0
 10
16.75188733978201
 20
21.56280758571012
 30
0.0
 10
16.75492552323042
 20
21.56293720137275
 30
0.0
 10
16.75945024596607
 20
21.56350557652393
 30
0.0
 10
16.76391325791356
 20
21.56444403332936
 30
0.0
 10
16.76828367233753
 20
21.56574616240315
 30
0.0
 10
16.77253174820394
 20
21.56740307141746
 30
0.0
 10
16.77662844154256
 20
21.56940344611153
 30
0.0
 10
16.78054577835805
 20
21.5717336267991
 30
0.0
 10
16.78425699886043
 20
21.57437770091687
 30
0.0
 10
16.78773675240144
 20
21.57731761320021
 30
0.0
 10
16.79096126678599
 20
21.58053328437266
 30
0.0
 10
16.79390851549198
 20
21.58400276065477
 30
0.0
 10
16.79655835253219
 20
21.58770231866942
 30
0.0
 10
16.79889270780486
 20
21.59160679343363
 30
0.0
 10
16.80089519725158
 20
21.5956885173185
 30
0.0
 10
16.80200053089788
 20
21.59851081220444
 30
0.0
 10
16.80249343653759
 20
21.59994113230175
 30
0.0
 11
16.75036894523759
 21
21.56280533850175
 31
0.0
 11
16.75491999323759
 21
21.56299951750175
 31
0.0
 11
16.75943995383759
 21
21.56356725690175
 31
0.0
 11
16.76389795093759
 21
21.56450467860175
 31
0.0
 11
16.76826353173759
 21
21.56580537920175
 31
0.0
 11
16.77250687483759
 21
21.56746047340175
 31
0.0
 11
16.77659899363759
 21
21.56945865530175
 31
0.0
 11
16.78051193463759
 21
21.57178627530175
 31
0.0
 11
16.78421896863759
 21
21.57442743340175
 31
0.0
 11
16.78769477243759
 21
21.57736408780175
 31
0.0
 11
16.79091560273759
 21
21.58057617810175
 31
0.0
 11
16.79385945793759
 21
21.58404176240175
 31
0.0
 11
16.79650622843759
 21
21.58773716730175
 31
0.0
 11
16.79883783403759
 21
21.59163714930175
 31
0.0
 11
16.80083834733759
 21
21.59571506750175
 31
0.0
 11
16.80249343653759
 21
21.59994113230175
 31
0.0
  0
SPLINE
  5
4C0
330
1F
100
AcDbEntity
  8
0
  6
Continuous
 62
     7
100
AcDbSpline
210
0.0
220
0.0
230
1.0
 70
     8
 71
     3
 72
    15
 73
    11
 74
     9
 42
0.0000000001
 43
0.0000000001
 44
0.0000000001
 12
0.999998907393936
 22
0.0014782458977064
 32
0.0
 13
0.822396706142457
 23
0.568914455543219
 33
0.0
 40
0.0
 40
0.0
 40
0.0
 40
0.0
 40
0.0045551710284508
 40
0.0091106325703359
 40
0.0136661097541456
 40
0.0182213275024774
 40
0.022776017973525
 40
0.0273299274324977
 40
0.0318828234702631
 40
0.0333938099047711
 40
0.0333938099047711
 40
0.0333938099047711
 40
0.0333938099047711
 10
16.74630244583759
 20
21.58649203120175
 30
0.0
 10
16.7478208345214
 20
21.58649427575604
 30
0.0
 10
16.75085900728833
 20
21.58662388501753
 30
0.0
 10
16.7553837150015
 20
21.5871922477517
 30
0.0
 10
16.75984671839738
 20
21.58813069228945
 30
0.0
 10
16.76421711517518
 20
21.58943279925873
 30
0.0
 10
16.76846522276856
 20
21.59108971702327
 30
0.0
 10
16.77256177841226
 20
21.59308998442185
 30
0.0
 10
16.77560742237342
 20
21.59490166631423
 30
0.0
 10
16.77728544114867
 20
21.59602887542684
 30
0.0
 10
16.77769965123759
 20
21.59631541610175
 30
0.0
 11
16.74630244583759
 21
21.58649203120175
 31
0.0
 11
16.75085347663759
 21
21.58668620060175
 31
0.0
 11
16.75537342303759
 21
21.58725392800175
 31
0.0
 11
16.75983140903759
 21
21.58819133570175
 31
0.0
 11
16.76419698193759
 21
21.58949202090175
 31
0.0
 11
16.76844032033759
 21
21.59114709930175
 31
0.0
 11
16.77253243763759
 21
21.59314526530175
 31
0.0
 11
16.77644538003759
 21
21.59547287010175
 31
0.0
 11
16.77769965123759
 21
21.59631541610175
 31
0.0
  0
SPLINE
  5
4C1
330
1F
100
AcDbEntity
  8
0
  6
Continuous
 62
     7
100
AcDbSpline
210
0.0
220
0.0
230
1.0
 70
     8
 71
     3
 72
    19
 73
    15
 74
    13
 42
0.0000000001
 43
0.0000000001
 44
0.0000000001
 12
-0.9921954006732564
 22
0.1246927699701795
 32
0.0
 13
-0.1525161548234591
 23
0.9883009776975164
 33
0.0
 40
0.0
 40
0.0
 40
0.0
 40
0.0
 40
0.0020974401832947
 40
0.0092697900959031
 40
0.0158518179831912
 40
0.0218410600090824
 40
0.0272378540465038
 40
0.0320436191025462
 40
0.036259420353553
 40
0.0398785471777071
 40
0.0428935053902
 40
0.0453070489502876
 40
0.047164063449124
 40
0.0486080738101837
 40
0.0486080738101837
 40
0.0486080738101837
 40
0.0486080738101837
 10
16.96651022593759
 20
20.51019947130175
 30
0.0
 10
16.96581653576991
 20
20.51028664984385
 30
0.0
 10
16.96275149676568
 20
20.51067807510074
 30
0.0
 10
16.95751634602143
 20
20.5113963375561
 30
0.0
 10
16.95101255393421
 20
20.51240535547237
 30
0.0
 10
16.94511405734455
 20
20.51344768458537
 30
0.0
 10
16.93982438498502
 20
20.51452375179684
 30
0.0
 10
16.93514735885819
 20
20.5156347259737
 30
0.0
 10
16.93109063549244
 20
20.51677973952894
 30
0.0
 10
16.92766892828627
 20
20.51795871969453
 30
0.0
 10
16.92490050676468
 20
20.51916723891107
 30
0.0
 10
16.92280450381306
 20
20.52041146552597
 30
0.0
 10
16.92137067449736
 20
20.52169375704892
 30
0.0
 10
16.92085746047352
 20
20.52272337598453
 30
0.0
 10
16.92078404883759
 20
20.52319908160175
 30
0.0
 11
16.96651022593759
 21
20.51019947130175
 31
0.0
 11
16.96442969263759
 21
20.51046524660175
 31
0.0
 11
16.95732454253759
 21
20.51144475940175
 31
0.0
 11
16.95082119663759
 21
20.51245944320175
 31
0.0
 11
16.94492457453759
 21
20.51350866570174
 31
0.0
 11
16.93963789263759
 21
20.51459327640175
 31
0.0
 11
16.93496482923759
 21
20.51571481830174
 31
0.0
 11
16.93091175453759
 21
20.51687480350175
 31
0.0
 11
16.92749692203759
 21
20.51807355200175
 31
0.0
 11
16.92474710813759
 21
20.51930987580175
 31
0.0
 11
16.92269457193759
 21
20.52057963470175
 31
0.0
 11
16.92136674893759
 21
20.52187786000175
 31
0.0
 11
16.92078404883759
 21
20.52319908160175
 31
0.0
  0
SPLINE
  5
4C2
330
1F
100
AcDbEntity
  8
0
  6
Continuous
 62
     7
100
AcDbSpline
210
0.0
220
0.0
230
1.0
 70
     8
 71
     3
 72
    19
 73
    15
 74
    13
 42
0.0000000001
 43
0.0000000001
 44
0.0000000001
 12
-0.1525208784480735
 22
-0.9883002487288102
 32
0.0
 13
-0.9922120250060315
 23
-0.1245604168001646
 33
0.0
 40
0.0
 40
0.0
 40
0.0
 40
0.0
 40
0.0014447941739359
 40
0.0033030250333298
 40
0.0057182378513262
 40
0.0087353011627808
 40
0.0123570584055241
 40
0.0165760186772062
 40
0.0213853776236652
 40
0.0267862079458822
 40
0.032779931566101
 40
0.0393668744339823
 40
0.0465445211136277
 40
0.0486787849119891
 40
0.0486787849119891
 40
0.0486787849119891
 40
0.0486787849119891
 10
21.08439031773759
 20
20.52320259950175
 30
0.0
 10
21.08431686397873
 20
20.52272663602126
 30
0.0
 10
21.08380315180216
 20
20.52169644549824
 30
0.0
 10
21.08236811045275
 20
20.52041366867574
 30
0.0
 10
21.08027044224926
 20
20.51916898465854
 30
0.0
 10
21.0774998724102
 20
20.51796004854923
 30
0.0
 10
21.07407552084874
 20
20.5167806650378
 30
0.0
 10
21.07001565631089
 20
20.51563526485883
 30
0.0
 10
21.06533501663914
 20
20.51452394140494
 30
0.0
 10
21.06004129190025
 20
20.51344754217077
 30
0.0
 10
21.0541382998417
 20
20.51240492112556
 30
0.0
 10
21.04762959289254
 20
20.51139563534338
 30
0.0
 10
21.04237885873362
 20
20.51067560683044
 30
0.0
 10
21.03929985227268
 20
20.51028271783118
 30
0.0
 10
21.03859397153759
 20
20.51019410290175
 30
0.0
 11
21.08439031773759
 21
20.52320259950175
 31
0.0
 11
21.08380714273759
 21
20.52188073070174
 31
0.0
 11
21.08247818123759
 21
20.52058193000175
 31
0.0
 11
21.08042398313759
 21
20.51931168470175
 31
0.0
 11
21.07767205223759
 21
20.51807493600175
 31
0.0
 11
21.07425457703759
 21
20.51687577430175
 31
0.0
 11
21.07019833113759
 21
20.51571538860175
 31
0.0
 11
21.06552165773759
 21
20.51459348870175
 31
0.0
 11
21.06023092353759
 21
20.51350854640174
 31
0.0
 11
21.05432980263759
 21
20.51245902510175
 31
0.0
 11
21.04782152443759
 21
20.51144407130175
 31
0.0
 11
21.04071105893759
 21
20.51046433040175
 31
0.0
 11
21.03859397153759
 21
20.51019410290175
 31
0.0
  0
SPLINE
  5
4C3
330
1F
100
AcDbEntity
  8
0
  6
Continuous
 62
     7
100
AcDbSpline
210
0.0
220
0.0
230
1.0
 70
     8
 71
     3
 72
    10
 73
     6
 74
     4
 42
0.0000000001
 43
0.0000000001
 44
0.0000000001
 12
-0.1704055793641167
 22
-0.9853740094611689
 32
0.0
 13
-0.1524992251465869
 23
-0.9883035901633114
 33
0.0
 40
0.0
 40
0.0
 40
0.0
 40
0.0
 40
0.3573757079539143
 40
0.7085380983692496
 40
1.053494573803876
 40
1.053494573803876
 40
1.053494573803876
 40
1.053494573803876
 10
21.25480751883759
 20
21.56280914440175
 30
0.0
 10
21.23450791398274
 20
21.44542623299156
 30
0.0
 10
21.19490732193447
 20
21.21258890925891
 30
0.0
 10
21.13806566847769
 20
20.86605301058959
 30
0.0
 10
21.10192551614195
 20
20.63684317387579
 30
0.0
 10
21.08439031773759
 20
20.52320259950175
 30
0.0
 11
21.25480751883759
 21
21.56280914440175
 31
0.0
 11
21.19490888983759
 21
21.21048890530175
 31
0.0
 11
21.13809197413759
 21
20.86395339120175
 31
0.0
 11
21.08439031773759
 21
20.52320259950175
 31
0.0
  0
SPLINE
  5
4C4
330
1F
100
AcDbEntity
  8
0
  6
Continuous
 62
     7
100
AcDbSpline
210
0.0
220
0.0
230
1.0
 70
     8
 71
     3
 72
    73
 73
    69
 74
    67
 42
0.0000000001
 43
0.0000000001
 44
0.0000000001
 12
0.9999999999999753
 22
0.0000002229222179
 32
0.0
 13
-0.1691896215393298
 23
-0.9855835185124487
 33
0.0
 40
0.0
 40
0.0
 40
0.0
 40
0.0
 40
0.0125082696307835
 40
0.0235552206173114
 40
0.0332933688150659
 40
0.0418902850682719
 40
0.0495165008096289
 40
0.0563076047531209
 40
0.0623838995001188
 40
0.0678655718857823
 40
0.0728354666933516
 40
0.0772914450798049
 40
0.0812305544574033
 40
0.0847526274014123
 40
0.0880236611447277
 40
0.0912048528717311
 40
0.0943913121339861
 40
0.0975624001702628
 40
0.1007012443181115
 40
0.1038129646276313
 40
0.1069773074716898
 40
0.1103316240461633
 40
0.1140073984943906
 40
0.1180090861106816
 40
0.1220405820531048
 40
0.1257801007506188
 40
0.129096228116402
 40
0.1321055116469032
 40
0.1349365401953833
 40
0.1376948413926519
 40
0.1404117759699297
 40
0.1430908019113447
 40
0.1457092669353257
 40
0.1483011881349496
 40
0.1510093047050695
 40
0.1539778533302568
 40
0.1573092780662184
 40
0.1609267523338951
 40
0.1646945526404734
 40
0.1685470252631551
 40
0.1724895197008352
 40
0.1765293376498281
 40
0.1806678813670104
 40
0.1848942726711882
 40
0.1891217623105985
 40
0.1930677944444512
 40
0.1964795340049714
 40
0.1992871936447841
 40
0.2016263856532324
 40
0.2036284263585463
 40
0.2053901221414417
 40
0.2069398597491294
 40
0.2082830341491604
 40
0.2094201996807185
 40
0.2103515987923552
 40
0.2111050853396683
 40
0.2117377618958786
 40
0.2122993191654626
 40
0.212824708287561
 40
0.2133186639978775
 40
0.2137789518980066
 40
0.2142056576172453
 40
0.2146041028736633
 40
0.2149888262308419
 40
0.2153731796398177
 40
0.2157692025638828
 40
0.2161917716961676
 40
0.2166675016167065
 40
0.2166675016167065
 40
0.2166675016167065
 40
0.2166675016167065
 10
21.04560180943759
 20
21.60655908520174
 30
0.0
 10
21.04977123264785
 20
21.6065590861312
 30
0.0
 10
21.05762298839717
 20
21.60654327124673
 30
0.0
 10
21.06872057321518
 20
21.60647072187666
 30
0.0
 10
21.07851406022138
 20
21.60636765782002
 30
0.0
 10
21.08716695786753
 20
21.60624416870279
 30
0.0
 10
21.09483717834433
 20
21.60610816815877
 30
0.0
 10
21.10166689606925
 20
21.60596511663553
 30
0.0
 10
21.10778151055796
 20
21.60581877430423
 30
0.0
 10
21.11328883866336
 20
21.60567161152965
 30
0.0
 10
21.11825589049996
 20
21.60552595244888
 30
0.0
 10
21.12270864453928
 20
21.60538456378179
 30
0.0
 10
21.12667874204201
 20
21.60524962922951
 30
0.0
 10
21.13025382898728
 20
21.60512079296799
 30
0.0
 10
21.1335762041949
 20
21.60499467484258
 30
0.0
 10
21.1367865540348
 20
21.60486676963774
 30
0.0
 10
21.13996336749206
 20
21.60473412014779
 30
0.0
 10
21.14312581134921
 20
21.60459583288806
 30
0.0
 10
21.14626308209215
 20
21.60445228656495
 30
0.0
 10
21.14939780460357
 20
21.60430238310183
 30
0.0
 10
21.1526039376821
 20
21.60414226031028
 30
0.0
 10
21.15599746370135
 20
21.60396508986073
 30
0.0
 10
21.15966923261066
 20
21.60376413467786
 30
0.0
 10
21.16356576844584
 20
21.60353973480487
 30
0.0
 10
21.16748279485256
 20
21.60330188906028
 30
0.0
 10
21.17117099091935
 20
21.6030661842449
 30
0.0
 10
21.17451847722873
 20
21.60284205265871
 30
0.0
 10
21.17756321379224
 20
21.60262944631818
 30
0.0
 10
21.18042189559633
 20
21.60242187252954
 30
0.0
 10
21.18318281419895
 20
21.60221366200461
 30
0.0
 10
21.18589261709841
 20
21.60200156098156
 30
0.0
 10
21.18855533100644
 20
21.6017853316593
 30
0.0
 10
21.19117586269819
 20
21.60156464170896
 30
0.0
 10
21.19380536382295
 20
21.60133505163745
 30
0.0
 10
21.19655031742146
 20
21.60108630893463
 30
0.0
 10
21.19953974405315
 20
21.60080423996943
 30
0.0
 10
21.20282956795413
 20
21.60047934008311
 30
0.0
 10
21.20638266612985
 20
21.60010991422057
 30
0.0
 10
21.21010614702318
 20
21.59970032393244
 30
0.0
 10
21.2139343820116
 20
21.59925292971783
 30
0.0
 10
21.21784903876397
 20
21.59876479738574
 30
0.0
 10
21.22185374941973
 20
21.59822936166381
 30
0.0
 10
21.22594638876144
 20
21.597638967139
 30
0.0
 10
21.23009327846808
 20
21.59698845341543
 30
0.0
 10
21.23416686693753
 20
21.59628730796897
 30
0.0
 10
21.23796077660778
 20
21.59556537353144
 30
0.0
 10
21.24127652808057
 20
21.59486592411757
 30
0.0
 10
21.24405506026673
 20
21.59421797239795
 30
0.0
 10
21.24636353082476
 20
21.59362601081965
 30
0.0
 10
21.24832211869634
 20
21.59307544528215
 30
0.0
 10
21.25001491365754
 20
21.59255375734221
 30
0.0
 10
21.25148472862445
 20
21.59205618792903
 30
0.0
 10
21.25274379892753
 20
21.59158719828027
 30
0.0
 10
21.2537961963784
 20
21.59115559110108
 30
0.0
 10
21.25465382731249
 20
21.59076865368387
 30
0.0
 10
21.25534647019101
 20
21.59042619091664
 30
0.0
 10
21.2559179232245
 20
21.59011774912332
 30
0.0
 10
21.25641193648344
 20
21.58982675064073
 30
0.0
 10
21.25685474682578
 20
21.58954075935024
 30
0.0
 10
21.25725620102163
 20
21.58925388681355
 30
0.0
 10
21.25761601008381
 20
21.58896637752713
 30
0.0
 10
21.25793372733659
 20
21.58867840574321
 30
0.0
 10
21.25821204610269
 20
21.58838594881121
 30
0.0
 10
21.25845440420915
 20
21.58808063639491
 30
0.0
 10
21.25866049865384
 20
21.58775023347527
 30
0.0
 10
21.25882089775625
 20
21.58738062469996
 30
0.0
 10
21.25891307823921
 20
21.58695567762161
 30
0.0
 10
21.25890089925933
 20
21.58665214132473
 30
0.0
 10
21.25887406973759
 20
21.58649585080175
 30
0.0
 11
21.04560180943759
 21
21.60655908520174
 31
0.0
 11
21.05811005033759
 21
21.60653227580175
 31
0.0
 11
21.06915676533759
 21
21.60646006910175
 31
0.0
 11
21.07889437013759
 21
21.60635719500175
 31
0.0
 11
21.08749040793759
 21
21.60623429990175
 31
0.0
 11
21.09511542183759
 21
21.60609891320175
 31
0.0
 11
21.10190503363759
 21
21.60595656020175
 31
0.0
 11
21.10797958623759
 21
21.60581106600175
 31
0.0
 11
21.11345930053759
 21
21.60566456230175
 31
0.0
 11
21.11842705773759
 21
21.60551881320175
 31
0.0
 11
21.12288078963759
 21
21.60537733690174
 31
0.0
 11
21.12681762433759
 21
21.60524348910175
 31
0.0
 11
21.13033741123759
 21
21.60511661120175
 31
0.0
 11
21.13360608963759
 21
21.60499250130175
 31
0.0
 11
21.13678475833759
 21
21.60486582810175
 31
0.0
 11
21.13996844203759
 21
21.60473285920175
 31
0.0
 11
21.14313650103759
 21
21.60459428970175
 31
0.0
 11
21.14627206333759
 21
21.60445079180175
 31
0.0
 11
21.14938023063759
 21
21.60430213340175
 31
0.0
 11
21.15254063293759
 21
21.60414426340174
 31
0.0
 11
21.15589038523759
 21
21.60396933710175
 31
0.0
 11
21.15956066353759
 21
21.60376840180175
 31
0.0
 11
21.16355572643759
 21
21.60353823620175
 31
0.0
 11
21.16757980413759
 21
21.60329378130175
 31
0.0
 11
21.17131170323759
 21
21.60305518290175
 31
0.0
 11
21.17462041703759
 21
21.60283356680174
 31
0.0
 11
21.17762238613759
 21
21.60262387920175
 31
0.0
 11
21.18044597613759
 21
21.60241878860174
 31
0.0
 11
21.18319646323759
 21
21.60221131280175
 31
0.0
 11
21.18590510913759
 21
21.60199924940175
 31
0.0
 11
21.18857534053759
 21
21.60178235250175
 31
0.0
 11
21.19118456423759
 21
21.60156255540175
 31
0.0
 11
21.19376665613759
 21
21.60133704060175
 31
0.0
 11
21.19646371413759
 21
21.60109255440175
 31
0.0
 11
21.19941912493759
 21
21.60081357780175
 31
0.0
 11
21.20273440303759
 21
21.60048597760175
 31
0.0
 11
21.20633245223759
 21
21.60011159540175
 31
0.0
 11
21.21007761873759
 21
21.59969922780175
 31
0.0
 11
21.21390399193759
 21
21.59925155220175
 31
0.0
 11
21.21781611213759
 21
21.59876310780175
 31
0.0
 11
21.22182018623759
 21
21.59822689920175
 31
0.0
 11
21.22591615893759
 21
21.59763482510175
 31
0.0
 11
21.23009122913759
 21
21.59697818800175
 31
0.0
 11
21.23425705613759
 21
21.59625877570175
 31
0.0
 11
21.23813299803759
 21
21.59551834070175
 31
0.0
 11
21.24147070133759
 21
21.59481144360175
 31
0.0
 11
21.24420448973759
 21
21.59417163610175
 31
0.0
 11
21.24646989673759
 21
21.59358875500175
 31
0.0
 11
21.24839675903759
 21
21.59304527670175
 31
0.0
 11
21.25007980773759
 21
21.59252477780174
 31
0.0
 11
21.25154716863759
 21
21.59202624130175
 31
0.0
 11
21.25280528333759
 21
21.59155585330175
 31
0.0
 11
21.25385681703759
 21
21.59112293030175
 31
0.0
 11
21.25470530243759
 21
21.59073877300174
 31
0.0
 11
21.25538033543759
 21
21.59040400080175
 31
0.0
 11
21.25593673943759
 21
21.59010284600175
 31
0.0
 11
21.25642024373759
 21
21.58981724110175
 31
0.0
 11
21.25686117383759
 21
21.58953155880174
 31
0.0
 11
21.25726258243759
 21
21.58924369880175
 31
0.0
 11
21.25762156273759
 21
21.58895560490175
 31
0.0
 11
21.2579369331376
 21
21.58866816920175
 31
0.0
 11
21.25821065053759
 21
21.58837862230175
 31
0.0
 11
21.25844857393759
 21
21.58807629050174
 31
0.0
 11
21.25865019003759
 21
21.58774906200175
 31
0.0
 11
21.25880545663759
 21
21.58738474560175
 31
0.0
 11
21.25889244013759
 21
21.58697122590175
 31
0.0
 11
21.25887406973759
 21
21.58649585080175
 31
0.0
  0
SPLINE
  5
4C5
330
1F
100
AcDbEntity
  8
0
  6
Continuous
 62
     7
100
AcDbSpline
210
0.0
220
0.0
230
1.0
 70
     8
 71
     3
 72
    60
 73
    56
 74
    54
 42
0.0000000001
 43
0.0000000001
 44
0.0000000001
 12
-0.1691870272535351
 22
0.9855839638554959
 32
0.0
 13
0.9999999999999955
 23
-0.0000000941520699
 33
0.0
 40
0.0
 40
0.0
 40
0.0
 40
0.0
 40
0.0004631861357775
 40
0.0008776374928516
 40
0.0012685597735869
 40
0.0016499509284987
 40
0.0020334079313745
 40
0.0024315863709094
 40
0.0028577724413341
 40
0.0033174826537717
 40
0.0038106996874461
 40
0.0043361993594209
 40
0.0048999884605432
 40
0.005535668330415
 40
0.0062906545062871
 40
0.0072179381039396
 40
0.0083382665568074
 40
0.0096427982542016
 40
0.0111379717949251
 40
0.0128798458529092
 40
0.0149064511448638
 40
0.0171497592904051
 40
0.0195382657790937
 40
0.0220690084607172
 40
0.0248118904240611
 40
0.0279392423427427
 40
0.031665903202833
 40
0.0361648910770268
 40
0.041228921397875
 40
0.0464539690391264
 40
0.0515068145037273
 40
0.0564295696385868
 40
0.0613521192739411
 40
0.06641146312203
 40
0.0716500728965842
 40
0.0770690509886469
 40
0.0826634725121028
 40
0.0884218996438163
 40
0.0943197630456134
 40
0.1003390220896513
 40
0.1064757700447813
 40
0.1127112976722285
 40
0.1190080596080752
 40
0.1253371394089724
 40
0.1316898735848772
 40
0.1381076956562671
 40
0.1446173067405945
 40
0.1511316264691322
 40
0.157692820111678
 40
0.1646596191563116
 40
0.172437712791093
 40
0.1813946899940354
 40
0.1916948340132092
 40
0.2034303526518443
 40
0.2166707541895117
 40
0.2166707541895117
 40
0.2166707541895117
 40
0.2166707541895117
 10
16.74630244583759
 20
21.58649203120175
 30
0.0
 10
16.74627632414246
 20
21.58664420081098
 30
0.0
 10
16.74626417896902
 20
21.58694063268064
 30
0.0
 10
16.74635251520011
 20
21.58735744190178
 30
0.0
 10
16.74650790007075
 20
21.58772324811543
 30
0.0
 10
16.746709147996
 20
21.58805295310521
 30
0.0
 10
16.7469474708097
 20
21.58835953889826
 30
0.0
 10
16.74722282131875
 20
21.58865388629374
 30
0.0
 10
16.74753833997634
 20
21.58894362555912
 30
0.0
 10
16.74789649186174
 20
21.58923225061039
 30
0.0
 10
16.74829680324851
 20
21.58952003519312
 30
0.0
 10
16.74873932353198
 20
21.58980746192835
 30
0.0
 10
16.74923427285665
 20
21.59010038918037
 30
0.0
 10
16.74980720810973
 20
21.59041081749911
 30
0.0
 10
16.75049955583349
 20
21.59075417465221
 30
0.0
 10
16.75135089793821
 20
21.59113928271823
 30
0.0
 10
16.75238449204691
 20
21.59156437211167
 30
0.0
 10
16.7536086234698
 20
21.59202203622269
 30
0.0
 10
16.7550418355917
 20
21.59251016760837
 30
0.0
 10
16.75671755745389
 20
21.59303084287716
 30
0.0
 10
16.75864586304356
 20
21.59357689478981
 30
0.0
 10
16.76079489807402
 20
21.59413230959897
 30
0.0
 10
16.76311822378151
 20
21.59468283681901
 30
0.0
 10
16.76561358796233
 20
21.59522771431854
 30
0.0
 10
16.76835864240682
 20
21.5957818681612
 30
0.0
 10
16.77150344793285
 20
21.59636862473112
 30
0.0
 10
16.77523337193381
 20
21.59700881440292
 30
0.0
 10
16.77960999101258
 20
21.59769477468023
 30
0.0
 10
16.7844902388253
 20
21.5983899061828
 30
0.0
 10
16.78956187911271
 20
21.59904747217202
 30
0.0
 10
16.79459343197049
 20
21.59964544685079
 30
0.0
 10
16.79952988218183
 20
21.60018736426903
 30
0.0
 10
16.80447257089262
 20
21.60069080275186
 30
0.0
 10
16.80952352673936
 20
21.60116898449317
 30
0.0
 10
16.81474236074828
 20
21.60162836100168
 30
0.0
 10
16.82014170774673
 20
21.60206988367211
 30
0.0
 10
16.82571632159029
 20
21.60249287793111
 30
0.0
 10
16.83145240976061
 20
21.60289640818973
 30
0.0
 10
16.83733183206333
 20
21.60327927504977
 30
0.0
 10
16.84333895603649
 20
21.60364058519839
 30
0.0
 10
16.84946008137235
 20
21.6039800765948
 30
0.0
 10
16.85567502828982
 20
21.60429718986202
 30
0.0
 10
16.86195529719851
 20
21.60459106575254
 30
0.0
 10
16.86827572441325
 20
21.60486144845472
 30
0.0
 10
16.87463745102607
 20
21.6051094759817
 30
0.0
 10
16.88106017159173
 20
21.60533662238959
 30
0.0
 10
16.8875374809697
 20
21.60554302375636
 30
0.0
 10
16.89406321538814
 20
21.60572908770948
 30
0.0
 10
16.90074185951135
 20
21.60589807866285
 30
0.0
 10
16.90784216305203
 20
21.60605515938907
 30
0.0
 10
16.91574140658739
 20
21.60620364071923
 30
0.0
 10
16.92475212831213
 20
21.60634039677751
 30
0.0
 10
16.93508238888367
 20
21.6064563073095
 30
0.0
 10
16.94684083483751
 20
21.60653702777617
 30
0.0
 10
16.95516615405837
 20
21.60655735951729
 30
0.0
 10
16.95957962123759
 20
21.60655735910175
 30
0.0
 11
16.74630244583759
 21
21.58649203120175
 31
0.0
 11
16.74628390993759
 21
21.58695484630175
 31
0.0
 11
16.74636722693759
 21
21.58736083670175
 31
0.0
 11
16.74651769473759
 21
21.58772164090175
 31
0.0
 11
16.74671464423759
 21
21.58804824480175
 31
0.0
 11
16.74694879153759
 21
21.58835191290175
 31
0.0
 11
16.74721984893759
 21
21.58864358730175
 31
0.0
 11
16.74753296893759
 21
21.58893270740175
 31
0.0
 11
16.74789024553759
 21
21.58922199430175
 31
0.0
 11
16.74829017883759
 21
21.58951064010175
 31
0.0
 11
16.74873046713759
 21
21.58979751310175
 31
0.0
 11
16.74921529093759
 21
21.59008527000175
 31
0.0
 11
16.74977384593759
 21
21.59038875840175
 31
0.0
 11
16.75044981333759
 21
21.59072502050175
 31
0.0
 11
16.75129417573759
 21
21.59110830500175
 31
0.0
 11
16.75232973323759
 21
21.59153580530174
 31
0.0
 11
16.75355109653759
 21
21.59199414430175
 31
0.0
 11
16.75496590383759
 21
21.59247773940175
 31
0.0
 11
16.75662884103759
 21
21.59299616500175
 31
0.0
 11
16.75857827883759
 21
21.59355007950175
 31
0.0
 11
16.76074979093759
 21
21.59411307740175
 31
0.0
 11
16.76307359873759
 21
21.59466523730175
 31
0.0
 11
16.76554581023759
 21
21.59520637390174
 31
0.0
 11
16.76823421443759
 21
21.59575032640175
 31
0.0
 11
16.77130827463759
 21
21.59632520370175
 31
0.0
 11
16.77498095443759
 21
21.59695720390175
 31
0.0
 11
16.77942536463759
 21
21.59765585250175
 31
0.0
 11
16.78443850023759
 21
21.59837200510175
 31
0.0
 11
16.78961996053759
 21
21.59904549750175
 31
0.0
 11
16.79463735663759
 21
21.59964297860175
 31
0.0
 11
16.79953062493759
 21
21.60018097810175
 31
0.0
 11
16.80442776903759
 21
21.60068045240175
 31
0.0
 11
16.80946453313759
 21
21.60115791190175
 31
0.0
 11
16.81468291903759
 21
21.60161778250175
 31
0.0
 11
16.82008382933759
 21
21.60205992670175
 31
0.0
 11
16.82566217743759
 21
21.60248370100175
 31
0.0
 11
16.83140637853759
 21
21.60288822140175
 31
0.0
 11
16.83729175303759
 21
21.60327183540175
 31
0.0
 11
16.84330013083759
 21
21.60363360280175
 31
0.0
 11
16.84942744363759
 21
21.60397376940175
 31
0.0
 11
16.85565485623759
 21
21.60429179000175
 31
0.0
 11
16.86194472363759
 21
21.60458637270175
 31
0.0
 11
16.86826800933759
 21
21.60485712920175
 31
0.0
 11
16.87461591283759
 21
21.60510482390175
 31
0.0
 11
16.88102971893759
 21
21.60533182930175
 31
0.0
 11
16.88753602163759
 21
21.60553934230175
 31
0.0
 11
16.89404769023759
 21
21.60572517440175
 31
0.0
 11
16.90060678073759
 21
21.60589128830175
 31
0.0
 11
16.90757187213759
 21
21.60604553070175
 31
0.0
 11
16.91534858853759
 21
21.60619189540175
 31
0.0
 11
16.92430452993759
 21
21.60632810940175
 31
0.0
 11
16.93460402253759
 21
21.60644394980175
 31
0.0
 11
16.94633925813759
 21
21.60652545520175
 31
0.0
 11
16.95957962123759
 21
21.60655735910175
 31
0.0
  0
LINE
  5
4C6
330
1F
100
AcDbEntity
  8
0
  6
Continuous
 62
     7
100
AcDbLine
 10
16.62455551863759
 20
20.49413781660175
 30
0.0
 11
16.62349918953759
 21
20.49413879090175
 31
0.0
  0
SPLINE
  5
4C7
330
1F
100
AcDbEntity
  8
0
  6
Continuous
 62
     7
100
AcDbSpline
210
0.0
220
0.0
230
1.0
 70
     8
 71
     3
 72
    33
 73
    29
 74
    27
 42
0.0000000001
 43
0.0000000001
 44
0.0000000001
 12
-0.9999982972519994
 22
0.0018453978166992
 32
0.0
 13
-0.1070631292810833
 23
0.9942522247139013
 33
0.0
 40
0.0
 40
0.0
 40
0.0
 40
0.0
 40
0.002107490168846
 40
0.0052558571832775
 40
0.0083773736141011
 40
0.0114612915570096
 40
0.0144970209259427
 40
0.0174741570539138
 40
0.0203825122000768
 40
0.0232121543209189
 40
0.0259534382699992
 40
0.0285970374110279
 40
0.031133975296936
 40
0.0335556596416836
 40
0.0358539138887656
 40
0.0380210111537623
 40
0.0400497129965893
 40
0.0419333091399082
 40
0.0436656659577705
 40
0.0452412862935489
 40
0.0466553955368712
 40
0.0479040681881217
 40
0.0489844419043556
 40
0.0498951156075844
 40
0.0506369899661306
 40
0.0512152644666292
 40
0.0516449024576873
 40
0.0519661349438604
 40
0.0519661349438604
 40
0.0519661349438604
 40
0.0519661349438604
 10
16.62349918953759
 20
20.49413879090175
 30
0.0
 10
16.62279669401081
 20
20.49414008728767
 30
0.0
 10
16.62104474934581
 20
20.49414654992976
 30
0.0
 10
16.6182523729301
 20
20.49416976931258
 30
0.0
 10
16.61513472557601
 20
20.49421323894146
 30
0.0
 10
16.61205491691684
 20
20.49427386468988
 30
0.0
 10
16.60902362961542
 20
20.49435142115864
 30
0.0
 10
16.60605136267298
 20
20.49444562527155
 30
0.0
 10
16.60314840038991
 20
20.49455613731869
 30
0.0
 10
16.60032477980536
 20
20.49468256090986
 30
0.0
 10
16.59759025869706
 20
20.4948244454172
 30
0.0
 10
16.59495428634131
 20
20.49498128636257
 30
0.0
 10
16.59242597407612
 20
20.49515252663078
 30
0.0
 10
16.59001406689619
 20
20.49533755804809
 30
0.0
 10
16.5877269156038
 20
20.49553572173667
 30
0.0
 10
16.58557244942998
 20
20.49574630881173
 30
0.0
 10
16.58355814887119
 20
20.49596856111213
 30
0.0
 10
16.5816910184614
 20
20.49620166992449
 30
0.0
 10
16.57997755822822
 20
20.4964447725043
 30
0.0
 10
16.57842373615613
 20
20.49669695420043
 30
0.0
 10
16.57703493751261
 20
20.49695721971825
 30
0.0
 10
16.57581594826105
 20
20.49722454163259
 30
0.0
 10
16.57477074002753
 20
20.49749765446672
 30
0.0
 10
16.57390262613446
 20
20.49777560254083
 30
0.0
 10
16.57321274266287
 20
20.4980562309528
 30
0.0
 10
16.57270161320829
 20
20.49834135750771
 30
0.0
 10
16.57235937098355
 20
20.49862966756498
 30
0.0
 10
16.57224190658932
 20
20.49886647726374
 30
0.0
 10
16.57223044253759
 20
20.49897293930175
 30
0.0
 11
16.62349918953759
 21
20.49413879090175
 31
0.0
 11
16.62139171373759
 21
20.49414657320175
 31
0.0
 11
16.61824345603759
 21
20.49417280890175
 31
0.0
 11
16.61512224423759
 21
20.49421641770175
 31
0.0
 11
16.61203892603759
 21
20.49427723510175
 31
0.0
 11
16.60900419383759
 21
20.49435503790175
 31
0.0
 11
16.60602855813759
 21
20.49444954560175
 31
0.0
 11
16.60312231723759
 21
20.49456042160175
 31
0.0
 11
16.60029551993759
 21
20.49468727410175
 31
0.0
 11
16.59755793623759
 21
20.49482965800175
 31
0.0
 11
16.59491902813759
 21
20.49498707610175
 31
0.0
 11
16.59238792113759
 21
20.49515898070175
 31
0.0
 11
16.58997337453759
 21
20.49534477570174
 31
0.0
 11
16.58768375563759
 21
20.49554381810175
 31
0.0
 11
16.58552701383759
 21
20.49575542000175
 31
0.0
 11
16.58351065333759
 21
20.49597885120175
 31
0.0
 11
16.58164171003759
 21
20.49621334080175
 31
0.0
 11
16.57992672813759
 21
20.49645807990175
 31
0.0
 11
16.57837173933759
 21
20.49671222410175
 31
0.0
 11
16.57698223993759
 21
20.49697489570175
 31
0.0
 11
16.57576317223759
 21
20.49724518690175
 31
0.0
 11
16.57471890593759
 21
20.49752216210174
 31
0.0
 11
16.57385322233759
 21
20.49780486070175
 31
0.0
 11
16.57316929553759
 21
20.49809230060175
 31
0.0
 11
16.57266968083759
 21
20.49838348190175
 31
0.0
 11
16.57235629973759
 21
20.49867738850175
 31
0.0
 11
16.57223044253759
 21
20.49897293930175
 31
0.0
  0
SPLINE
  5
4C8
330
1F
100
AcDbEntity
  8
0
  6
Continuous
 62
     7
100
AcDbSpline
210
0.0
220
0.0
230
1.0
 70
     8
 71
     3
 72
    30
 73
    26
 74
    24
 42
0.0000000001
 43
0.0000000001
 44
0.0000000001
 12
-0.1069801034689085
 22
0.9942611615977874
 32
0.0
 13
0.9999999999999193
 23
0.0000004018187242
 33
0.0
 40
0.0
 40
0.0
 40
0.0
 40
0.0
 40
0.0002799218005099
 40
0.0008070460429205
 40
0.001182280922079
 40
0.0016329586673385
 40
0.0021584500842991
 40
0.0027574043655393
 40
0.0034279470246453
 40
0.0041677827675082
 40
0.0049742550395123
 40
0.0058443863685855
 40
0.0067749060030147
 40
0.0077622754219006
 40
0.0088027086778902
 40
0.009892192267619
 40
0.0110265033142911
 40
0.0122012290752339
 40
0.0134117851890897
 40
0.0146534351365437
 40
0.0159213084210604
 40
0.0172104222738265
 40
0.0185157018623964
 40
0.0198319992062454
 40
0.0211538176020538
 40
0.0211538176020538
 40
0.0211538176020538
 40
0.0211538176020538
 10
16.45012037503759
 20
21.63335919370175
 30
0.0
 10
16.45011039301653
 20
21.63345196549326
 30
0.0
 10
16.45032047660231
 20
21.63369426766949
 30
0.0
 10
16.45067982113906
 20
21.6338245383571
 30
0.0
 10
16.45111007358164
 20
21.63396960418837
 30
0.0
 10
16.45154626932387
 20
21.63408014313416
 30
0.0
 10
16.45205973080365
 20
21.63419124057448
 30
0.0
 10
16.45264840323637
 20
21.63429841526699
 30
0.0
 10
16.45331012056142
 20
21.63440246212733
 30
0.0
 10
16.45404230532481
 20
21.63450249457095
 30
0.0
 10
16.45484211120106
 20
21.63459820855228
 30
0.0
 10
16.45570640534145
 20
21.63468915611514
 30
0.0
 10
16.4566317962305
 20
21.63477496757584
 30
0.0
 10
16.45761464503245
 20
21.63485528274657
 30
0.0
 10
16.45865108220658
 20
21.63492977055779
 30
0.0
 10
16.45973702211896
 20
21.63499812468524
 30
0.0
 10
16.46086817933544
 20
21.63506006384022
 30
0.0
 10
16.46204008483688
 20
21.63511533420296
 30
0.0
 10
16.46324810356065
 20
21.63516370816791
 30
0.0
 10
16.46448745168228
 20
21.63520498700275
 30
0.0
 10
16.46575321554674
 20
21.63523899955436
 30
0.0
 10
16.46704037083082
 20
21.63526560464644
 30
0.0
 10
16.46834380251583
 20
21.63528469013885
 30
0.0
 10
16.46965822462803
 20
21.63529617421632
 30
0.0
 10
16.47053759870565
 20
21.6352987270247
 30
0.0
 10
16.47097820483759
 20
21.63529872720175
 30
0.0
 11
16.45012037503759
 21
21.63335919370175
 31
0.0
 11
16.45026036293759
 21
21.63360159750175
 31
0.0
 11
16.45073031253759
 21
21.63384035960175
 31
0.0
 11
16.45108689873759
 21
21.63395718210175
 31
0.0
 11
16.45152278933759
 21
21.63407168020174
 31
0.0
 11
16.45203626743759
 21
21.63418340070175
 31
0.0
 11
16.45262531233759
 21
21.63429190110175
 31
0.0
 11
16.45328760673759
 21
21.63439675140175
 31
0.0
 11
16.45402054563759
 21
21.63449753580175
 31
0.0
 11
16.45482124553759
 21
21.63459385400175
 31
0.0
 11
16.45568655583759
 21
21.63468532320175
 31
0.0
 11
16.45661306903759
 21
21.63477157910175
 31
0.0
 11
16.45759713513759
 21
21.63485227780175
 31
0.0
 11
16.45863487473759
 21
21.63492709680175
 31
0.0
 11
16.45972219393759
 21
21.63499573680175
 31
0.0
 11
16.46085479913759
 21
21.63505792210175
 31
0.0
 11
16.46202821403759
 21
21.63511340260175
 31
0.0
 11
16.46323779613759
 21
21.63516195410175
 31
0.0
 11
16.46447875483759
 21
21.63520337990175
 31
0.0
 11
16.46574616863759
 21
21.63523751090175
 31
0.0
 11
16.46703500603759
 21
21.63526420700175
 31
0.0
 11
16.46834014513759
 21
21.63528335730175
 31
0.0
 11
16.46965639203759
 21
21.63529488100175
 31
0.0
 11
16.47097820483759
 21
21.63529872720175
 31
0.0
  0
SPLINE
  5
4C9
330
1F
100
AcDbEntity
  8
0
  6
Continuous
 62
     7
100
AcDbSpline
210
0.0
220
0.0
230
1.0
 70
     8
 71
     3
 72
    30
 73
    26
 74
    24
 42
0.0000000001
 43
0.0000000001
 44
0.0000000001
 12
0.9999999999999211
 22
-0.0000003973580646
 32
0.0
 13
-0.1067946866146782
 23
-0.9942810945154658
 33
0.0
 40
0.0
 40
0.0
 40
0.0
 40
0.0
 40
0.0013218049955748
 40
0.0026380711371168
 40
0.0039433187188618
 40
0.0052324000558178
 40
0.0065002405145337
 40
0.0077418580199703
 40
0.0089523822832097
 40
0.01012707697012
 40
0.0112613580247028
 40
0.0123508132877483
 40
0.0133912201032851
 40
0.0143785650419298
 40
0.0153090620576379
 40
0.016179172820749
 40
0.0169856276732538
 40
0.017725449028971
 40
0.0183959806242785
 40
0.0189949273148511
 40
0.019520414797089
 40
0.0199710921572598
 40
0.0203463299708167
 40
0.0206466584325937
 40
0.0211396238256017
 40
0.0211396238256017
 40
0.0211396238256017
 40
0.0211396238256017
 10
21.53420138123759
 20
21.63529872720175
 30
0.0
 10
21.53464198290278
 20
21.63529872702667
 30
0.0
 10
21.5355213421129
 20
21.63529617432196
 30
0.0
 10
21.53683573869063
 20
21.63528469060043
 30
0.0
 10
21.53813913847285
 20
21.63526560576661
 30
0.0
 10
21.53942626132403
 20
21.63523900182616
 30
0.0
 10
21.54069199261668
 20
21.63520499058978
 30
0.0
 10
21.54193130841136
 20
21.63516371367629
 30
0.0
 10
21.54313929539091
 20
21.63511534146732
 30
0.0
 10
21.54431116999715
 20
21.6350600735052
 30
0.0
 10
21.54544229750361
 20
21.63499813670286
 30
0.0
 10
21.54652820928196
 20
21.63492978561277
 30
0.0
 10
21.54756462022613
 20
21.63485530058347
 30
0.0
 10
21.54854744450259
 20
21.63477498856524
 30
0.0
 10
21.54947281371292
 20
21.63468918077938
 30
0.0
 10
21.55033708567521
 20
21.63459823567805
 30
0.0
 10
21.55113688184534
 20
21.63450252892761
 30
0.0
 10
21.55186902830756
 20
21.63440248854199
 30
0.0
 10
21.55253081357482
 20
21.63429848305832
 30
0.0
 10
21.55311923170596
 20
21.63419119343263
 30
0.0
 10
21.55363344850686
 20
21.63408046396395
 30
0.0
 10
21.55406739503478
 20
21.63396884824837
 30
0.0
 10
21.55443191830477
 20
21.63385117005295
 30
0.0
 10
21.55476905709177
 20
21.63371265356056
 30
0.0
 10
21.55507638173248
 20
21.63352264495859
 30
0.0
 10
21.55505883303759
 20
21.63335926290175
 30
0.0
 11
21.53420138123759
 21
21.63529872720175
 31
0.0
 11
21.53552318063759
 21
21.63529488110174
 31
0.0
 11
21.53683939633759
 21
21.63528335780175
 31
0.0
 11
21.53814450343759
 21
21.63526420820175
 31
0.0
 11
21.53943330833759
 21
21.63523751320175
 31
0.0
 11
21.54070068933759
 21
21.63520338360175
 31
0.0
 11
21.54194161563759
 21
21.63516195960175
 31
0.0
 11
21.54315116593759
 21
21.63511341000175
 31
0.0
 11
21.54432454983759
 21
21.63505793180175
 31
0.0
 11
21.54545712513759
 21
21.63499574900175
 31
0.0
 11
21.54654441613759
 21
21.63492711190174
 31
0.0
 11
21.54758212943759
 21
21.63485229580175
 31
0.0
 11
21.54856617123759
 21
21.63477160030175
 31
0.0
 11
21.54949266203759
 21
21.63468534780175
 31
0.0
 11
21.55035795203759
 21
21.63459388220175
 31
0.0
 11
21.55115863483759
 21
21.63449756770175
 31
0.0
 11
21.55189155973759
 21
21.63439678710175
 31
0.0
 11
21.55255384353759
 21
21.63429194060175
 31
0.0
 11
21.55314288143759
 21
21.63418344410175
 31
0.0
 11
21.55365635633759
 21
21.63407172740175
 31
0.0
 11
21.55409224753759
 21
21.63395723310175
 31
0.0
 11
21.55444883803759
 21
21.63384041430175
 31
0.0
 11
21.55472472203759
 21
21.63372173320174
 31
0.0
 11
21.55505883303759
 21
21.63335926290175
 31
0.0
  0
SPLINE
  5
4CA
330
1F
100
AcDbEntity
  8
0
  6
Continuous
 62
     7
100
AcDbSpline
210
0.0
220
0.0
230
1.0
 70
     8
 71
     3
 72
    32
 73
    28
 74
    26
 42
0.0000000001
 43
0.0000000001
 44
0.0000000001
 12
0.9935074774051427
 22
-0.1137668332163194
 32
0.0
 13
-0.1067938938364039
 23
-0.9942811796666269
 33
0.0
 40
0.0
 40
0.0
 40
0.0
 40
0.0
 40
0.0087773029613269
 40
0.0175252063514125
 40
0.0262091118268634
 40
0.0347944651312655
 40
0.0432471179997575
 40
0.0515334628897973
 40
0.0596205658288542
 40
0.067476315992552
 40
0.0750695515356979
 40
0.0823701903483679
 40
0.0893493526529175
 40
0.0959794922147861
 40
0.1022345138561142
 40
0.1080899003767556
 40
0.1135228325783999
 40
0.1185123239558405
 40
0.1230393646293518
 40
0.127087105513623
 40
0.1306411032324537
 40
0.1336897173843823
 40
0.1362248440261324
 40
0.1382435329244642
 40
0.1397522669747504
 40
0.1407813815890921
 40
0.1414469484936683
 40
0.1414469484936683
 40
0.1414469484936683
 40
0.1414469484936683
 10
21.53420216343759
 20
21.76387001090175
 30
0.0
 10
21.53710893547877
 20
21.76353715558105
 30
0.0
 10
21.54291132787523
 20
21.76286012565224
 30
0.0
 10
21.55158433126322
 20
21.76180957799563
 30
0.0
 10
21.56018915773179
 20
21.76072894708702
 30
0.0
 10
21.56869144560029
 20
21.75962234067418
 30
0.0
 10
21.57705721708674
 20
21.7584943014303
 30
0.0
 10
21.58525302295598
 20
21.75734930981211
 30
0.0
 10
21.59324610635906
 20
21.75619198007145
 30
0.0
 10
21.6010045234917
 20
21.75502695477041
 30
0.0
 10
21.6084972788091
 20
21.75385891935088
 30
0.0
 10
21.6156944441349
 20
21.75269257268719
 30
0.0
 10
21.62256728050937
 20
21.7515326148397
 30
0.0
 10
21.62908835243349
 20
21.75038372770032
 30
0.0
 10
21.63523164106318
 20
21.74925056073186
 30
0.0
 10
21.64097264970173
 20
21.74813771768032
 30
0.0
 10
21.64628850550302
 20
21.74704974140063
 30
0.0
 10
21.65115806706169
 20
21.74599112587985
 30
0.0
 10
21.65556199924282
 20
21.74496625303677
 30
0.0
 10
21.65948297662222
 20
21.74397961668418
 30
0.0
 10
21.66290553630714
 20
21.74303519876462
 30
0.0
 10
21.66581719767977
 20
21.74213857155592
 30
0.0
 10
21.66820631483983
 20
21.74129104894751
 30
0.0
 10
21.67007080539464
 20
21.74050668670759
 30
0.0
 10
21.67140283533866
 20
21.73976655820839
 30
0.0
 10
21.67225319048561
 20
21.73911563874673
 30
0.0
 10
21.6725154037647
 20
21.73854934528409
 30
0.0
 10
21.67249171093759
 20
21.73832875840175
 30
0.0
 11
21.53420216343759
 21
21.76387001090175
 31
0.0
 11
21.54292030203759
 21
21.76285260900175
 31
0.0
 11
21.55160472323759
 21
21.76180063840175
 31
0.0
 11
21.56022092263759
 21
21.76071836200175
 31
0.0
 11
21.56873443733759
 21
21.75961004850175
 31
0.0
 11
21.57711123263759
 21
21.75848016310175
 31
0.0
 11
21.58531781743759
 21
21.75733322040175
 31
0.0
 11
21.59332138033759
 21
21.75617381760175
 31
0.0
 11
21.60108993263759
 21
21.75500659620174
 31
0.0
 11
21.60859243013759
 21
21.75383622990175
 31
0.0
 11
21.61579889753759
 21
21.75266740370175
 31
0.0
 11
21.62268054353759
 21
21.75150479680175
 31
0.0
 11
21.62920988173759
 21
21.75035306190175
 31
0.0
 11
21.63536083473759
 21
21.74921680800175
 31
0.0
 11
21.64110884203759
 21
21.74810058070175
 31
0.0
 11
21.64643095313759
 21
21.74700884550174
 31
0.0
 11
21.65130592153759
 21
21.74594596860174
 31
0.0
 11
21.65571428573759
 21
21.74491620050175
 31
0.0
 11
21.65963845003759
 21
21.74392365790175
 31
0.0
 11
21.66306275053759
 21
21.74297230840175
 31
0.0
 11
21.66597351843759
 21
21.74206595390175
 31
0.0
 11
21.66835913243759
 21
21.74120821680174
 31
0.0
 11
21.67021006823759
 21
21.74040252360175
 31
0.0
 11
21.67151893373759
 21
21.73965209070175
 31
0.0
 11
21.67228049823759
 21
21.73895992280175
 31
0.0
 11
21.67249171093759
 21
21.73832875840175
 31
0.0
  0
SPLINE
  5
4CB
330
1F
100
AcDbEntity
  8
0
  6
Continuous
 62
     7
100
AcDbSpline
210
0.0
220
0.0
230
1.0
 70
     8
 71
     3
 72
    29
 73
    25
 74
    23
 42
0.0000000001
 43
0.0000000001
 44
0.0000000001
 12
-0.1069368305499468
 22
-0.9942658167069469
 32
0.0
 13
-0.9999995712441259
 23
0.0009260192029113
 33
0.0
 40
0.0
 40
0.0
 40
0.0
 40
0.0
 40
0.0078245671794622
 40
0.0156494387945207
 40
0.0234749131329327
 40
0.0313012778951419
 40
0.0391288049984989
 40
0.0469577456686447
 40
0.0547883258916168
 40
0.0626207426319385
 40
0.0704551602619398
 40
0.0782917074192548
 40
0.086130475310772
 40
0.0939715155917879
 40
0.1018148396890838
 40
0.1096604186295878
 40
0.1175081838213606
 40
0.1253580277784416
 40
0.1332098063973716
 40
0.1410633416612628
 40
0.1489184243937592
 40
0.1567748183331822
 40
0.1646322639413783
 40
0.1724904833530551
 40
0.1724904833530551
 40
0.1724904833530551
 40
0.1724904833530551
 10
21.67249171283759
 20
21.73832877540175
 30
0.0
 10
21.67221280136606
 20
21.73573554217606
 30
0.0
 10
21.67148134506311
 20
21.73056595768921
 30
0.0
 10
21.66986884557521
 20
21.72290326798525
 30
0.0
 10
21.66774798143295
 20
21.71536444186822
 30
0.0
 10
21.66512819410661
 20
21.70798331612365
 30
0.0
 10
21.66202107197769
 20
21.70079245040962
 30
0.0
 10
21.65844037857307
 20
21.6938237162989
 30
0.0
 10
21.65440196982868
 20
21.68710795967578
 30
0.0
 10
21.64992372953565
 20
21.6806749167662
 30
0.0
 10
21.6450254886701
 20
21.67455306823136
 30
0.0
 10
21.63972893740806
 20
21.66876951711079
 30
0.0
 10
21.63405752933947
 20
21.66334986755533
 30
0.0
 10
21.62803637721043
 20
21.65831811191596
 30
0.0
 10
21.62169214159605
 20
21.65369652479071
 30
0.0
 10
21.61505291274493
 20
21.64950556433571
 30
0.0
 10
21.60814808672778
 20
21.64576378135032
 30
0.0
 10
21.60100823349708
 20
21.64248773857037
 30
0.0
 10
21.59366496611561
 20
21.6396919360051
 30
0.0
 10
21.58615078621795
 20
21.63738874792858
 30
0.0
 10
21.57849899256759
 20
21.63558836792491
 30
0.0
 10
21.57074333888516
 20
21.63429876368319
 30
0.0
 10
21.56291861210513
 20
21.63352564209974
 30
0.0
 10
21.55767823838507
 20
21.63335683728106
 30
0.0
 10
21.55505883303759
 20
21.63335926290175
 30
0.0
 11
21.67249171283759
 21
21.73832877540175
 31
0.0
 11
21.67139548543759
 21
21.73058137990174
 31
0.0
 11
21.66978419093759
 21
21.72292420380175
 31
0.0
 11
21.66766496313759
 21
21.71539114850175
 31
0.0
 11
21.66504718473759
 21
21.70801556570175
 31
0.0
 11
21.66194244553759
 21
21.70083010990175
 31
0.0
 11
21.65836449143759
 21
21.69386659380175
 31
0.0
 11
21.65432916343759
 21
21.68715584760175
 31
0.0
 11
21.64985432743759
 21
21.68072758230175
 31
0.0
 11
21.64495979523759
 21
21.67461025820175
 31
0.0
 11
21.63966723683759
 21
21.66883095920175
 31
0.0
 11
21.63400008433759
 21
21.66341527230175
 31
0.0
 11
21.62798342843759
 21
21.65838717480175
 31
0.0
 11
21.62164390713759
 21
21.65376892810175
 31
0.0
 11
21.61500958793759
 21
21.64958097900175
 31
0.0
 11
21.60810984343759
 21
21.64584186890175
 31
0.0
 11
21.60097522143759
 21
21.64256815250174
 31
0.0
 11
21.59363730973759
 21
21.63977432370175
 31
0.0
 11
21.58612859593759
 21
21.63747275180174
 31
0.0
 11
21.57848232403759
 21
21.63567362680175
 31
0.0
 11
21.57073234693759
 21
21.63438491400174
 31
0.0
 11
21.56291297683759
 21
21.63361231920175
 31
0.0
 11
21.55505883303759
 21
21.63335926290175
 31
0.0
  0
LINE
  5
4CC
330
1F
100
AcDbEntity
  8
0
  6
Continuous
 62
     7
100
AcDbLine
 10
21.54903965323759
 20
20.59373859540174
 30
0.0
 11
21.54899827653759
 21
20.59353045620175
 31
0.0
  0
SPLINE
  5
4CD
330
1F
100
AcDbEntity
  8
0
  6
Continuous
 62
     7
100
AcDbSpline
210
0.0
220
0.0
230
1.0
 70
     8
 71
     3
 72
    28
 73
    24
 74
    22
 42
0.0000000001
 43
0.0000000001
 44
0.0000000001
 12
-0.1958668717388214
 22
-0.9806304954238614
 32
0.0
 13
-0.9999995712437577
 23
0.0009260196004966
 33
0.0
 40
0.0
 40
0.0
 40
0.0
 40
0.0
 40
0.00511453856731
 40
0.0129400129057221
 40
0.0207663777956214
 40
0.0285939048989767
 40
0.0364228455691221
 40
0.0442534258777939
 40
0.0520858426752479
 40
0.0599202603052498
 40
0.0677568074625642
 40
0.0755955753540814
 40
0.0834366156477047
 40
0.0912799397450008
 40
0.0991255186855043
 40
0.106973283829632
 40
0.1148231276958227
 40
0.1226749063147543
 40
0.1305284415786455
 40
0.1383835242138002
 40
0.1462399181368198
 40
0.1540973636455005
 40
0.1619555830571773
 40
0.1619555830571773
 40
0.1619555830571773
 40
0.1619555830571773
 10
21.54899827653759
 20
20.59353045620175
 30
0.0
 10
21.54866435364774
 20
20.5918586320387
 30
0.0
 10
21.54772705092992
 20
20.58764689071689
 30
0.0
 10
21.54585099999756
 20
20.58097825998469
 30
0.0
 10
21.54323122338996
 20
20.57359717815392
 30
0.0
 10
21.54012409837601
 20
20.56640630061578
 30
0.0
 10
21.5365434056997
 20
20.55943756965545
 30
0.0
 10
21.53250499683165
 20
20.55272181207749
 30
0.0
 10
21.52802675642945
 20
20.5462887694497
 30
0.0
 10
21.52312851557713
 20
20.54016692081038
 30
0.0
 10
21.51783196429806
 20
20.53438336972608
 30
0.0
 10
21.51216055626942
 20
20.52896372011225
 30
0.0
 10
21.50613940398184
 20
20.52393196465613
 30
0.0
 10
21.49979516840037
 20
20.51931037748857
 30
0.0
 10
21.49315593957309
 20
20.51511941701502
 30
0.0
 10
21.48625111351943
 20
20.51137763419834
 30
0.0
 10
21.47911126037903
 20
20.50810159133906
 30
0.0
 10
21.47176799301369
 20
20.50530578880631
 30
0.0
 10
21.46425381314639
 20
20.50300260075381
 30
0.0
 10
21.45660201954878
 20
20.50120222067588
 30
0.0
 10
21.44884636590575
 20
20.49991261662889
 30
0.0
 10
21.44102163917423
 20
20.49913949498372
 30
0.0
 10
21.43578126548506
 20
20.49897069018001
 30
0.0
 10
21.43316186013759
 20
20.49897311580175
 30
0.0
 11
21.54899827653759
 21
20.59353045620175
 31
0.0
 11
21.54788721803759
 21
20.58853805660175
 31
0.0
 11
21.54576799023759
 21
20.58100500130175
 31
0.0
 11
21.54315021173759
 21
20.57362941840175
 31
0.0
 11
21.54004547253759
 21
20.56644396260175
 31
0.0
 11
21.53646751843759
 21
20.55948044650175
 31
0.0
 11
21.53243219043759
 21
20.55276970020175
 31
0.0
 11
21.52795735433759
 21
20.54634143490175
 31
0.0
 11
21.52306282213759
 21
20.54022411080175
 31
0.0
 11
21.51777026373759
 21
20.53444481180175
 31
0.0
 11
21.51210311123759
 21
20.52902912490175
 31
0.0
 11
21.50608645523759
 21
20.52400102750175
 31
0.0
 11
21.49974693393759
 21
20.51938278080175
 31
0.0
 11
21.49311261473759
 21
20.51519483170175
 31
0.0
 11
21.48621287023759
 21
20.51145572170175
 31
0.0
 11
21.47907824833759
 21
20.50818200530175
 31
0.0
 11
21.47174033663759
 21
20.50538817650175
 31
0.0
 11
21.46423162283759
 21
20.50308660460175
 31
0.0
 11
21.45658535103759
 21
20.50128747960175
 31
0.0
 11
21.44883537393759
 21
20.49999876690175
 31
0.0
 11
21.44101600393759
 21
20.49922617210174
 31
0.0
 11
21.43316186013759
 21
20.49897311580175
 31
0.0
  0
SPLINE
  5
4CE
330
1F
100
AcDbEntity
  8
0
  6
Continuous
 62
     7
100
AcDbSpline
210
0.0
220
0.0
230
1.0
 70
     8
 71
     3
 72
    29
 73
    25
 74
    23
 42
0.0000000001
 43
0.0000000001
 44
0.0000000001
 12
0.1070259561548366
 22
-0.9942562268898008
 32
0.0
 13
0.9999995681572675
 23
0.0009293466944595
 33
0.0
 40
0.0
 40
0.0
 40
0.0
 40
0.0
 40
0.0078139111141833
 40
0.0156387979389722
 40
0.0234642867375859
 40
0.0312906652373788
 40
0.0391182054802137
 40
0.0469471585384066
 40
0.0547777506954737
 40
0.0626101789961663
 40
0.0704446077458549
 40
0.0782811659280323
 40
0.0861199446304551
 40
0.093960995694077
 40
0.1018043308486046
 40
0.109649921014605
 40
0.1174976976088368
 40
0.1253475535437799
 40
0.1331993447148511
 40
0.1410528930053541
 40
0.1489079894916835
 40
0.1567643978902497
 40
0.1646218588106837
 40
0.1724800944085158
 40
0.1724800944085158
 40
0.1724800944085158
 40
0.1724800944085158
 10
16.33268843503759
 20
21.73831808920175
 30
0.0
 10
16.33296719880702
 20
21.73572841260787
 30
0.0
 10
16.33369838308223
 20
21.73056238911301
 30
0.0
 10
16.33531014233623
 20
21.72290316367554
 30
0.0
 10
16.33743100155107
 20
21.71536432168985
 30
0.0
 10
16.34005078624912
 20
21.70798318018198
 30
0.0
 10
16.34315790817308
 20
21.70079230010995
 30
0.0
 10
16.34673860361948
 20
21.69382355294162
 30
0.0
 10
16.35077701660552
 20
21.68710778485901
 30
0.0
 10
16.35525526314913
 20
21.68067473217251
 30
0.0
 10
16.36015351250174
 20
21.67455287597423
 30
0.0
 10
16.36545007378856
 20
21.6687693190699
 30
0.0
 10
16.3711214937786
 20
21.66334966616543
 30
0.0
 10
16.37714265934518
 20
21.65831790955545
 30
0.0
 10
16.38348690966259
 20
21.65369632380729
 30
0.0
 10
16.3901261543701
 20
21.64950536733159
 30
0.0
 10
16.39703099718253
 20
21.64576359102933
 30
0.0
 10
16.40417086783017
 20
21.64248755736061
 30
0.0
 10
16.41151415327925
 20
21.63969176692187
 30
0.0
 10
16.41902835138876
 20
21.63738859338425
 30
0.0
 10
16.42668016328351
 20
21.63558823065332
 30
0.0
 10
16.43443583508771
 20
21.6342986466987
 30
0.0
 10
16.44226057950046
 20
21.63352554739001
 30
0.0
 10
16.44750096430282
 20
21.63335675935999
 30
0.0
 10
16.45012037503759
 20
21.63335919370175
 30
0.0
 11
16.33268843503759
 21
21.73831808920175
 31
0.0
 11
16.33378351033759
 21
21.73058129290175
 31
0.0
 11
16.33539479743759
 21
21.72292409970175
 31
0.0
 11
16.33751402033759
 21
21.71539102800175
 31
0.0
 11
16.34013179613759
 21
21.70801542970175
 31
0.0
 11
16.34323653513759
 21
21.70082995950175
 31
0.0
 11
16.34681449123759
 21
21.69386643050175
 31
0.0
 11
16.35084982343759
 21
21.68715567290175
 31
0.0
 11
16.35532466573759
 21
21.68072739790175
 31
0.0
 11
16.36021920623759
 21
21.67461006620175
 31
0.0
 11
16.36551177473759
 21
21.66883076150174
 31
0.0
 11
16.37117893903759
 21
21.66341507130175
 31
0.0
 11
16.37719560823759
 21
21.65838697290174
 31
0.0
 11
16.38353514423759
 21
21.65376872760175
 31
0.0
 11
16.39016947923759
 21
21.64958078250175
 31
0.0
 11
16.39706924033759
 21
21.64584167910175
 31
0.0
 11
16.40420387973759
 21
21.64256797190175
 31
0.0
 11
16.41154180943759
 21
21.63977415510175
 31
0.0
 11
16.41905054133759
 21
21.63747259780175
 31
0.0
 11
16.42669683143759
 21
21.63567349010175
 31
0.0
 11
16.43444682653759
 21
21.63438479740175
 31
0.0
 11
16.44226621423759
 21
21.63361222500175
 31
0.0
 11
16.45012037503759
 21
21.63335919370175
 31
0.0
  0
LINE
  5
4CF
330
1F
100
AcDbEntity
  8
0
  6
Continuous
 62
     7
100
AcDbLine
 10
16.45635195443759
 20
20.59374082220175
 30
0.0
 11
16.45639427843759
 21
20.59352791570175
 31
0.0
  0
SPLINE
  5
4D0
330
1F
100
AcDbEntity
  8
0
  6
Continuous
 62
     7
100
AcDbSpline
210
0.0
220
0.0
230
1.0
 70
     8
 71
     3
 72
    28
 73
    24
 74
    22
 42
0.0000000001
 43
0.0000000001
 44
0.0000000001
 12
0.1958854864009385
 22
-0.9806267772284559
 32
0.0
 13
0.9999995681576436
 23
0.0009293462897673
 33
0.0
 40
0.0
 40
0.0
 40
0.0
 40
0.0
 40
0.005112162260229
 40
0.0129376509354982
 40
0.0207640294352922
 40
0.0285915695466655
 40
0.0364205226048572
 40
0.0442511147619248
 40
0.0520835430626169
 40
0.0599179717498313
 40
0.0677545298582606
 40
0.0755933086297719
 40
0.0834343597575178
 40
0.0912776947723386
 40
0.0991232849917186
 40
0.106971061721515
 40
0.1148209176147553
 40
0.122672708727952
 40
0.1305262571140639
 40
0.1383813536977364
 40
0.1462377621127054
 40
0.1540952231326549
 40
0.1619534588336552
 40
0.1619534588336552
 40
0.1619534588336552
 40
0.1619534588336552
 10
16.45639427843759
 20
20.59352791570175
 30
0.0
 10
16.45672807790122
 20
20.59185687463444
 30
0.0
 10
16.45766524653438
 20
20.58764591193856
 30
0.0
 10
16.45954107750337
 20
20.58097803269
 30
0.0
 10
16.46216085136167
 20
20.57359693547303
 30
0.0
 10
16.46526797608787
 20
20.56640604355862
 30
0.0
 10
16.46884867076193
 20
20.55943729961653
 30
0.0
 10
16.47288708394082
 20
20.55272153067237
 30
0.0
 10
16.47736533045364
 20
20.54628847826104
 30
0.0
 10
16.48226357965874
 20
20.54016662192653
 30
0.0
 10
16.48756014105811
 20
20.5343830651733
 30
0.0
 10
16.49323156097291
 20
20.52896341216528
 30
0.0
 10
16.49925272647196
 20
20.52393165547098
 30
0.0
 10
16.50559697683696
 20
20.51931006980121
 30
0.0
 10
16.5122362214869
 20
20.5151191132127
 30
0.0
 10
16.5191410643089
 20
20.51137733680777
 30
0.0
 10
16.52628093505703
 20
20.50810130333992
 30
0.0
 10
16.53362422040473
 20
20.50530551264722
 30
0.0
 10
16.54113841859426
 20
20.50300233918896
 30
0.0
 10
16.54879023056262
 20
20.50120197649929
 30
0.0
 10
16.55654590240848
 20
20.49991239234254
 30
0.0
 10
16.56437064690512
 20
20.49913929314754
 30
0.0
 10
16.56961103176843
 20
20.49897050496102
 30
0.0
 10
16.57223044253759
 20
20.49897293930175
 30
0.0
 11
16.45639427843759
 21
20.59352791570175
 31
0.0
 11
16.45750486493759
 21
20.58853784550175
 31
0.0
 11
16.45962408773759
 21
20.58100477390174
 31
0.0
 11
16.46224186353759
 21
20.57362917560174
 31
0.0
 11
16.46534660243759
 21
20.56644370550175
 31
0.0
 11
16.46892455853759
 21
20.55948017650175
 31
0.0
 11
16.47295989073759
 21
20.55276941890175
 31
0.0
 11
16.47743473303759
 21
20.54634114390175
 31
0.0
 11
16.48232927343759
 21
20.54022381220175
 31
0.0
 11
16.48762184193759
 21
20.53444450760175
 31
0.0
 11
16.49328900623759
 21
20.52902881730175
 31
0.0
 11
16.49930567543759
 21
20.52400071880175
 31
0.0
 11
16.50564521133759
 21
20.51938247360175
 31
0.0
 11
16.51227954633759
 21
20.51519452840175
 31
0.0
 11
16.51917930753759
 21
20.51145542490175
 31
0.0
 11
16.52631394693759
 21
20.50818171780175
 31
0.0
 11
16.53365187653759
 21
20.50538790090175
 31
0.0
 11
16.54116060853759
 21
20.50308634360175
 31
0.0
 11
16.54880689873759
 21
20.50128723590175
 31
0.0
 11
16.55655689383759
 21
20.49999854310175
 31
0.0
 11
16.56437628163759
 21
20.49922597070175
 31
0.0
 11
16.57223044253759
 21
20.49897293930175
 31
0.0
  0
SPLINE
  5
4D1
330
1F
100
AcDbEntity
  8
0
  6
Continuous
 62
     7
100
AcDbSpline
210
0.0
220
0.0
230
1.0
 70
     8
 71
     3
 72
    32
 73
    28
 74
    26
 42
0.0000000001
 43
0.0000000001
 44
0.0000000001
 12
-0.1068800437617104
 22
0.9942719226879008
 32
0.0
 13
0.9935080104600963
 23
0.1137621780365556
 33
0.0
 40
0.0
 40
0.0
 40
0.0
 40
0.0
 40
0.0006654145789997
 40
0.0016944337221265
 40
0.0032030847515277
 40
0.0052217126987603
 40
0.0077568026480342
 40
0.0108054049549107
 40
0.0143594157612362
 40
0.0184071938709066
 40
0.0229342953349406
 40
0.0279238698994616
 40
0.0333569066121194
 40
0.0392124175484988
 40
0.045467581846419
 40
0.0520978806781295
 40
0.0590772171394035
 40
0.066378043072084
 40
0.0739714763951881
 40
0.0818274329601854
 40
0.0899147486172738
 40
0.0982013104203499
 40
0.1066541819330661
 40
0.1152397531871985
 40
0.1239238735054038
 40
0.1326719860659745
 40
0.1414494991168595
 40
0.1414494991168595
 40
0.1414494991168595
 40
0.1414494991168595
 10
16.33268728403759
 20
21.73832878700175
 30
0.0
 10
16.33266357752448
 20
21.73854932134603
 30
0.0
 10
16.33292566090997
 20
21.73911556750674
 30
0.0
 10
16.3337759236709
 20
21.7397664622554
 30
0.0
 10
16.33510786268982
 20
21.74050657179598
 30
0.0
 10
16.33697229783098
 20
21.7412909216917
 30
0.0
 10
16.33936137831909
 20
21.74213843411898
 30
0.0
 10
16.34227302991415
 20
21.74303505498206
 30
0.0
 10
16.34569560382759
 20
21.74397946891998
 30
0.0
 10
16.34961661973479
 20
21.74496610421958
 30
0.0
 10
16.35402061366893
 20
21.74599097813659
 30
0.0
 10
16.35889025931141
 20
21.74704959682796
 30
0.0
 10
16.36420622025228
 20
21.74813757826379
 30
0.0
 10
16.36994735376905
 20
21.74925042796882
 30
0.0
 10
16.37609078535789
 20
21.75038360334951
 30
0.0
 10
16.38261201671493
 20
21.75153250017034
 30
0.0
 10
16.38948502725175
 20
21.75269246872496
 30
0.0
 10
16.39668237952397
 20
21.75385882672205
 30
0.0
 10
16.40417533245634
 20
21.75502687411071
 30
0.0
 10
16.41193395573391
 20
21.75619191135444
 30
0.0
 10
16.41992725162027
 20
21.75734925310539
 30
0.0
 10
16.42812327410497
 20
21.75849425598171
 30
0.0
 10
16.43648926381296
 20
21.75962230701137
 30
0.0
 10
16.44499176952631
 20
21.7607289220616
 30
0.0
 10
16.45359681012066
 20
21.76180956539095
 30
0.0
 10
16.46227002637466
 20
21.76286011316269
 30
0.0
 10
16.4680725572616
 20
21.76353716223427
 30
0.0
 10
16.47097940043759
 20
21.76387001190175
 30
0.0
 11
16.33268728403759
 21
21.73832878700175
 31
0.0
 11
16.33289836873759
 21
21.73895983360175
 31
0.0
 11
16.33365982003759
 21
21.73965198410175
 31
0.0
 11
16.33496859803759
 21
21.74040240270175
 31
0.0
 11
16.33681947223759
 21
21.74120808470175
 31
0.0
 11
16.33920505033759
 21
21.74206581320175
 31
0.0
 11
16.34211580763759
 21
21.74297216190175
 31
0.0
 11
16.34554012263759
 21
21.74392350810175
 31
0.0
 11
16.34946432553759
 21
21.74491604990175
 31
0.0
 11
16.35387275183759
 21
21.74594581940175
 31
0.0
 11
16.35874780463759
 21
21.74700869970175
 31
0.0
 11
16.36407002133759
 21
21.74810044020174
 31
0.0
 11
16.36981815403759
 21
21.74921667440175
 31
0.0
 11
16.37596925053759
 21
21.75035293680175
 31
0.0
 11
16.38249874873759
 21
21.75150468150174
 31
0.0
 11
16.38938056953759
 21
21.75266729920175
 31
0.0
 11
16.39658722463759
 21
21.75383613690175
 31
0.0
 11
16.40408992043759
 21
21.75500651520175
 31
0.0
 11
16.41185867963759
 21
21.75617374870175
 31
0.0
 11
16.41986245573759
 21
21.75733316350175
 31
0.0
 11
16.42806925793759
 21
21.75848011780175
 31
0.0
 11
16.43644627233759
 21
21.75961001450175
 31
0.0
 11
16.44496000553759
 21
21.76071833790174
 31
0.0
 11
16.45357642023759
 21
21.76180062410175
 31
0.0
 11
16.46226105133759
 21
21.76285260130175
 31
0.0
 11
16.47097940043759
 21
21.76387001190175
 31
0.0
  0
LINE
  5
4D2
330
1F
100
AcDbEntity
  8
0
  6
Continuous
 62
     7
100
AcDbLine
 10
16.92088008543759
 20
20.92707868880175
 30
0.0
 11
16.90549591463759
 21
21.02213525150175
 31
0.0
  0
LINE
  5
4D3
330
1F
100
AcDbEntity
  8
0
  6
Continuous
 62
     7
100
AcDbLine
 10
16.84481654083759
 20
21.38778091220175
 30
0.0
 11
16.80845129393759
 21
21.60057014220175
 31
0.0
  0
SPLINE
  5
4D4
330
1F
100
AcDbEntity
  8
0
  6
Continuous
 62
     7
100
AcDbSpline
210
0.0
220
0.0
230
1.0
 70
     8
 71
     3
 72
    13
 73
     9
 74
     7
 42
0.0000000001
 43
0.0000000001
 44
0.0000000001
 12
-0.1618642247719218
 22
0.9868130383912571
 32
0.0
 13
-0.1655558557850356
 23
0.9862004150350397
 33
0.0
 40
0.0
 40
0.0
 40
0.0
 40
0.0
 40
0.0346592449131738
 40
0.0753316413104278
 40
0.1161114162729393
 40
0.156998788398902
 40
0.1979940463820009
 40
0.2223883729766716
 40
0.2223883729766716
 40
0.2223883729766716
 40
0.2223883729766716
 10
16.89354880713759
 20
21.09526438370175
 30
0.0
 10
16.89167877653457
 20
21.10666511529545
 30
0.0
 10
16.88760689416747
 20
21.13144332012138
 30
0.0
 10
16.88130618831088
 20
21.16963082981197
 30
0.0
 10
16.87463975619833
 20
21.20986209795117
 30
0.0
 10
16.86792804588755
 20
21.25019494152119
 30
0.0
 10
16.862089039026
 20
21.28513607830891
 30
0.0
 10
16.85848481380948
 20
21.30663254843103
 30
0.0
 10
16.85713860593759
 20
21.31465178010175
 30
0.0
 11
16.89354880713759
 21
21.09526438370175
 31
0.0
 11
16.88792854793759
 21
21.12946490920175
 31
0.0
 11
16.88130740653759
 21
21.16959475240175
 31
0.0
 11
16.87464102333759
 21
21.20982595150175
 31
0.0
 11
16.86792936573759
 21
21.25015870310175
 31
0.0
 11
16.86117238963759
 21
21.29059327310175
 31
0.0
 11
16.85713860593759
 21
21.31465178010175
 31
0.0
  0
SPLINE
  5
4D5
330
1F
100
AcDbEntity
  8
0
  6
Continuous
 62
     7
100
AcDbSpline
210
0.0
220
0.0
230
1.0
 70
     8
 71
     3
 72
    25
 73
    21
 74
    19
 42
0.0000000001
 43
0.0000000001
 44
0.0000000001
 12
-0.1701380593194372
 22
-0.9854202356208318
 32
0.0
 13
-0.1589004276255111
 23
-0.9872946136287939
 33
0.0
 40
0.0
 40
0.0
 40
0.0
 40
0.0
 40
0.0218581861168843
 40
0.0612624957559454
 40
0.1007622030321888
 40
0.140357476684789
 40
0.1800484992094469
 40
0.2198355221958335
 40
0.2597188269892219
 40
0.2996985660474313
 40
0.3397747570927264
 40
0.3799474955019841
 40
0.4202171016618966
 40
0.4605839610635084
 40
0.501048477488447
 40
0.5416109694938603
 40
0.5822715081404891
 40
0.6230301140170771
 40
0.6638869355712278
 40
0.6842545128667167
 40
0.6842545128667167
 40
0.6842545128667167
 40
0.6842545128667167
 10
21.19672521023759
 20
21.60057482290175
 30
0.0
 10
21.1954855737822
 20
21.59339498993057
 30
0.0
 10
21.1920146399915
 20
21.57327129716015
 30
0.0
 10
21.18632164505529
 20
21.54016988527639
 30
0.0
 10
21.17965072811275
 20
21.50123750305851
 30
0.0
 10
21.17298818491935
 20
21.46220673006717
 30
0.0
 10
21.16633434839445
 20
21.42307732170221
 30
0.0
 10
21.15968955116376
 20
21.38384899584738
 30
0.0
 10
21.15305413299363
 20
21.34452147997162
 30
0.0
 10
21.1464284528983
 20
21.30509457797797
 30
0.0
 10
21.13981288537641
 20
21.2655681546748
 30
0.0
 10
21.13320780180504
 20
21.22594201930029
 30
0.0
 10
21.12661355969997
 20
21.18621585980263
 30
0.0
 10
21.1200305058771
 20
21.14638926239657
 30
0.0
 10
21.11345899454899
 20
21.10646181340555
 30
0.0
 10
21.10689940360154
 20
21.06643320222437
 30
0.0
 10
21.10035213806674
 20
21.02630324394617
 30
0.0
 10
21.0938176193955
 20
20.98607180937301
 30
0.0
 10
21.08839163063622
 20
20.95251329825667
 30
0.0
 10
21.08514512061824
 20
20.93236504572058
 30
0.0
 10
21.08406631503759
 20
20.92566211260175
 30
0.0
 11
21.19672521023759
 21
21.60057482290175
 31
0.0
 11
21.19300997413759
 21
21.57903469010175
 31
0.0
 11
21.18633105553759
 21
21.54020053420174
 31
0.0
 11
21.17966017893759
 21
21.50126820470175
 31
0.0
 11
21.17299767733759
 21
21.46223748900175
 31
0.0
 11
21.16634388683759
 21
21.42310816060175
 31
0.0
 11
21.15969913773759
 21
21.38387992450175
 31
0.0
 11
21.15306376113759
 21
21.34455245600175
 31
0.0
 11
21.14643811563759
 21
21.30512555710175
 31
0.0
 11
21.13982258763759
 21
21.26559916240175
 31
0.0
 11
21.13321755653759
 21
21.22597312960175
 31
0.0
 11
21.12662337093759
 21
21.18624709410175
 31
0.0
 11
21.12004037523759
 21
21.14642062670175
 31
0.0
 11
21.11346891793759
 21
21.10649327970175
 31
0.0
 11
21.10690936823759
 21
21.06646468910175
 31
0.0
 11
21.10036214203759
 21
21.02633473480175
 31
0.0
 11
21.09382767003759
 21
20.98610334620175
 31
0.0
 11
21.08730636853759
 21
20.94577032630175
 31
0.0
 11
21.08406631503759
 21
20.92566211260175
 31
0.0
  0
SPLINE
  5
4D6
330
1F
100
AcDbEntity
  8
0
  6
Continuous
 62
     7
100
AcDbSpline
210
0.0
220
0.0
230
1.0
 70
     8
 71
     3
 72
    33
 73
    29
 74
    27
 42
0.0000000001
 43
0.0000000001
 44
0.0000000001
 12
-0.1068777362272114
 22
-0.9942721707354314
 32
0.0
 13
-0.9999982972304062
 23
-0.0018454095177584
 33
0.0
 40
0.0
 40
0.0
 40
0.0
 40
0.0
 40
0.0003212237514149
 40
0.0007508386919983
 40
0.001329091553727
 40
0.0020709500010713
 40
0.0029816152811892
 40
0.0040619887719437
 40
0.0053106694133441
 40
0.0067247947486507
 40
0.0083004392833414
 40
0.0100328281182799
 40
0.0119164638801839
 40
0.0139452122135847
 40
0.0161123623586333
 40
0.018410674184021
 40
0.0208324212205555
 40
0.0233694266331129
 40
0.0260130975343217
 40
0.0287544567936746
 40
0.0315841771780799
 40
0.0344926128411627
 40
0.0374698310579605
 40
0.0405056432842715
 40
0.0435896441603609
 40
0.0467112428083081
 40
0.0498596906282678
 40
0.0519672143976224
 40
0.0519672143976224
 40
0.0519672143976224
 40
0.0519672143976224
 10
21.43316186013759
 20
20.49897311580175
 30
0.0
 10
21.43315041624846
 20
20.49886665452288
 30
0.0
 10
21.43303299131523
 20
20.4986298331462
 30
0.0
 10
21.43269077870549
 20
20.49834151138513
 30
0.0
 10
21.43217967705561
 20
20.4980563767849
 30
0.0
 10
21.43148981299131
 20
20.49777574007787
 30
0.0
 10
21.4306217103666
 20
20.49749778366892
 30
0.0
 10
21.42957650461233
 20
20.49722466189095
 30
0.0
 10
21.42835750918975
 20
20.49695733090559
 30
0.0
 10
21.42696869588005
 20
20.49669705615421
 30
0.0
 10
21.42541485084286
 20
20.49644486544661
 30
0.0
 10
21.42370135967731
 20
20.49620175341927
 30
0.0
 10
21.42183419066908
 20
20.49596863587328
 30
0.0
 10
21.41981984446386
 20
20.49574637480693
 30
0.0
 10
21.41766532653971
 20
20.49553577935238
 30
0.0
 10
21.41537811800417
 20
20.49533760767061
 30
0.0
 10
21.41296614860729
 20
20.49515256885055
 30
0.0
 10
21.41043776934239
 20
20.49498132145933
 30
0.0
 10
21.40780172570698
 20
20.4948244741098
 30
0.0
 10
21.40506712969624
 20
20.49468258361507
 30
0.0
 10
21.40224343124493
 20
20.49455615458443
 30
0.0
 10
21.39934038878253
 20
20.49444563808262
 30
0.0
 10
21.39636804011018
 20
20.49435142977907
 30
0.0
 10
21.39333667023711
 20
20.49427387004737
 30
0.0
 10
21.39025677894039
 20
20.49421324183792
 30
0.0
 10
21.38713904961767
 20
20.49416977037553
 30
0.0
 10
21.38434660766447
 20
20.49414655017363
 30
0.0
 10
21.3825946248645
 20
20.49414008731655
 30
0.0
 10
21.38189211813759
 20
20.49413879090175
 30
0.0
 11
21.43316186013759
 21
20.49897311580175
 31
0.0
 11
21.43303605083759
 21
20.49867755410175
 31
0.0
 11
21.43272270893759
 21
20.49838363940175
 31
0.0
 11
21.43222312423759
 21
20.49809244960175
 31
0.0
 11
21.43153921843759
 21
20.49780500080175
 31
0.0
 11
21.43067354663759
 21
20.49752229320175
 31
0.0
 11
21.42962928303759
 21
20.49724530870175
 31
0.0
 11
21.42841020923759
 21
20.49697500810175
 31
0.0
 11
21.42702069523759
 21
20.49671232710175
 31
0.0
 11
21.42546568343759
 21
20.49645817360175
 31
0.0
 11
21.42375067053759
 21
20.49621342510175
 31
0.0
 11
21.42188168843759
 21
20.49597892650175
 31
0.0
 11
21.4198652821376
 21
20.49575548650174
 31
0.0
 11
21.41770848803759
 21
20.49554387610175
 31
0.0
 11
21.41541881203759
 21
20.49534482570175
 31
0.0
 11
21.41300420313759
 21
20.49515902320175
 31
0.0
 11
21.41047302893759
 21
20.49498711150175
 31
0.0
 11
21.40783404933759
 21
20.49482968690174
 31
0.0
 11
21.40509639053759
 21
20.49468729700175
 31
0.0
 11
21.40226951513759
 21
20.49456043910175
 31
0.0
 11
21.39936319383759
 21
20.49444955850175
 31
0.0
 11
21.39638747613759
 21
20.49435504670175
 31
0.0
 11
21.39335266113759
 21
20.49427724060175
 31
0.0
 11
21.39026926003759
 21
20.49421642070175
 31
0.0
 11
21.38714796603759
 21
20.49417281010175
 31
0.0
 11
21.38399962753759
 21
20.49414657340175
 31
0.0
 11
21.38189211813759
 21
20.49413879090175
 31
0.0
  0
LINE
  5
4D7
330
1F
100
AcDbEntity
  8
0
  6
Continuous
 62
     7
100
AcDbLine
 10
21.38189211813759
 20
20.49413879090175
 30
0.0
 11
21.38083577823759
 21
20.49413781660175
 31
0.0
  0
LINE
  5
549
330
1F
100
AcDbEntity
  8
0
  6
Continuous
 62
     7
100
AcDbLine
 10
24.23504372083697
 20
24.79491679032043
 30
0.0
 11
24.25284195823697
 21
25.13452739202043
 31
0.0
  0
LINE
  5
54A
330
1F
100
AcDbEntity
  8
0
  6
Continuous
 62
     7
100
AcDbLine
 10
24.29008629363697
 20
24.79491679032043
 30
0.0
 11
24.30788453103696
 21
25.13452739202043
 31
0.0
  0
LINE
  5
54B
330
1F
100
AcDbEntity
  8
_SURFACE
  6
Continuous
 62
     7
100
AcDbLine
 10
25.20787185243697
 20
20.49067249702043
 30
0.0
 11
25.26225492873697
 21
20.49180925362043
 31
0.0
  0
LWPOLYLINE
  5
54C
330
1F
100
AcDbEntity
  8
0
  6
Continuous
 62
     7
100
AcDbPolyline
 90
      125
 70
     0
 43
0.0
 10
29.61613828593697
 20
20.55469446592043
 10
29.61796590363697
 20
20.55470500932043
 10
29.61984223543696
 20
20.55472092162043
 10
29.62175993403697
 20
20.55474255552043
 10
29.62369919613697
 20
20.55477001152043
 10
29.62565905723697
 20
20.55480353452043
 10
29.62763823993697
 20
20.55484337152043
 10
29.62961706353697
 20
20.55488932302043
 10
29.63159475813697
 20
20.55494149112043
 10
29.63357023213697
 20
20.55499997812043
 10
29.63552425373697
 20
20.55506426272043
 10
29.63745631973697
 20
20.55513429522043
 10
29.63936610883697
 20
20.55521003712043
 10
29.64123578713697
 20
20.55529067242042
 10
29.64306316393697
 20
20.55537589872043
 10
29.64485113213697
 20
20.55546565172043
 10
29.64659050333697
 20
20.55555923672043
 10
29.64827769023697
 20
20.55565615832043
 10
29.64991819943697
 20
20.55575643572043
 10
29.65151681553697
 20
20.55586011822043
 10
29.65307386893697
 20
20.55596700572043
 10
29.65459109693697
 20
20.55607700352043
 10
29.65607527643697
 20
20.55619043102043
 10
29.65752735873697
 20
20.55630722872043
 10
29.65894841963697
 20
20.55642735822043
 10
29.66034527993697
 20
20.55655131242043
 10
29.66172052303697
 20
20.55667929362043
 10
29.66307347633697
 20
20.55681121932043
 10
29.66440610753697
 20
20.55694726612043
 10
29.66572059073697
 20
20.55708766592043
 10
29.66701687003697
 20
20.55723243072043
 10
29.66829383163697
 20
20.55738144092043
 10
29.66955272093697
 20
20.55753484082043
 10
29.67079470633697
 20
20.55769277982043
 10
29.67201881623697
 20
20.55785513502043
 10
29.67322642713697
 20
20.55802208292043
 10
29.67441865603697
 20
20.55819377922043
 10
29.67559425013697
 20
20.55837003292043
 10
29.67675428663696
 20
20.55855098072043
 10
29.67790008693697
 20
20.55873681052043
 10
29.67903071163697
 20
20.55892734112043
 10
29.68014690873697
 20
20.55912265472043
 10
29.68125005583697
 20
20.55932295442043
 10
29.68233997143697
 20
20.55952816532043
 10
29.68341584373697
 20
20.55973806912043
 10
29.68448024243697
 20
20.55995310652043
 10
29.68553774443697
 20
20.56017420362043
 10
29.68658629283697
 20
20.56040094662043
 10
29.68762920603697
 20
20.56063407362043
 10
29.68867872083697
 20
20.56087650512043
 10
29.68973560783697
 20
20.56112875102042
 10
29.69079977163696
 20
20.56139113322043
 10
29.69188180263697
 20
20.56166674082043
 10
29.69298461133697
 20
20.56195697622043
 10
29.69410555873697
 20
20.56226183372043
 10
29.69524676243697
 20
20.56258259782043
 10
29.69640927083697
 20
20.56292034262043
 10
29.69759212843697
 20
20.56327560172043
 10
29.69879442493697
 20
20.56364891532043
 10
29.70001632333697
 20
20.56404116632043
 10
29.70125757673697
 20
20.56445313822043
 10
29.70251663913697
 20
20.56488518342043
 10
29.70379291873697
 20
20.56533796042043
 10
29.70508672403697
 20
20.56581246802043
 10
29.70639780113697
 20
20.56630953772043
 10
29.70772544323697
 20
20.56682984452043
 10
29.70906981793697
 20
20.56737442452043
 10
29.71043187563697
 20
20.56794469732043
 10
29.71181117503697
 20
20.56854156862043
 10
29.71320731043697
 20
20.56916598552043
 10
29.71462115233697
 20
20.56981952372042
 10
29.71605214033697
 20
20.57050317622043
 10
29.71749966283697
 20
20.57121793882043
 10
29.71896437233697
 20
20.57196549162043
 10
29.72044552713697
 20
20.57274688582043
 10
29.72194234703697
 20
20.57356318062043
 10
29.72345527753697
 20
20.57441616832043
 10
29.72498343873697
 20
20.57530698482043
 10
29.72652580653697
 20
20.57623671342043
 10
29.72808245303697
 20
20.57720716032043
 10
29.72965287613697
 20
20.57821988302043
 10
29.73123525273697
 20
20.57927563312043
 10
29.73282756563697
 20
20.58037500232043
 10
29.73442882793697
 20
20.58151928792043
 10
29.73603738943697
 20
20.58270934882043
 10
29.73765022193697
 20
20.58394496842043
 10
29.73926588553697
 20
20.58522705942043
 10
29.74088295783697
 20
20.58655656902043
 10
29.74249846543697
 20
20.58793312612043
 10
29.74411066363697
 20
20.58935730072043
 10
29.74571823993697
 20
20.59083005132043
 10
29.74731888243697
 20
20.59235141802043
 10
29.74891084183697
 20
20.59392191862043
 10
29.75049257383697
 20
20.59554227832043
 10
29.75206204803697
 20
20.59721272642043
 10
29.75361750483697
 20
20.59893375542043
 10
29.75515715533697
 20
20.60070583072043
 10
29.75667888793697
 20
20.60252903272043
 10
29.75818088003697
 20
20.60440376112043
 10
29.75966117103697
 20
20.60633024642043
 10
29.76111742453697
 20
20.60830819042043
 10
29.76254832873697
 20
20.61033868602043
 10
29.76395119353697
 20
20.61242090712043
 10
29.76532180193697
 20
20.61455141262043
 10
29.76665879803697
 20
20.61673084692043
 10
29.76795978153697
 20
20.61895816972043
 10
29.76921953853697
 20
20.62122694312042
 10
29.77043657483697
 20
20.62353661012043
 10
29.77160936663697
 20
20.62588651172043
 10
29.77273345963697
 20
20.62826953822043
 10
29.77380777553697
 20
20.63068475742043
 10
29.77483125123697
 20
20.63313120262042
 10
29.77580033133697
 20
20.63560126282043
 10
29.77671442853697
 20
20.63809372652043
 10
29.77757298933697
 20
20.64060738512043
 10
29.77837343273697
 20
20.64313426862043
 10
29.77911570973697
 20
20.64567299622042
 10
29.77979980563697
 20
20.64822219622043
 10
29.78042414063697
 20
20.65077364672043
 10
29.78098922073697
 20
20.65332589052043
 10
29.78149558483697
 20
20.65587750032043
 10
29.78194265973697
 20
20.65842013072043
 10
29.78233116773697
 20
20.66095002262043
 10
29.78266261983696
 20
20.66346810532043
 10
29.78283785763697
 20
20.66500333672043
  0
LINE
  5
54D
330
1F
100
AcDbEntity
  8
0
  6
Continuous
 62
     7
100
AcDbLine
 10
29.61307974613697
 20
20.55468768702043
 30
0.0
 11
29.61613828593697
 21
20.55469446592043
 31
0.0
  0
LINE
  5
54E
330
1F
100
AcDbEntity
  8
0
  6
Continuous
 62
     7
100
AcDbLine
 10
25.37977600483697
 20
20.38546797142043
 30
0.0
 11
29.09029183733697
 21
20.38546797142043
 31
0.0
  0
LINE
  5
54F
330
1F
100
AcDbEntity
  8
_SURFACE
  6
Continuous
 62
     7
100
AcDbLine
 10
29.09029183733697
 20
20.38546797142043
 30
0.0
 11
29.14501998883697
 21
20.38546804382043
 31
0.0
  0
LINE
  5
550
330
1F
100
AcDbEntity
  8
0
  6
Continuous
 62
     7
100
AcDbLine
 10
25.37977563063697
 20
20.42679122502043
 30
0.0
 11
29.09029144123696
 21
20.42679122502043
 31
0.0
  0
LINE
  5
551
330
1F
100
AcDbEntity
  8
0
  6
Continuous
 62
     7
100
AcDbLine
 10
24.85680079813697
 20
20.64555894092043
 30
0.0
 11
29.61308056653697
 21
20.64555894092043
 31
0.0
  0
LINE
  5
552
330
1F
100
AcDbEntity
  8
_SURFACE
  6
Continuous
 62
     7
100
AcDbLine
 10
25.32514468873697
 20
20.38546804482043
 30
0.0
 11
25.37977600493697
 21
20.38546797272043
 31
0.0
  0
LINE
  5
553
330
1F
100
AcDbEntity
  8
_SURFACE
  6
Continuous
 62
     7
100
AcDbLine
 10
29.26229373863696
 20
20.49067249702043
 30
0.0
 11
29.20781290853696
 21
20.49180925362043
 31
0.0
  0
LINE
  5
554
330
1F
100
AcDbEntity
  8
0
  6
Continuous
 62
     7
100
AcDbLine
 10
24.24284685713697
 20
24.79491945062043
 30
0.0
 11
24.68704045853697
 21
20.66500266192043
 31
0.0
  0
LINE
  5
555
330
1F
100
AcDbEntity
  8
0
  6
Continuous
 62
     7
100
AcDbLine
 10
24.85680079813697
 20
20.64555894092043
 30
0.0
 11
24.29706483063697
 21
24.79491946472043
 31
0.0
  0
LWPOLYLINE
  5
556
330
1F
100
AcDbEntity
  8
0
  6
Continuous
 62
     7
100
AcDbPolyline
 90
      127
 70
     0
 43
0.0
 10
24.68704043723697
 20
20.66500287872043
 10
24.68721565823697
 20
20.66346784632043
 10
24.68754711943697
 20
20.66094975192043
 10
24.68793561423697
 20
20.65841998842043
 10
24.68838264123697
 20
20.65587764242043
 10
24.68888891583697
 20
20.65332645322043
 10
24.68945386773697
 20
20.65077471272043
 10
24.69007803013697
 20
20.64822384602043
 10
24.69076190333697
 20
20.64567530792043
 10
24.69150391733697
 20
20.64313726752043
 10
24.69230405543697
 20
20.64061109452043
 10
24.69316226653697
 20
20.63809816812043
 10
24.69407598683697
 20
20.63560640692043
 10
24.69504466413697
 20
20.63313701912043
 10
24.69606771263697
 20
20.63069121542043
 10
24.69714160113697
 20
20.62827655842043
 10
24.69826527133697
 20
20.62589401582043
 10
24.69943764963697
 20
20.62354452112043
 10
24.70065431193697
 20
20.62123513942043
 10
24.70191374243697
 20
20.61896653232043
 10
24.70321445413697
 20
20.61673926132043
 10
24.70455126713697
 20
20.61455972592043
 10
24.70592180163697
 20
20.61242895612043
 10
24.70732470073697
 20
20.61034633052043
 10
24.70875575173697
 20
20.60831530302043
 10
24.71021228433697
 20
20.60633669072043
 10
24.71169298253697
 20
20.60440942332043
 10
24.71319547513697
 20
20.60253385722043
 10
24.71471780523696
 20
20.60070976552043
 10
24.71625815283697
 20
20.59893675352043
 10
24.71781436283697
 20
20.59721479562043
 10
24.71938464593697
 20
20.59554342822043
 10
24.72096724223697
 20
20.59392216022043
 10
24.72256007183697
 20
20.59235081132043
 10
24.72416158103697
 20
20.59082866122043
 10
24.72577002383697
 20
20.58935518432043
 10
24.72738305403697
 20
20.58793036652043
 10
24.72899934083697
 20
20.58655325772043
 10
24.73061714943697
 20
20.58522327232043
 10
24.73223351303697
 20
20.58394076982043
 10
24.73384700473697
 20
20.58270480162043
 10
24.73545618353697
 20
20.58151445042043
 10
24.73705803343697
 20
20.58036991942043
 10
24.73865090383697
 20
20.57927034642043
 10
24.74023380483697
 20
20.57821443272043
 10
24.74180472943697
 20
20.57720157682043
 10
24.74336185983697
 20
20.57623102152043
 10
24.74490468663697
 20
20.57530121172043
 10
24.74643327333696
 20
20.57441034402043
 10
24.74794659523697
 20
20.57355733302043
 10
24.74944377113697
 20
20.57274104112043
 10
24.75092523683697
 20
20.57195967892043
 10
24.75239020583697
 20
20.57121218772043
 10
24.75383794083697
 20
20.57049751142043
 10
24.75526910063697
 20
20.56981396492043
 10
24.75668306963697
 20
20.56916055212043
 10
24.75807929013697
 20
20.56853627672043
 10
24.75945865033697
 20
20.56793955402043
 10
24.76082074463697
 20
20.56736943592043
 10
24.76216513153697
 20
20.56682501592043
 10
24.76349277853696
 20
20.56630486712043
 10
24.76480386893697
 20
20.56580794732043
 10
24.76609768113697
 20
20.56533358762043
 10
24.76737393223697
 20
20.56488096622043
 10
24.76863292593697
 20
20.56444908492043
 10
24.76987407523697
 20
20.56403728262043
 10
24.77109582003697
 20
20.56364520992043
 10
24.77229791023697
 20
20.56327208332043
 10
24.77348051153697
 20
20.56291701742043
 10
24.77464270793697
 20
20.56257947262043
 10
24.77578351253697
 20
20.56225892272043
 10
24.77690400383697
 20
20.56195428382043
 10
24.77800638483697
 20
20.56166424842043
 10
24.77908802673697
 20
20.56138882052043
 10
24.78015183053697
 20
20.56112660172043
 10
24.78120844523697
 20
20.56087449102043
 10
24.78225782643697
 20
20.56063215702043
 10
24.78330069653697
 20
20.56039910392043
 10
24.78434920113697
 20
20.56017243302043
 10
24.78540666633697
 20
20.55995140492043
 10
24.78647102823697
 20
20.55973643492043
 10
24.78754674713697
 20
20.55952661922043
 10
24.78863632483697
 20
20.55932152762043
 10
24.78973901203697
 20
20.55912136352043
 10
24.79085470473697
 20
20.55892618602043
 10
24.79198479683697
 20
20.55873578872043
 10
24.79313001623697
 20
20.55855009232043
 10
24.79428944703697
 20
20.55836927342043
 10
24.79546441753697
 20
20.55819314322043
 10
24.79665599393697
 20
20.55802156632043
 10
24.79786291943697
 20
20.55785473422043
 10
24.79908630933697
 20
20.55769249082043
 10
24.80032753683697
 20
20.55753466012043
 10
24.80158562373697
 20
20.55738136542043
 10
24.80286173323697
 20
20.55723245752043
 10
24.80415710983697
 20
20.55708779192043
 10
24.80547063793697
 20
20.55694748812043
 10
24.80680224563697
 20
20.55681153512043
 10
24.80815411683697
 20
20.55667969982043
 10
24.80952825773697
 20
20.55655180162043
 10
24.81092401473697
 20
20.55642792142043
 10
24.81234394993697
 20
20.55630785912043
 10
24.81379486593697
 20
20.55619112322043
 10
24.81527784283697
 20
20.55607775142043
 10
24.81679382453697
 20
20.55596780382043
 10
24.81834955313697
 20
20.55586096262043
 10
24.81994676513697
 20
20.55575732202043
 10
24.82158578743697
 20
20.55565708162043
 10
24.82327136123697
 20
20.55556019362043
 10
24.82500896663696
 20
20.55546663902043
 10
24.82679503703697
 20
20.55537691062043
 10
24.82862041083697
 20
20.55529170112043
 10
24.83048794503697
 20
20.55521107522043
 10
24.83239548363697
 20
20.55513533302043
 10
24.83432533183697
 20
20.55506528522043
 10
24.83627717103697
 20
20.55500097122043
 10
24.83825050303697
 20
20.55494244082042
 10
24.84022624543697
 20
20.55489021332043
 10
24.84220331463697
 20
20.55484418802043
 10
24.84418094423697
 20
20.55480426472043
 10
24.84613960263697
 20
20.55477064372043
 10
24.84807802003697
 20
20.55474308102043
 10
24.84999523393697
 20
20.55472133462043
 10
24.85187158113697
 20
20.55470530702043
 10
24.85369976243697
 20
20.55469464982043
 10
24.85548512383697
 20
20.55468893812043
 10
29.61307974613697
 20
20.55468768692043
  0
LINE
  5
557
330
1F
100
AcDbEntity
  8
_SURFACE
  6
Continuous
 62
     7
100
AcDbLine
 10
25.20085486763697
 20
20.55468768692043
 30
0.0
 11
25.20785651993697
 21
20.49072518302043
 31
0.0
  0
LINE
  5
558
330
1F
100
AcDbEntity
  8
0
  6
Continuous
 62
     7
100
AcDbLine
 10
25.20086484213697
 20
20.55468768692043
 30
0.0
 11
25.20787185243697
 21
20.49067249702043
 31
0.0
  0
LINE
  5
559
330
1F
100
AcDbEntity
  8
0
  6
Continuous
 62
     7
100
AcDbLine
 10
25.25622285673697
 20
20.55468768692043
 30
0.0
 11
25.26226150683697
 21
20.49180991192043
 31
0.0
  0
LINE
  5
55A
330
1F
100
AcDbEntity
  8
0
  6
Continuous
 62
     7
100
AcDbLine
 10
25.36749153593697
 20
20.55468768692043
 30
0.0
 11
25.37977563063697
 21
20.42679122502043
 31
0.0
  0
LINE
  5
55B
330
1F
100
AcDbEntity
  8
0
  6
Continuous
 62
     7
100
AcDbLine
 10
24.85680054743697
 20
20.64555894092043
 30
0.0
 11
24.85679948643697
 21
20.55468768692043
 31
0.0
  0
LINE
  5
55C
330
1F
100
AcDbEntity
  8
_SURFACE
  6
Continuous
 62
     7
100
AcDbLine
 10
25.20787244423697
 20
20.49066731052043
 30
0.0
 11
25.20786329163696
 21
20.49073831172043
 31
0.0
  0
LINE
  5
55D
330
1F
100
AcDbEntity
  8
_SURFACE
  6
Continuous
 62
     7
100
AcDbLine
 10
25.37977600483697
 20
20.38546797142043
 30
0.0
 11
25.37977595843697
 21
20.38596530722043
 31
0.0
  0
LINE
  5
55E
330
1F
100
AcDbEntity
  8
_SURFACE
  6
Continuous
 62
     7
100
AcDbLine
 10
25.37977595843697
 20
20.38596530722043
 30
0.0
 11
25.37977566123697
 21
20.41696403432043
 31
0.0
  0
LINE
  5
55F
330
1F
100
AcDbEntity
  8
_SURFACE
  6
Continuous
 62
     7
100
AcDbLine
 10
25.37977566123697
 20
20.41696403432043
 30
0.0
 11
25.37977562023697
 21
20.42679122502043
 31
0.0
  0
LINE
  5
560
330
1F
100
AcDbEntity
  8
0
  6
Continuous
 62
     7
100
AcDbLine
 10
24.23504372083697
 20
24.79491679032043
 30
0.0
 11
30.23504372083697
 21
24.79491679032043
 31
0.0
  0
LINE
  5
561
330
1F
100
AcDbEntity
  8
_SURFACE
  6
Continuous
 62
     7
100
AcDbLine
 10
29.09029183723697
 20
20.38546797142043
 30
0.0
 11
29.09029149293697
 21
20.41696403432043
 31
0.0
  0
LINE
  5
562
330
1F
100
AcDbEntity
  8
_SURFACE
  6
Continuous
 62
     7
100
AcDbLine
 10
29.09029149293697
 20
20.41696403432043
 30
0.0
 11
29.09029145163696
 21
20.42679122502043
 31
0.0
  0
LINE
  5
563
330
1F
100
AcDbEntity
  8
0
  6
Continuous
 62
     7
100
AcDbLine
 10
30.16221598183697
 20
25.13427797812043
 30
0.0
 11
24.31502678553697
 21
25.13427645632043
 31
0.0
  0
LINE
  5
564
330
1F
100
AcDbEntity
  8
_SURFACE
  6
Continuous
 62
     7
100
AcDbLine
 10
24.31805051763697
 20
25.18651142932043
 30
0.0
 11
30.16221598183697
 21
25.18651142932043
 31
0.0
  0
LINE
  5
565
330
1F
100
AcDbEntity
  8
0
  6
Continuous
 62
     7
100
AcDbLine
 10
24.31392855183697
 20
25.18658337832043
 30
0.0
 11
24.30980812533697
 21
25.18672726682043
 31
0.0
  0
LINE
  5
566
330
1F
100
AcDbEntity
  8
0
  6
Continuous
 62
     7
100
AcDbLine
 10
24.31502678553697
 20
25.13427645632043
 30
0.0
 11
24.30788453103696
 21
25.13452739202043
 31
0.0
  0
LINE
  5
567
330
1F
100
AcDbEntity
  8
_SURFACE
  6
Continuous
 62
     7
100
AcDbLine
 10
29.10257459663697
 20
20.55468768692043
 30
0.0
 11
29.09029144123696
 21
20.42679122502043
 31
0.0
  0
LINE
  5
568
330
1F
100
AcDbEntity
  8
_SURFACE
  6
Continuous
 62
     7
100
AcDbLine
 10
29.21384451863697
 20
20.55468768692043
 30
0.0
 11
29.20780633043697
 21
20.49180991192043
 31
0.0
  0
LINE
  5
569
330
1F
100
AcDbEntity
  8
_SURFACE
  6
Continuous
 62
     7
100
AcDbLine
 10
29.26930069503697
 20
20.55468768692043
 30
0.0
 11
29.26229373863696
 21
20.49067249702043
 31
0.0
  0
LINE
  5
56A
330
1F
100
AcDbEntity
  8
_SURFACE
  6
Continuous
 62
     7
100
AcDbLine
 10
29.26230908673696
 20
20.49072528082043
 30
0.0
 11
29.26931067443696
 21
20.55468768692043
 31
0.0
  0
LINE
  5
56B
330
1F
100
AcDbEntity
  8
_SURFACE
  6
Continuous
 62
     7
100
AcDbLine
 10
29.26229314683697
 20
20.49066731052043
 30
0.0
 11
29.26230231803697
 21
20.49073843752043
 31
0.0
  0
LINE
  5
56C
330
1F
100
AcDbEntity
  8
0
  6
Continuous
 62
     7
100
AcDbLine
 10
29.61308080703697
 20
20.64555894092043
 30
0.0
 11
29.61307974613697
 21
20.55468768692043
 31
0.0
  0
LINE
  5
56D
330
1F
100
AcDbEntity
  8
0
  6
Continuous
 62
     7
100
AcDbLine
 10
30.17279488433697
 20
24.79491946472043
 30
0.0
 11
29.61308056653697
 21
20.64555894092043
 31
0.0
  0
LINE
  5
56E
330
1F
100
AcDbEntity
  8
0
  6
Continuous
 62
     7
100
AcDbLine
 10
30.18000114803697
 20
24.79491679032043
 30
0.0
 11
30.16221598183697
 21
25.13427797812043
 31
0.0
  0
LINE
  5
56F
330
1F
100
AcDbEntity
  8
0
  6
Continuous
 62
     7
100
AcDbLine
 10
30.23504372083697
 20
24.79491679032043
 30
0.0
 11
30.21725855463697
 21
25.13427797812043
 31
0.0
  0
LINE
  5
570
330
1F
100
AcDbEntity
  8
_SURFACE
  6
Continuous
 62
     7
100
AcDbLine
 10
30.16221598183697
 20
25.18651142932043
 30
0.0
 11
30.16221598183697
 21
25.13427797812043
 31
0.0
  0
LINE
  5
571
330
1F
100
AcDbEntity
  8
0
  6
Continuous
 62
     7
100
AcDbLine
 10
30.22701221003697
 20
24.79491945352043
 30
0.0
 11
29.78283780563696
 21
20.66500283152043
 31
0.0
  0
LINE
  5
572
330
1F
100
AcDbEntity
  8
0
  6
Continuous
 62
     7
100
AcDbLine
 10
30.22712335263697
 20
24.79491681822043
 30
0.0
 11
29.90494787943697
 21
21.79938914422043
 31
0.0
  0
LINE
  5
573
330
1F
100
AcDbEntity
  8
0
  6
Continuous
 62
     7
100
AcDbLine
 10
29.90494787083697
 20
21.79938906432043
 30
0.0
 11
29.90494672843697
 21
21.79937844732043
 31
0.0
  0
LINE
  5
574
330
1F
100
AcDbEntity
  8
0
  6
Continuous
 62
     7
100
AcDbLine
 10
29.78283666093697
 20
20.66499219302043
 30
0.0
 11
29.90494672843697
 21
21.79937844732043
 31
0.0
  0
ARC
  5
575
330
1F
100
AcDbEntity
  8
0
  6
Continuous
 62
     7
100
AcDbCircle
 10
24.31805053063697
 20
25.30462166532043
 30
0.0
 40
0.1181102361
100
AcDbArc
 50
267.9999981027999
 51
269.9999981039001
  0
ARC
  5
576
330
1F
100
AcDbEntity
  8
_SURFACE
  6
Continuous
 62
     7
100
AcDbCircle
 10
29.14489206313696
 20
20.50357820882043
 30
0.0
 40
0.1181102343
100
AcDbArc
 50
270.0621064983
 51
353.7530025299
  0
ARC
  5
577
330
1F
100
AcDbEntity
  8
_SURFACE
  6
Continuous
 62
     7
100
AcDbCircle
 10
25.32527353273696
 20
20.50357820882043
 30
0.0
 40
0.1181102343
100
AcDbArc
 50
186.2470451124999
 51
269.9374476354001
  0
ARC
  5
578
330
1F
100
AcDbEntity
  8
0
  6
Continuous
 62
     7
100
AcDbCircle
 10
24.30788453103696
 20
25.13164273302043
 30
0.0
 40
0.0551181102
100
AcDbArc
 50
88.00000000000002
 51
176.9999999999999
  0
ARC
  5
579
330
1F
100
AcDbEntity
  8
_SURFACE
  6
Continuous
 62
     7
100
AcDbCircle
 10
24.30788453103696
 20
25.13164273302043
 30
0.0
 40
0.0551181102
100
AcDbArc
 50
88.00000000000002
 51
176.9999999999999
  0
ARC
  5
57A
330
1F
100
AcDbEntity
  8
_SURFACE
  6
Continuous
 62
     7
100
AcDbCircle
 10
30.16221598443697
 20
25.13139332042043
 30
0.0
 40
0.0551181075
100
AcDbArc
 50
2.999998811500043
 51
90.00000272660006
  0
ARC
  5
57B
330
1F
100
AcDbEntity
  8
0
  6
Continuous
 62
     7
100
AcDbCircle
 10
24.31804842383697
 20
25.18628787562043
 30
0.0
 40
0.0002235635
100
AcDbArc
 50
89.46234390900007
 51
91.00602751559994
  0
SPLINE
  5
57D
330
1F
100
AcDbEntity
  8
_SURFACE
  6
Continuous
 62
     7
100
AcDbSpline
210
0.0
220
0.0
230
1.0
 70
     8
 71
     3
 72
    12
 73
     8
 74
     6
 42
0.0000000001
 43
0.0000000001
 44
0.0000000001
 12
0.109286782107596
 22
-0.9940102611424929
 32
0.0
 13
0.9999993844407757
 23
-0.0011095576007323
 33
0.0
 40
0.0
 40
0.0
 40
0.0
 40
0.0
 40
0.0345642333231169
 40
0.0679142623919138
 40
0.1014618263784623
 40
0.1362494196916075
 40
0.1718473092167126
 40
0.1718473092167126
 40
0.1718473092167126
 40
0.1718473092167126
 10
25.20787244423697
 20
20.49066731052043
 30
0.0
 10
25.20913158218227
 20
20.47921490965653
 30
0.0
 10
25.21496412656698
 20
20.45693857851099
 30
0.0
 10
25.23272536691874
 20
20.42765242387641
 30
0.0
 10
25.25806114362886
 20
20.40443457278677
 30
0.0
 10
25.28966588886121
 20
20.38909774076133
 30
0.0
 10
25.31327873286614
 20
20.38548121209006
 30
0.0
 10
25.32514468873697
 20
20.38546804612043
 30
0.0
 11
25.20787244423697
 21
20.49066731052043
 31
0.0
 11
25.21663704433697
 21
20.45723277732043
 31
0.0
 11
25.23392285003696
 21
20.42871216442043
 31
0.0
 11
25.25865681983697
 21
20.40604788002043
 31
0.0
 11
25.28995921673697
 21
20.39087103592043
 31
0.0
 11
25.32514468873697
 21
20.38546804612043
 31
0.0
  0
SPLINE
  5
57E
330
1F
100
AcDbEntity
  8
_SURFACE
  6
Continuous
 62
     7
100
AcDbSpline
210
0.0
220
0.0
230
1.0
 70
     8
 71
     3
 72
    12
 73
     8
 74
     6
 42
0.0000000001
 43
0.0000000001
 44
0.0000000001
 12
0.0996406215412097
 22
-0.995023490445769
 32
0.0
 13
0.9999997857928901
 23
-0.000654533554609
 33
0.0
 40
0.0
 40
0.0
 40
0.0
 40
0.0
 40
0.0345356263287748
 40
0.0680929298831765
 40
0.1023431015958238
 40
0.1374052921461814
 40
0.1730358591310632
 40
0.1730358591310632
 40
0.1730358591310632
 40
0.1730358591310632
 10
25.26225492913697
 20
20.49180925372043
 30
0.0
 10
25.2634019795612
 20
20.48035466723563
 30
0.0
 10
25.26902920037008
 20
20.45796417089187
 30
0.0
 10
25.28667754494105
 20
20.42825733600587
 30
0.0
 10
25.31220231137132
 20
20.4046212927084
 30
0.0
 10
25.34410574642662
 20
20.389100946506
 30
0.0
 10
25.36782320471945
 20
20.38547577142098
 30
0.0
 10
25.37970005783697
 20
20.38546799762043
 30
0.0
 11
25.26225492913697
 21
20.49180925372043
 31
0.0
 11
25.27068302373697
 21
20.45831781142043
 31
0.0
 11
25.28781496953697
 21
20.42946319212043
 31
0.0
 11
25.31294657013697
 21
20.40619353562043
 31
0.0
 11
25.34448062463697
 21
20.39086511062043
 31
0.0
 11
25.37970005783697
 21
20.38546799762043
 31
0.0
  0
SPLINE
  5
57F
330
1F
100
AcDbEntity
  8
_SURFACE
  6
Continuous
 62
     7
100
AcDbSpline
210
0.0
220
0.0
230
1.0
 70
     8
 71
     3
 72
    12
 73
     8
 74
     6
 42
0.0000000001
 43
0.0000000001
 44
0.0000000001
 12
-0.9984676492126261
 22
-0.0553385351794978
 32
0.0
 13
-0.1052030870534423
 23
0.9944507581949071
 33
0.0
 40
0.0
 40
0.0
 40
0.0
 40
0.0
 40
0.0350405581314223
 40
0.0679461292764298
 40
0.0974400174880471
 40
0.1231958427026336
 40
0.1462675073441746
 40
0.1462675073441746
 40
0.1462675073441746
 40
0.1462675073441746
 10
25.37977562013697
 20
20.42679122562043
 30
0.0
 10
25.36811333223544
 20
20.42614486123414
 30
0.0
 10
25.34530822649414
 20
20.42705711145766
 30
0.0
 10
25.31355749705117
 20
20.43502857591254
 30
0.0
 10
25.28730964803284
 20
20.44904268150064
 30
0.0
 10
25.26880392186426
 20
20.46824398113583
 30
0.0
 10
25.26306399925155
 20
20.48416137558856
 30
0.0
 10
25.26225492913697
 20
20.49180925372043
 30
0.0
 11
25.37977562013697
 21
20.42679122562043
 31
0.0
 11
25.34476849303697
 21
20.42832150872043
 31
0.0
 11
25.31293346273697
 21
20.43664661882043
 31
0.0
 11
25.28716442283697
 21
20.45099395392043
 31
0.0
 11
25.26978267863697
 21
20.47000020292043
 31
0.0
 11
25.26225492913697
 21
20.49180925372043
 31
0.0
  0
SPLINE
  5
580
330
1F
100
AcDbEntity
  8
_SURFACE
  6
Continuous
 62
     7
100
AcDbSpline
210
0.0
220
0.0
230
1.0
 70
     8
 71
     3
 72
    12
 73
     8
 74
     6
 42
0.0000000001
 43
0.0000000001
 44
0.0000000001
 12
-0.1092867775982745
 22
-0.9940102616382716
 32
0.0
 13
-0.9999993931705677
 23
-0.0011016616977796
 33
0.0
 40
0.0
 40
0.0
 40
0.0
 40
0.0
 40
0.0345642331709732
 40
0.0679142617732897
 40
0.1014618249488255
 40
0.1362494172721758
 40
0.1718482135231553
 40
0.1718482135231553
 40
0.1718482135231553
 40
0.1718482135231553
 10
29.26229314683697
 20
20.49066731052043
 30
0.0
 10
29.26103400894917
 20
20.47921490970123
 30
0.0
 10
29.25520146508317
 20
20.45693857865592
 30
0.0
 10
29.2374402259249
 20
20.42765242404869
 30
0.0
 10
29.21210444938864
 20
20.40443457269497
 30
0.0
 10
29.18049943284818
 20
20.38909760729705
 30
0.0
 10
29.15688624705316
 20
20.38548111773053
 30
0.0
 10
29.14501998883697
 20
20.38546804512042
 30
0.0
 11
29.26229314683697
 21
20.49066731052043
 31
0.0
 11
29.25352854733697
 21
20.45723277732043
 31
0.0
 11
29.23624274253697
 21
20.42871216442043
 31
0.0
 11
29.21150877383697
 21
20.40604788002043
 31
0.0
 11
29.18020637803697
 21
20.39087103592043
 31
0.0
 11
29.14501998883697
 21
20.38546804512042
 31
0.0
  0
SPLINE
  5
581
330
1F
100
AcDbEntity
  8
_SURFACE
  6
Continuous
 62
     7
100
AcDbSpline
210
0.0
220
0.0
230
1.0
 70
     8
 71
     3
 72
    12
 73
     8
 74
     6
 42
0.0000000001
 43
0.0000000001
 44
0.0000000001
 12
0.9984676504647605
 22
-0.0553385125873565
 32
0.0
 13
0.1052130518589447
 23
0.9944497039662323
 33
0.0
 40
0.0
 40
0.0
 40
0.0
 40
0.0
 40
0.0350406070846771
 40
0.0679462886175963
 40
0.0974403243112057
 40
0.1231962894935609
 40
0.1462680279072807
 40
0.1462680279072807
 40
0.1462680279072807
 40
0.1462680279072807
 10
29.09029145173697
 20
20.42679122562043
 30
0.0
 10
29.10195375594586
 20
20.42614486059502
 30
0.0
 10
29.12475891454084
 20
20.42705711623802
 30
0.0
 10
29.15650974607003
 20
20.43502858562156
 30
0.0
 10
29.18275774147453
 20
20.44904268835614
 30
0.0
 10
29.20126365485432
 20
20.46824395933192
 30
0.0
 10
29.20700375880024
 20
20.48416135924192
 30
0.0
 10
29.20781290813696
 20
20.49180925372043
 30
0.0
 11
29.09029145173697
 21
20.42679122562043
 31
0.0
 11
29.12529862783697
 21
20.42832150872043
 31
0.0
 11
29.15713377223697
 21
20.43664661882043
 31
0.0
 11
29.18290298093697
 21
20.45099395392043
 31
0.0
 11
29.20028493253697
 21
20.47000020292043
 31
0.0
 11
29.20781290813696
 21
20.49180925372043
 31
0.0
  0
SPLINE
  5
582
330
1F
100
AcDbEntity
  8
_SURFACE
  6
Continuous
 62
     7
100
AcDbSpline
210
0.0
220
0.0
230
1.0
 70
     8
 71
     3
 72
    12
 73
     8
 74
     6
 42
0.0000000001
 43
0.0000000001
 44
0.0000000001
 12
-0.0996406177621138
 22
-0.9950234908242038
 32
0.0
 13
-0.9999999999989771
 23
-0.000001430296731
 33
0.0
 40
0.0
 40
0.0
 40
0.0
 40
0.0
 40
0.0345356261823504
 40
0.0680929293283261
 40
0.1023431003072077
 40
0.1374052897783184
 40
0.1731109319560508
 40
0.1731109319560508
 40
0.1731109319560508
 40
0.1731109319560508
 10
29.20781290813696
 20
20.49180925372043
 30
0.0
 10
29.2066658577611
 20
20.48035466727984
 30
0.0
 10
29.20103863270712
 20
20.45796417021399
 30
0.0
 10
29.18339031041944
 20
20.42825733888387
 30
0.0
 10
29.15786546456806
 20
20.4046212822329
 30
0.0
 10
29.12593951699788
 20
20.38908988399279
 30
0.0
 10
29.10219371786287
 20
20.38546798974365
 30
0.0
 10
29.09029183713697
 20
20.38546797272043
 30
0.0
 11
29.20781290813696
 21
20.49180925372043
 31
0.0
 11
29.19938481413696
 21
20.45831781142043
 31
0.0
 11
29.18225286913697
 21
20.42946319212043
 31
0.0
 11
29.15712126953697
 21
20.40619353562043
 31
0.0
 11
29.12558721623696
 21
20.39086511062043
 31
0.0
 11
29.09029183713697
 21
20.38546797272043
 31
0.0
  0
SPLINE
  5
583
330
1F
100
AcDbEntity
  8
_SURFACE
  6
Continuous
 62
     7
100
AcDbSpline
210
0.0
220
0.0
230
1.0
 70
     8
 71
     3
 72
    24
 73
    20
 74
    18
 42
0.0000000001
 43
0.0000000001
 44
0.0000000001
 12
-0.9986370166766478
 22
0.0521929968785537
 32
0.0
 13
-0.0523359554292939
 23
-0.9986295347972154
 33
0.0
 40
0.0
 40
0.0
 40
0.0
 40
0.0
 40
0.0050761704928634
 40
0.0101080223087174
 40
0.0150528970180547
 40
0.0198688818133549
 40
0.0245151706907632
 40
0.0289524163048128
 40
0.033143071550958
 40
0.0370517195114745
 40
0.0406453907114799
 40
0.0438938693484005
 40
0.0467699955004311
 40
0.0492499812839063
 40
0.051313787780633
 40
0.0529457138816806
 40
0.0541357311371389
 40
0.0548844059567486
 40
0.0552383934896844
 40
0.0552383934896844
 40
0.0552383934896844
 40
0.0552383934896844
 10
24.30788453103696
 20
25.13452739202043
 30
0.0
 10
24.30619478045125
 20
25.13461570553733
 30
0.0
 10
24.30282960398527
 20
25.13478348112745
 30
0.0
 10
24.29781702513829
 20
25.13500904599114
 30
0.0
 10
24.29289004279854
 20
25.13520619657577
 30
0.0
 10
24.2880905450984
 20
25.13537328968074
 30
0.0
 10
24.28345933186371
 20
25.13550891956716
 30
0.0
 10
24.27903577427246
 20
25.1356119692743
 30
0.0
 10
24.27485746641912
 20
25.1356816044498
 30
0.0
 10
24.27095994396381
 20
25.13571731961235
 30
0.0
 10
24.26737624492307
 20
25.13571884939328
 30
0.0
 10
24.2641370594653
 20
25.13568653655605
 30
0.0
 10
24.26126905539478
 20
25.13562026554567
 30
0.0
 10
24.25879893768874
 20
25.13552295627051
 30
0.0
 10
24.25674025760834
 20
25.13539056330387
 30
0.0
 10
24.25512913743638
 20
25.13524113749272
 30
0.0
 10
24.25392775894737
 20
25.13504102993783
 30
0.0
 10
24.25323262484455
 20
25.13488073584762
 30
0.0
 10
24.25284813366222
 20
25.13464522615554
 30
0.0
 10
24.25284195823697
 20
25.13452739202043
 30
0.0
 11
24.30788453103696
 21
25.13452739202043
 31
0.0
 11
24.30281465493697
 21
25.13478010372043
 31
0.0
 11
24.29778788273697
 21
25.13500614342043
 31
0.0
 11
24.29284695123696
 21
25.13520358152043
 31
0.0
 11
24.28803386853697
 21
25.13537074752043
 31
0.0
 11
24.28338955503697
 21
25.13550621872043
 31
0.0
 11
24.27895349633697
 21
25.13560884352043
 31
0.0
 11
24.27476340763697
 21
25.13567774982043
 31
0.0
 11
24.27085491283697
 21
25.13571235152043
 31
0.0
 11
24.26726124163697
 21
25.13571235412043
 31
0.0
 11
24.26401294723697
 21
25.13567775722043
 31
0.0
 11
24.26113764653697
 21
25.13560885492043
 31
0.0
 11
24.25865978493697
 21
25.13550623242043
 31
0.0
 11
24.25660042933697
 21
25.13537076372043
 31
0.0
 11
24.25497708783697
 21
25.13520359562043
 31
0.0
 11
24.25380356273697
 21
25.13500616232043
 31
0.0
 11
24.25308982973697
 21
25.13478011102043
 31
0.0
 11
24.25284195823697
 21
25.13452739202043
 31
0.0
  0
LINE
  5
584
330
1F
100
AcDbEntity
  8
0
  6
Continuous
 62
     7
100
AcDbLine
 10
24.31502687283697
 20
25.13427493042043
 30
0.0
 11
24.31460902073697
 21
25.15499842572043
 31
0.0
  0
LINE
  5
585
330
1F
100
AcDbEntity
  8
0
  6
Continuous
 62
     7
100
AcDbLine
 10
24.31460902073697
 20
25.15499842572043
 30
0.0
 11
24.31460476843697
 21
25.15520695692043
 31
0.0
  0
LINE
  5
586
330
1F
100
AcDbEntity
  8
0
  6
Continuous
 62
     7
100
AcDbLine
 10
24.31460476843697
 20
25.15520695692043
 30
0.0
 11
24.31392853793697
 21
25.18658337882043
 31
0.0
  0
LINE
  5
587
330
1F
100
AcDbEntity
  8
_SURFACE
  6
Continuous
 62
     7
100
AcDbLine
 10
24.30980812533697
 20
25.18672726682043
 30
0.0
 11
24.30859827933697
 21
25.15470514342043
 31
0.0
  0
LINE
  5
588
330
1F
100
AcDbEntity
  8
_SURFACE
  6
Continuous
 62
     7
100
AcDbLine
 10
24.30859827933697
 20
25.15470514342043
 30
0.0
 11
24.30788453103696
 21
25.13452739202043
 31
0.0
  0
LINE
  5
589
330
1F
100
AcDbEntity
  8
0
  6
Continuous
 62
     7
100
AcDbLine
 10
24.31502681223697
 20
25.13427797812043
 30
0.0
 11
24.31617719233697
 21
25.15497387872043
 31
0.0
  0
LINE
  5
58A
330
1F
100
AcDbEntity
  8
0
  6
Continuous
 62
     7
100
AcDbLine
 10
24.31617719233697
 20
25.15497387872043
 30
0.0
 11
24.31618874233697
 21
25.15517930862043
 31
0.0
  0
LINE
  5
58B
330
1F
100
AcDbEntity
  8
0
  6
Continuous
 62
     7
100
AcDbLine
 10
24.31618874233697
 20
25.15517930862043
 30
0.0
 11
24.31804449853697
 21
25.18651140472043
 31
0.0
  0
SPLINE
  5
58C
330
1F
100
AcDbEntity
  8
_SURFACE
  6
Continuous
 62
     7
100
AcDbSpline
210
0.0
220
0.0
230
1.0
 70
     8
 71
     3
 72
    24
 73
    20
 74
    18
 42
0.0000000001
 43
0.0000000001
 44
0.0000000001
 12
-0.0523359553985866
 22
0.9986295347988248
 32
0.0
 13
-0.998637016679282
 23
-0.0521929968281498
 33
0.0
 40
0.0
 40
0.0
 40
0.0
 40
0.0
 40
0.0003539816843017
 40
0.0011026518209481
 40
0.0022926703511144
 40
0.0039245960278525
 40
0.0059884029210745
 40
0.0084683889120558
 40
0.011344515469411
 40
0.01459299446064
 40
0.0181866658606384
 40
0.022095314078659
 40
0.02628596945736
 40
0.0307232151181942
 40
0.0353695041255382
 40
0.040185488900739
 40
0.0451303636222583
 40
0.0501622153688016
 40
0.0552383858255924
 40
0.0552383858255924
 40
0.0552383858255924
 40
0.0552383858255924
 10
30.21725855463697
 20
25.13427797812043
 30
0.0
 10
30.21725237931375
 20
25.13439581030867
 30
0.0
 10
30.21686788513636
 20
25.13463131245539
 30
0.0
 10
30.21617275251569
 20
25.13479158806688
 30
0.0
 10
30.21497137752823
 20
25.13499171471116
 30
0.0
 10
30.21336025557667
 20
25.13514112802164
 30
0.0
 10
30.21130157624315
 20
25.13527352995817
 30
0.0
 10
30.20883145805679
 20
25.13537083905172
 30
0.0
 10
30.2059634538625
 20
25.13543711573697
 30
0.0
 10
30.20272426810579
 20
25.13546943328651
 30
0.0
 10
30.19914056879847
 20
25.1354679092325
 30
0.0
 10
30.19524304610069
 20
25.13543219858452
 30
0.0
 10
30.19106473801722
 20
25.1353625680825
 30
0.0
 10
30.18664118030633
 20
25.13525951930959
 30
0.0
 10
30.18200996684772
 20
25.13512389470955
 30
0.0
 10
30.17721046940699
 20
25.13495679342779
 30
0.0
 10
30.17228348653155
 20
25.13475965670222
 30
0.0
 10
30.16727090854426
 20
25.13453407260102
 30
0.0
 10
30.16390573241068
 20
25.13436629163661
 30
0.0
 10
30.16221598183697
 20
25.13427797812043
 30
0.0
 11
30.21725855463697
 21
25.13427797812043
 31
0.0
 11
30.21701068353697
 21
25.13453068932043
 31
0.0
 11
30.21629695123697
 21
25.13475672732043
 31
0.0
 11
30.21512342583697
 21
25.13495416652043
 31
0.0
 11
30.21350008453697
 21
25.13512133242043
 31
0.0
 11
30.21144072873697
 21
25.13525680412043
 31
0.0
 11
30.20896286703697
 21
25.13535942922043
 31
0.0
 11
30.20608756603697
 21
25.13542833592043
 31
0.0
 11
30.20283927133697
 21
25.13546293792043
 31
0.0
 11
30.19924559993697
 21
25.13546294072043
 31
0.0
 11
30.19533710483697
 21
25.13542834382043
 31
0.0
 11
30.19114701593697
 21
25.13535944162043
 31
0.0
 11
30.18671095713697
 21
25.13525681912043
 31
0.0
 11
30.18206664343697
 21
25.13512135032043
 31
0.0
 11
30.17725356083697
 21
25.13495418202043
 31
0.0
 11
30.17231262913697
 21
25.13475674862043
 31
0.0
 11
30.16728585753697
 21
25.13453069712042
 31
0.0
 11
30.16221598183697
 21
25.13427797812043
 31
0.0
  0
SPLINE
  5
58D
330
1F
100
AcDbEntity
  8
0
  6
Continuous
 62
     7
100
AcDbSpline
210
0.0
220
0.0
230
1.0
 70
     8
 71
     3
 72
    33
 73
    29
 74
    27
 42
0.0000000001
 43
0.0000000001
 44
0.0000000001
 12
0.1069494184312663
 22
-0.9942644627548618
 32
0.0
 13
0.9961674757938935
 23
0.0874663373557093
 33
0.0
 40
0.0
 40
0.0
 40
0.0
 40
0.0
 40
0.0021133984507863
 40
0.0043942616650166
 40
0.0069680942450354
 40
0.0099200483298808
 40
0.0133023497875078
 40
0.0171446557775691
 40
0.0214616638470399
 40
0.0262579898112173
 40
0.031531140469728
 40
0.0372733553181711
 40
0.0434727811652451
 40
0.0501142549025118
 40
0.0571798405465164
 40
0.0646492218464633
 40
0.0725000004434368
 40
0.0807079348079978
 40
0.089247139745307
 40
0.0980902583565222
 40
0.1072086215181375
 40
0.1165723936268215
 40
0.1261507077204676
 40
0.1359117937090914
 40
0.1458231270109783
 40
0.1558515521455389
 40
0.1659633880875007
 40
0.1761248909549556
 40
0.1761248909549556
 40
0.1761248909549556
 40
0.1761248909549556
 10
24.68704045823697
 20
20.66500266422043
 30
0.0
 10
24.68711580048204
 20
20.66430223856201
 30
0.0
 10
24.68749413283259
 20
20.6628627415312
 30
0.0
 10
24.68867815086577
 20
20.66083904646513
 30
0.0
 10
24.690453670945
 20
20.65891551061411
 30
0.0
 10
24.6928048118006
 20
20.65708596106795
 30
0.0
 10
24.69572445554046
 20
20.65534613046049
 30
0.0
 10
24.69920548183457
 20
20.65369758578079
 30
0.0
 10
24.70323834916061
 20
20.65214415502329
 30
0.0
 10
24.7078107071482
 20
20.65069069773938
 30
0.0
 10
24.71290765978359
 20
20.64934221844871
 30
0.0
 10
24.71851203486716
 20
20.6481035514391
 30
0.0
 10
24.72460461556903
 20
20.64697919960415
 30
0.0
 10
24.73116431538534
 20
20.64597326628236
 30
0.0
 10
24.73816832103941
 20
20.64508942422913
 30
0.0
 10
24.74559221215717
 20
20.64433089654453
 30
0.0
 10
24.75341007149076
 20
20.64370045001397
 30
0.0
 10
24.76159458844191
 20
20.64320038514434
 30
0.0
 10
24.77011716058988
 20
20.6428325350871
 30
0.0
 10
24.77894799531568
 20
20.64259825861137
 30
0.0
 10
24.78805621289464
 20
20.6424984404342
 30
0.0
 10
24.79740995072941
 20
20.64253348746033
 30
0.0
 10
24.80697646665318
 20
20.64270333238779
 30
0.0
 10
24.81672225176784
 20
20.64300742055507
 30
0.0
 10
24.82661313922624
 20
20.64344475389671
 30
0.0
 10
24.83661442802498
 20
20.64401378078274
 30
0.0
 10
24.84669105119506
 20
20.6447126708175
 30
0.0
 10
24.85342660891639
 20
20.64526269987448
 30
0.0
 10
24.85680079513697
 20
20.64555896302043
 30
0.0
 11
24.68704045823697
 21
20.66500266422043
 31
0.0
 11
24.68756491473697
 21
20.66295537372043
 31
0.0
 11
24.68869000523697
 21
20.66097131012043
 31
0.0
 11
24.69041142603697
 21
20.65905785132043
 31
0.0
 11
24.69272282253697
 21
20.65722169252043
 31
0.0
 11
24.69561576993697
 21
20.65546931742042
 31
0.0
 11
24.69907981663697
 21
20.65380688072043
 31
0.0
 11
24.70310252073697
 21
20.65224022492043
 31
0.0
 11
24.70766951103696
 21
20.65077484362043
 31
0.0
 11
24.71276453913697
 21
20.64941587102043
 31
0.0
 11
24.71836953773697
 21
20.64816806412043
 31
0.0
 11
24.72446468603697
 21
20.64703578852043
 31
0.0
 11
24.73102848363697
 21
20.64602300302043
 31
0.0
 11
24.73803782293697
 21
20.64513324852043
 31
0.0
 11
24.74546806873697
 21
20.64436963582043
 31
0.0
 11
24.75329314093697
 21
20.64373483692043
 31
0.0
 11
24.76148560153697
 21
20.64323107522043
 31
0.0
 11
24.77001674523697
 21
20.64286011952043
 31
0.0
 11
24.77885669163697
 21
20.64262327692043
 31
0.0
 11
24.78797448553697
 21
20.64252138902043
 31
0.0
 11
24.79733819793697
 21
20.64255482842043
 31
0.0
 11
24.80691502683697
 21
20.64272349702043
 31
0.0
 11
24.81667139873696
 21
20.64302682362043
 31
0.0
 11
24.82657309573697
 21
20.64346377252043
 31
0.0
 11
24.83658536293697
 21
20.64403282102043
 31
0.0
 11
24.84667299533697
 21
20.64473203392043
 31
0.0
 11
24.85680079513697
 21
20.64555896302043
 31
0.0
  0
SPLINE
  5
58E
330
1F
100
AcDbEntity
  8
0
  6
Continuous
 62
     7
100
AcDbSpline
210
0.0
220
0.0
230
1.0
 70
     8
 71
     3
 72
    33
 73
    29
 74
    27
 42
0.0000000001
 43
0.0000000001
 44
0.0000000001
 12
0.996167869516211
 22
-0.0874618530762614
 32
0.0
 13
0.1069794874302116
 23
0.9942612278818728
 33
0.0
 40
0.0
 40
0.0
 40
0.0
 40
0.0
 40
0.0101612517570148
 40
0.0202728393489497
 40
0.0303010116779978
 40
0.0402120901802509
 40
0.0499729215380178
 40
0.0595509835659704
 40
0.0689145085395301
 40
0.0780326316581309
 40
0.0868755192631587
 40
0.0954145043735067
 40
0.1036222320773114
 40
0.1114728187884458
 40
0.118942024700286
 40
0.1260074529776179
 40
0.1326487885931308
 40
0.1388480967113801
 40
0.1445902148138235
 40
0.1498632901240949
 40
0.1546595622615561
 40
0.1589765370729198
 40
0.1628188288091664
 40
0.1662011315628699
 40
0.1691530966910493
 40
0.1717269406744242
 40
0.1740077993084555
 40
0.1761215291241569
 40
0.1761215291241569
 40
0.1761215291241569
 40
0.1761215291241569
 10
29.61308056933697
 20
20.64555896212043
 30
0.0
 10
29.61645467350844
 20
20.64526272148435
 30
0.0
 10
29.62319006936382
 20
20.64471275545825
 30
0.0
 10
29.63326644584845
 20
20.64401393398237
 30
0.0
 10
29.64326748616215
 20
20.64344497557156
 30
0.0
 10
29.65315812188467
 20
20.64300770157633
 30
0.0
 10
29.66290365469641
 20
20.64270366687052
 30
0.0
 10
29.6724699200872
 20
20.64253386747865
 30
0.0
 10
29.68182341162847
 20
20.64249885886401
 30
0.0
 10
29.6909313894341
 20
20.64259870774424
 30
0.0
 10
29.69976199315761
 20
20.64283300699251
 30
0.0
 10
29.70828434522741
 20
20.64320087274059
 30
0.0
 10
29.71646865518682
 20
20.64370094492493
 30
0.0
 10
29.72428632252724
 20
20.64433139169591
 30
0.0
 10
29.73171003858558
 20
20.64508991172311
 30
0.0
 10
29.7387138878323
 20
20.64597373905997
 30
0.0
 10
29.74527345158116
 20
20.64697965047419
 30
0.0
 10
29.75136591794927
 20
20.64810397366326
 30
0.0
 10
29.7569702017651
 20
20.64934260535884
 30
0.0
 10
29.76206708722956
 20
20.65069104335658
 30
0.0
 10
29.7666394032503
 20
20.65214445307831
 30
0.0
 10
29.77067225422471
 20
20.65369783118519
 30
0.0
 10
29.77415329053364
 20
20.65534631731834
 30
0.0
 10
29.77707297011403
 20
20.6570860846498
 30
0.0
 10
29.779424173594
 20
20.6589155638454
 30
0.0
 10
29.78119978294019
 20
20.66083902240424
 30
0.0
 10
29.782383986173
 20
20.66286273480258
 30
0.0
 10
29.78276243319289
 20
20.66430232381977
 30
0.0
 10
29.78283780843697
 20
20.66500285702043
 30
0.0
 11
29.61308056933697
 21
20.64555896212043
 31
0.0
 11
29.62320812383697
 21
20.64473211442043
 31
0.0
 11
29.63329551233697
 21
20.64403297432043
 31
0.0
 11
29.64330753013697
 21
20.64346399292043
 31
0.0
 11
29.65320897473697
 21
20.64302710402043
 31
0.0
 11
29.66296509353697
 21
20.64272383062043
 31
0.0
 11
29.67254167113697
 21
20.64255520772043
 31
0.0
 11
29.68190513653697
 21
20.64252180662043
 31
0.0
 11
29.69102269003697
 21
20.64262372512043
 31
0.0
 11
29.69986240473697
 21
20.64286059052043
 31
0.0
 11
29.70839332773697
 21
20.64323156152043
 31
0.0
 11
29.71658558083697
 21
20.64373533052043
 31
0.0
 11
29.72441046053697
 21
20.64437012922043
 31
0.0
 11
29.73184053083697
 21
20.64513373402043
 31
0.0
 11
29.73884971343697
 21
20.64602347332042
 31
0.0
 11
29.74541337473697
 21
20.64703623642043
 31
0.0
 11
29.75150840873697
 21
20.64816848272043
 31
0.0
 11
29.75711331623696
 21
20.64941625362043
 31
0.0
 11
29.76220827763697
 21
20.65077518392043
 31
0.0
 11
29.76677522693697
 21
20.65224051682043
 31
0.0
 11
29.77079791633697
 21
20.65380711872043
 31
0.0
 11
29.77426197563697
 21
20.65546949622043
 31
0.0
 11
29.77715496313697
 21
20.65722180762043
 31
0.0
 11
29.77946642783697
 21
20.65905789832043
 31
0.0
 11
29.78118794493697
 21
20.66097128582043
 31
0.0
 11
29.78231315963697
 21
20.66295527372043
 31
0.0
 11
29.78283780843697
 21
20.66500285702043
 31
0.0
  0
ENDSEC
  0
SECTION
  2
OBJECTS
  0
DICTIONARY
  5
C
330
0
100
AcDbDictionary
281
     1
  3
ACAD_COLOR
350
C9
  3
ACAD_GROUP
350
D
  3
ACAD_LAYOUT
350
1A
  3
ACAD_MATERIAL
350
C8
  3
ACAD_MLEADERSTYLE
350
2EC
  3
ACAD_MLINESTYLE
350
17
  3
ACAD_PLOTSETTINGS
350
19
  3
ACAD_PLOTSTYLENAME
350
E
  3
ACAD_SCALELIST
350
2CA
  3
ACAD_TABLESTYLE
350
123
  3
ACAD_VISUALSTYLE
350
296
  3
ACDB_RECOMPOSE_DATA
350
30D
  3
AcDbVariableDictionary
350
9E
  3
AcmDictionary
350
63
  3
AMG
350
49
  3
AMGSNAPSETTINGS
350
430
  0
DICTIONARY
  5
59D
330
10
100
AcDbDictionary
280
     1
281
     1
  3
ADSK_XREC_LAYER_RECONCILED
360
59E
  0
DICTIONARY
  5
59F
330
38C
100
AcDbDictionary
280
     1
281
     1
  3
ADSK_XREC_LAYER_RECONCILED
360
5A0
  0
DICTIONARY
  5
5A1
330
4F2
100
AcDbDictionary
280
     1
281
     1
  3
ADSK_XREC_LAYER_RECONCILED
360
5A2
  0
DICTIONARY
  5
5A3
330
4F3
100
AcDbDictionary
280
     1
281
     1
  3
ADSK_XREC_LAYER_RECONCILED
360
5A4
  0
DICTIONARY
  5
99
330
1F
100
AcDbDictionary
280
     1
281
     1
  0
DICTIONARY
  5
C9
102
{ACAD_REACTORS
330
C
102
}
330
C
100
AcDbDictionary
281
     1
  0
DICTIONARY
  5
D
102
{ACAD_REACTORS
330
C
102
}
330
C
100
AcDbDictionary
281
     1
  0
DICTIONARY
  5
1A
102
{ACAD_REACTORS
330
C
102
}
330
C
100
AcDbDictionary
281
     1
  3
Layout1
350
1E
  3
Layout2
350
26
  3
Model
350
22
  0
DICTIONARY
  5
C8
102
{ACAD_REACTORS
330
C
102
}
330
C
100
AcDbDictionary
281
     1
  3
ByBlock
350
294
  3
ByLayer
350
293
  3
Global
350
295
  0
DICTIONARY
  5
2EC
102
{ACAD_REACTORS
330
C
102
}
330
C
100
AcDbDictionary
281
     1
  3
Standard
350
2ED
  0
DICTIONARY
  5
17
102
{ACAD_REACTORS
330
C
102
}
330
C
100
AcDbDictionary
281
     1
  3
Standard
350
18
  0
DICTIONARY
  5
19
102
{ACAD_REACTORS
330
C
102
}
330
C
100
AcDbDictionary
281
     1
  0
ACDBDICTIONARYWDFLT
  5
E
102
{ACAD_REACTORS
330
C
102
}
330
C
100
AcDbDictionary
281
     1
  3
Normal
350
F
100
AcDbDictionaryWithDefault
340
F
  0
DICTIONARY
  5
2CA
102
{ACAD_REACTORS
330
C
102
}
330
C
100
AcDbDictionary
281
     1
  3
A0
350
2CB
  3
A1
350
2CC
  3
A2
350
2CD
  3
A3
350
2CE
  3
A4
350
2CF
  3
A5
350
2D0
  3
A6
350
2D1
  3
A7
350
2D2
  3
A8
350
2D3
  3
A9
350
2D4
  3
B0
350
2D5
  3
B1
350
2D6
  3
B2
350
2D7
  3
B3
350
2D8
  3
B4
350
2D9
  3
B5
350
2DA
  3
B6
350
2DB
  3
B7
350
2DC
  3
B8
350
2DD
  3
B9
350
2DE
  3
C0
350
2DF
  3
C1
350
2E0
  3
C2
350
2E1
  3
C3
350
2E2
  3
C4
350
2E3
  3
C5
350
2E4
  3
C6
350
2E5
  3
C7
350
2E6
  3
C8
350
2E7
  3
C9
350
2E8
  3
D0
350
2E9
  3
D1
350
2EA
  3
D2
350
2EB
  0
DICTIONARY
  5
123
102
{ACAD_REACTORS
330
C
102
}
330
C
100
AcDbDictionary
281
     1
  3
Standard
350
124
  0
DICTIONARY
  5
296
102
{ACAD_REACTORS
330
C
102
}
330
C
100
AcDbDictionary
281
     1
  3
2dWireframe
350
29C
  3
3D Hidden
350
29E
  3
3dWireframe
350
29D
  3
Basic
350
29B
  3
Brighten
350
2A2
  3
ColorChange
350
2A6
  3
Conceptual
350
29F
  3
Dim
350
2A1
  3
Facepattern
350
2A5
  3
Flat
350
297
  3
FlatWithEdges
350
298
  3
Gouraud
350
299
  3
GouraudWithEdges
350
29A
  3
Linepattern
350
2A4
  3
Realistic
350
2A0
  3
Thicken
350
2A3
  0
XRECORD
  5
30D
102
{ACAD_REACTORS
330
C
102
}
330
C
100
AcDbXrecord
280
     1
 90
        1
330
124
  0
DICTIONARY
  5
9E
102
{ACAD_REACTORS
330
C
102
}
330
C
100
AcDbDictionary
281
     1
  3
CANNOSCALE
350
310
  3
CMLEADERSTYLE
350
30E
  3
CTABLESTYLE
350
144
  3
DIMASSOC
350
A0
  3
INDEXCTL
350
9F
  3
LAYEREVAL
350
36B
  3
LAYERNOTIFY
350
36C
  3
LIGHTINGUNITS
350
311
  3
MSLTSCALE
350
30F
  0
DICTIONARY
  5
63
102
{ACAD_REACTORS
330
C
102
}
330
C
100
AcDbDictionary
281
     1
  3
AcmStdDictionary
350
69
  3
AMDTSECTSYM_ARROWCOLOR
350
12C
  0
DICTIONARY
  5
49
102
{ACAD_REACTORS
330
C
102
}
330
C
100
AcDbDictionary
281
     1
  0
DICTIONARY
  5
430
102
{ACAD_REACTORS
330
C
102
}
330
C
100
AcDbDictionary
281
     1
  0
XRECORD
  5
59E
102
{ACAD_REACTORS
330
59D
102
}
330
59D
100
AcDbXrecord
280
     1
290
     1
  0
XRECORD
  5
5A0
102
{ACAD_REACTORS
330
59F
102
}
330
59F
100
AcDbXrecord
280
     1
290
     1
  0
XRECORD
  5
5A2
102
{ACAD_REACTORS
330
5A1
102
}
330
5A1
100
AcDbXrecord
280
     1
290
     1
  0
XRECORD
  5
5A4
102
{ACAD_REACTORS
330
5A3
102
}
330
5A3
100
AcDbXrecord
280
     1
290
     1
  0
LAYOUT
  5
1E
102
{ACAD_REACTORS
330
1A
102
}
330
1A
100
AcDbPlotSettings
  1

  2

  4

  6

 40
0.0
 41
0.0
 42
0.0
 43
0.0
 44
0.0
 45
0.0
 46
0.0
 47
0.0
 48
0.0
 49
0.0
140
0.0
141
0.0
142
1.0
143
1.0
 70
   688
 72
     0
 73
     0
 74
     5
  7

 75
    16
147
1.0
 76
     0
 77
     2
 78
   300
148
0.0
149
0.0
100
AcDbLayout
  1
Layout1
 70
     1
 71
     1
 10
0.0
 20
0.0
 11
12.0
 21
9.0
 12
0.0
 22
0.0
 32
0.0
 14
1.000000000000000E+20
 24
1.000000000000000E+20
 34
1.000000000000000E+20
 15
-1.000000000000000E+20
 25
-1.000000000000000E+20
 35
-1.000000000000000E+20
146
0.0
 13
0.0
 23
0.0
 33
0.0
 16
1.0
 26
0.0
 36
0.0
 17
0.0
 27
1.0
 37
0.0
 76
     0
330
1B
  0
LAYOUT
  5
26
102
{ACAD_REACTORS
330
1A
102
}
330
1A
100
AcDbPlotSettings
  1

  2

  4

  6

 40
0.0
 41
0.0
 42
0.0
 43
0.0
 44
0.0
 45
0.0
 46
0.0
 47
0.0
 48
0.0
 49
0.0
140
0.0
141
0.0
142
1.0
143
1.0
 70
   688
 72
     0
 73
     0
 74
     5
  7

 75
    16
147
1.0
 76
     0
 77
     2
 78
   300
148
0.0
149
0.0
100
AcDbLayout
  1
Layout2
 70
     1
 71
     2
 10
0.0
 20
0.0
 11
12.0
 21
9.0
 12
0.0
 22
0.0
 32
0.0
 14
0.0
 24
0.0
 34
0.0
 15
0.0
 25
0.0
 35
0.0
146
0.0
 13
0.0
 23
0.0
 33
0.0
 16
1.0
 26
0.0
 36
0.0
 17
0.0
 27
1.0
 37
0.0
 76
     0
330
23
  0
LAYOUT
  5
22
102
{ACAD_REACTORS
330
1A
102
}
330
1A
100
AcDbPlotSettings
  1

  2

  4

  6

 40
0.0
 41
0.0
 42
0.0
 43
0.0
 44
0.0
 45
0.0
 46
0.0
 47
0.0
 48
0.0
 49
0.0
140
0.0
141
0.0
142
1.0
143
1.0
 70
  1712
 72
     0
 73
     0
 74
     0
  7

 75
     0
147
1.0
 76
     0
 77
     2
 78
   300
148
0.0
149
0.0
100
AcDbLayout
  1
Model
 70
     1
 71
     0
 10
0.0
 20
0.0
 11
12.0
 21
9.0
 12
0.0
 22
0.0
 32
0.0
 14
0.0
 24
0.0
 34
0.0
 15
0.0
 25
0.0
 35
0.0
146
0.0
 13
0.0
 23
0.0
 33
0.0
 16
1.0
 26
0.0
 36
0.0
 17
0.0
 27
1.0
 37
0.0
 76
     0
330
1F
331
291
  0
MATERIAL
  5
294
102
{ACAD_REACTORS
330
C8
102
}
330
C8
100
AcDbMaterial
  1
ByBlock
 73
     1
 78
     1
172
     1
176
     1
270
     1
274
     1
 94
       63
  0
MATERIAL
  5
293
102
{ACAD_REACTORS
330
C8
102
}
330
C8
100
AcDbMaterial
  1
ByLayer
 73
     1
 78
     1
172
     1
176
     1
270
     1
274
     1
 94
       63
  0
MATERIAL
  5
295
102
{ACAD_REACTORS
330
C8
102
}
330
C8
100
AcDbMaterial
  1
Global
 73
     1
 78
     1
172
     1
176
     1
270
     1
274
     1
 94
       63
  0
MLEADERSTYLE
  5
2ED
102
{ACAD_REACTORS
330
2EC
102
}
330
2EC
100
AcDbMLeaderStyle
170
     2
171
     1
172
     0
 90
        2
 40
0.0
 41
0.0
173
     1
 91
-1056964608
340
14
 92
       -2
290
     1
 42
0.09
291
     1
 43
0.36
  3
Standard
 44
0.18
300

342
11
174
     1
178
     6
175
     1
176
     0
 93
-1056964608
 45
0.18
292
     0
297
     0
 46
0.18
 94
-1056964608
 47
1.0
 49
1.0
140
1.0
293
     1
141
0.0
294
     1
177
     0
142
1.0
295
     0
296
     0
143
0.125
1001
ACAD_MLEADERVER
1070
     2
  0
MLINESTYLE
  5
18
102
{ACAD_REACTORS
330
17
102
}
330
17
100
AcDbMlineStyle
  2
STANDARD
 70
     0
  3

 62
   256
 51
90.0
 52
90.0
 71
     2
 49
0.5
 62
   256
  6
BYLAYER
 49
-0.5
 62
   256
  6
BYLAYER
  0
ACDBPLACEHOLDER
  5
F
102
{ACAD_REACTORS
330
E
102
}
330
E
  0
SCALE
  5
2CB
102
{ACAD_REACTORS
330
2CA
102
}
330
2CA
100
AcDbScale
 70
     0
300
1:1
140
1.0
141
1.0
290
     1
  0
SCALE
  5
2CC
102
{ACAD_REACTORS
330
2CA
102
}
330
2CA
100
AcDbScale
 70
     0
300
1:2
140
1.0
141
2.0
290
     0
  0
SCALE
  5
2CD
102
{ACAD_REACTORS
330
2CA
102
}
330
2CA
100
AcDbScale
 70
     0
300
1:4
140
1.0
141
4.0
290
     0
  0
SCALE
  5
2CE
102
{ACAD_REACTORS
330
2CA
102
}
330
2CA
100
AcDbScale
 70
     0
300
1:5
140
1.0
141
5.0
290
     0
  0
SCALE
  5
2CF
102
{ACAD_REACTORS
330
2CA
102
}
330
2CA
100
AcDbScale
 70
     0
300
1:8
140
1.0
141
8.0
290
     0
  0
SCALE
  5
2D0
102
{ACAD_REACTORS
330
2CA
102
}
330
2CA
100
AcDbScale
 70
     0
300
1:10
140
1.0
141
10.0
290
     0
  0
SCALE
  5
2D1
102
{ACAD_REACTORS
330
2CA
102
}
330
2CA
100
AcDbScale
 70
     0
300
1:16
140
1.0
141
16.0
290
     0
  0
SCALE
  5
2D2
102
{ACAD_REACTORS
330
2CA
102
}
330
2CA
100
AcDbScale
 70
     0
300
1:20
140
1.0
141
20.0
290
     0
  0
SCALE
  5
2D3
102
{ACAD_REACTORS
330
2CA
102
}
330
2CA
100
AcDbScale
 70
     0
300
1:30
140
1.0
141
30.0
290
     0
  0
SCALE
  5
2D4
102
{ACAD_REACTORS
330
2CA
102
}
330
2CA
100
AcDbScale
 70
     0
300
1:40
140
1.0
141
40.0
290
     0
  0
SCALE
  5
2D5
102
{ACAD_REACTORS
330
2CA
102
}
330
2CA
100
AcDbScale
 70
     0
300
1:50
140
1.0
141
50.0
290
     0
  0
SCALE
  5
2D6
102
{ACAD_REACTORS
330
2CA
102
}
330
2CA
100
AcDbScale
 70
     0
300
1:100
140
1.0
141
100.0
290
     0
  0
SCALE
  5
2D7
102
{ACAD_REACTORS
330
2CA
102
}
330
2CA
100
AcDbScale
 70
     0
300
2:1
140
2.0
141
1.0
290
     0
  0
SCALE
  5
2D8
102
{ACAD_REACTORS
330
2CA
102
}
330
2CA
100
AcDbScale
 70
     0
300
4:1
140
4.0
141
1.0
290
     0
  0
SCALE
  5
2D9
102
{ACAD_REACTORS
330
2CA
102
}
330
2CA
100
AcDbScale
 70
     0
300
8:1
140
8.0
141
1.0
290
     0
  0
SCALE
  5
2DA
102
{ACAD_REACTORS
330
2CA
102
}
330
2CA
100
AcDbScale
 70
     0
300
10:1
140
10.0
141
1.0
290
     0
  0
SCALE
  5
2DB
102
{ACAD_REACTORS
330
2CA
102
}
330
2CA
100
AcDbScale
 70
     0
300
100:1
140
100.0
141
1.0
290
     0
  0
SCALE
  5
2DC
102
{ACAD_REACTORS
330
2CA
102
}
330
2CA
100
AcDbScale
 70
     0
300
1/128" = 1'-0"
140
0.0078125
141
12.0
290
     0
  0
SCALE
  5
2DD
102
{ACAD_REACTORS
330
2CA
102
}
330
2CA
100
AcDbScale
 70
     0
300
1/64" = 1'-0"
140
0.015625
141
12.0
290
     0
  0
SCALE
  5
2DE
102
{ACAD_REACTORS
330
2CA
102
}
330
2CA
100
AcDbScale
 70
     0
300
1/32" = 1'-0"
140
0.03125
141
12.0
290
     0
  0
SCALE
  5
2DF
102
{ACAD_REACTORS
330
2CA
102
}
330
2CA
100
AcDbScale
 70
     0
300
1/16" = 1'-0"
140
0.0625
141
12.0
290
     0
  0
SCALE
  5
2E0
102
{ACAD_REACTORS
330
2CA
102
}
330
2CA
100
AcDbScale
 70
     0
300
3/32" = 1'-0"
140
0.09375
141
12.0
290
     0
  0
SCALE
  5
2E1
102
{ACAD_REACTORS
330
2CA
102
}
330
2CA
100
AcDbScale
 70
     0
300
1/8" = 1'-0"
140
0.125
141
12.0
290
     0
  0
SCALE
  5
2E2
102
{ACAD_REACTORS
330
2CA
102
}
330
2CA
100
AcDbScale
 70
     0
300
3/16" = 1'-0"
140
0.1875
141
12.0
290
     0
  0
SCALE
  5
2E3
102
{ACAD_REACTORS
330
2CA
102
}
330
2CA
100
AcDbScale
 70
     0
300
1/4" = 1'-0"
140
0.25
141
12.0
290
     0
  0
SCALE
  5
2E4
102
{ACAD_REACTORS
330
2CA
102
}
330
2CA
100
AcDbScale
 70
     0
300
3/8" = 1'-0"
140
0.375
141
12.0
290
     0
  0
SCALE
  5
2E5
102
{ACAD_REACTORS
330
2CA
102
}
330
2CA
100
AcDbScale
 70
     0
300
1/2" = 1'-0"
140
0.5
141
12.0
290
     0
  0
SCALE
  5
2E6
102
{ACAD_REACTORS
330
2CA
102
}
330
2CA
100
AcDbScale
 70
     0
300
3/4" = 1'-0"
140
0.75
141
12.0
290
     0
  0
SCALE
  5
2E7
102
{ACAD_REACTORS
330
2CA
102
}
330
2CA
100
AcDbScale
 70
     0
300
1" = 1'-0"
140
1.0
141
12.0
290
     0
  0
SCALE
  5
2E8
102
{ACAD_REACTORS
330
2CA
102
}
330
2CA
100
AcDbScale
 70
     0
300
1-1/2" = 1'-0"
140
1.5
141
12.0
290
     0
  0
SCALE
  5
2E9
102
{ACAD_REACTORS
330
2CA
102
}
330
2CA
100
AcDbScale
 70
     0
300
3" = 1'-0"
140
3.0
141
12.0
290
     0
  0
SCALE
  5
2EA
102
{ACAD_REACTORS
330
2CA
102
}
330
2CA
100
AcDbScale
 70
     0
300
6" = 1'-0"
140
6.0
141
12.0
290
     0
  0
SCALE
  5
2EB
102
{ACAD_REACTORS
330
2CA
102
}
330
2CA
100
AcDbScale
 70
     0
300
1'-0" = 1'-0"
140
12.0
141
12.0
290
     0
  0
TABLESTYLE
  5
124
102
{ACAD_XDICTIONARY
360
30B
102
}
102
{ACAD_REACTORS
330
123
102
}
330
123
100
AcDbTableStyle
  3
Standard
 70
     0
 71
     0
 40
0.06
 41
0.06
280
     0
281
     0
  7
STANDARD
140
0.18
170
     2
 62
     0
 63
     7
283
     0
 90
      512
 91
        0
  1

274
    -2
284
     1
 64
     0
275
    -2
285
     1
 65
     0
276
    -2
286
     1
 66
     0
277
    -2
287
     1
 67
     0
278
    -2
288
     1
 68
     0
279
    -2
289
     1
 69
     0
  7
STANDARD
140
0.25
170
     5
 62
     0
 63
     7
283
     0
 90
      512
 91
        0
  1

274
    -2
284
     1
 64
     0
275
    -2
285
     1
 65
     0
276
    -2
286
     1
 66
     0
277
    -2
287
     1
 67
     0
278
    -2
288
     1
 68
     0
279
    -2
289
     1
 69
     0
  7
STANDARD
140
0.18
170
     5
 62
     0
 63
     7
283
     0
 90
      512
 91
        0
  1

274
    -2
284
     1
 64
     0
275
    -2
285
     1
 65
     0
276
    -2
286
     1
 66
     0
277
    -2
287
     1
 67
     0
278
    -2
288
     1
 68
     0
279
    -2
289
     1
 69
     0
  0
VISUALSTYLE
  5
29C
102
{ACAD_REACTORS
330
296
102
}
330
296
100
AcDbVisualStyle
  2
2dWireframe
 70
     4
 71
     0
 72
     2
 73
     0
 90
        0
 40
-0.6
 41
-30.0
 62
     5
 63
     7
421
 16777215
 74
     1
 91
        4
 64
     7
 65
   257
 75
     1
175
     1
 42
1.0
 92
        0
 66
   257
 43
1.0
 76
     1
 77
     6
 78
     2
 67
     7
 79
     5
170
     0
171
     0
290
     0
174
     0
 93
        1
 44
0.0
173
     0
291
     0
 45
0.0
  0
VISUALSTYLE
  5
29E
102
{ACAD_REACTORS
330
296
102
}
330
296
100
AcDbVisualStyle
  2
3D Hidden
 70
     6
 71
     1
 72
     2
 73
     2
 90
        0
 40
-0.6
 41
-30.0
 62
     5
 63
     7
421
 16777215
 74
     2
 91
        2
 64
     7
 65
   257
 75
     2
175
     1
 42
40.0
 92
        0
 66
   257
 43
1.0
 76
     1
 77
     6
 78
     2
 67
     7
 79
     3
170
     0
171
     0
290
     0
174
     0
 93
        1
 44
0.0
173
     0
291
     0
 45
0.0
  0
VISUALSTYLE
  5
29D
102
{ACAD_REACTORS
330
296
102
}
330
296
100
AcDbVisualStyle
  2
3dWireframe
 70
     5
 71
     0
 72
     2
 73
     0
 90
        0
 40
-0.6
 41
-30.0
 62
     5
 63
     7
421
 16777215
 74
     1
 91
        4
 64
     7
 65
   257
 75
     1
175
     1
 42
1.0
 92
        0
 66
   257
 43
1.0
 76
     1
 77
     6
 78
     2
 67
     7
 79
     5
170
     0
171
     0
290
     0
174
     0
 93
        1
 44
0.0
173
     0
291
     0
 45
0.0
  0
VISUALSTYLE
  5
29B
102
{ACAD_REACTORS
330
296
102
}
330
296
100
AcDbVisualStyle
  2
Basic
 70
     7
 71
     1
 72
     0
 73
     1
 90
        0
 40
-0.6
 41
-30.0
 62
     5
 63
     7
421
 16777215
 74
     0
 91
        4
 64
     7
 65
   257
 75
     1
175
     1
 42
1.0
 92
        8
 66
     7
 43
1.0
 76
     1
 77
     6
 78
     2
 67
     7
 79
     5
170
     0
171
     0
290
     0
174
     0
 93
        1
 44
0.0
173
     0
291
     1
 45
0.0
  0
VISUALSTYLE
  5
2A2
102
{ACAD_REACTORS
330
296
102
}
330
296
100
AcDbVisualStyle
  2
Brighten
 70
    12
 71
     2
 72
     2
 73
     0
 90
        0
 40
-0.6
 41
-30.0
 62
     5
 63
     7
421
 16777215
 74
     1
 91
        4
 64
     7
 65
   257
 75
     1
175
     1
 42
1.0
 92
        8
 66
     7
 43
1.0
 76
     1
 77
     6
 78
     2
 67
     7
 79
     5
170
     0
171
     0
290
     0
174
     0
 93
        1
 44
50.0
173
     0
291
     1
 45
0.0
  0
VISUALSTYLE
  5
2A6
102
{ACAD_REACTORS
330
296
102
}
330
296
100
AcDbVisualStyle
  2
ColorChange
 70
    16
 71
     2
 72
     2
 73
     3
 90
        0
 40
-0.6
 41
-30.0
 62
     5
 63
     8
421
  8421504
 74
     1
 91
        4
 64
     7
 65
   257
 75
     1
175
     1
 42
1.0
 92
        8
 66
     8
424
  8421504
 43
1.0
 76
     1
 77
     6
 78
     2
 67
     7
 79
     5
170
     0
171
     0
290
     0
174
     0
 93
        1
 44
0.0
173
     0
291
     1
 45
0.0
  0
VISUALSTYLE
  5
29F
102
{ACAD_REACTORS
330
296
102
}
330
296
100
AcDbVisualStyle
  2
Conceptual
 70
     9
 71
     3
 72
     2
 73
     0
 90
        0
 40
-0.6
 41
-30.0
 62
     5
 63
     7
421
 16777215
 74
     2
 91
        2
 64
     7
 65
   257
 75
     1
175
     1
 42
40.0
 92
        8
 66
     7
 43
1.0
 76
     1
 77
     6
 78
     2
 67
     7
 79
     3
170
     0
171
     0
290
     0
174
     0
 93
        1
 44
0.0
173
     0
291
     0
 45
0.0
  0
VISUALSTYLE
  5
2A1
102
{ACAD_REACTORS
330
296
102
}
330
296
100
AcDbVisualStyle
  2
Dim
 70
    11
 71
     2
 72
     2
 73
     0
 90
        0
 40
-0.6
 41
-30.0
 62
     5
 63
     7
421
 16777215
 74
     1
 91
        4
 64
     7
 65
   257
 75
     1
175
     1
 42
1.0
 92
        8
 66
     7
 43
1.0
 76
     1
 77
     6
 78
     2
 67
     7
 79
     5
170
     0
171
     0
290
     0
174
     0
 93
        1
 44
-50.0
173
     0
291
     1
 45
0.0
  0
VISUALSTYLE
  5
2A5
102
{ACAD_REACTORS
330
296
102
}
330
296
100
AcDbVisualStyle
  2
Facepattern
 70
    15
 71
     2
 72
     2
 73
     0
 90
        0
 40
-0.6
 41
-30.0
 62
     5
 63
     7
421
 16777215
 74
     1
 91
        4
 64
     7
 65
   257
 75
     1
175
     1
 42
1.0
 92
        8
 66
     7
 43
1.0
 76
     1
 77
     6
 78
     2
 67
     7
 79
     5
170
     0
171
     0
290
     0
174
     0
 93
        1
 44
0.0
173
     0
291
     1
 45
0.0
  0
VISUALSTYLE
  5
297
102
{ACAD_REACTORS
330
296
102
}
330
296
100
AcDbVisualStyle
  2
Flat
 70
     0
 71
     2
 72
     1
 73
     1
 90
        2
 40
-0.6
 41
30.0
 62
     5
 63
     7
421
 16777215
 74
     0
 91
        4
 64
     7
 65
   257
 75
     1
175
     1
 42
1.0
 92
        8
 66
     7
 43
1.0
 76
     1
 77
     6
 78
     2
 67
     7
 79
     5
170
     0
171
     0
290
     0
174
     0
 93
       13
 44
0.0
173
     0
291
     1
 45
0.0
  0
VISUALSTYLE
  5
298
102
{ACAD_REACTORS
330
296
102
}
330
296
100
AcDbVisualStyle
  2
FlatWithEdges
 70
     1
 71
     2
 72
     1
 73
     1
 90
        2
 40
-0.6
 41
30.0
 62
     5
 63
     7
421
 16777215
 74
     1
 91
        4
 64
     7
 65
   257
 75
     1
175
     1
 42
1.0
 92
        0
 66
   257
 43
1.0
 76
     1
 77
     6
 78
     2
 67
     7
 79
     5
170
     0
171
     0
290
     0
174
     0
 93
       13
 44
0.0
173
     0
291
     1
 45
0.0
  0
VISUALSTYLE
  5
299
102
{ACAD_REACTORS
330
296
102
}
330
296
100
AcDbVisualStyle
  2
Gouraud
 70
     2
 71
     2
 72
     2
 73
     1
 90
        2
 40
-0.6
 41
30.0
 62
     5
 63
     7
421
 16777215
 74
     0
 91
        4
 64
     7
 65
   257
 75
     1
175
     1
 42
1.0
 92
        0
 66
     7
 43
1.0
 76
     1
 77
     6
 78
     2
 67
     7
 79
     5
170
     0
171
     0
290
     0
174
     0
 93
       13
 44
0.0
173
     0
291
     1
 45
0.0
  0
VISUALSTYLE
  5
29A
102
{ACAD_REACTORS
330
296
102
}
330
296
100
AcDbVisualStyle
  2
GouraudWithEdges
 70
     3
 71
     2
 72
     2
 73
     1
 90
        2
 40
-0.6
 41
30.0
 62
     5
 63
     7
421
 16777215
 74
     1
 91
        4
 64
     7
 65
   257
 75
     1
175
     1
 42
1.0
 92
        0
 66
   257
 43
1.0
 76
     1
 77
     6
 78
     2
 67
     7
 79
     5
170
     0
171
     0
290
     0
174
     0
 93
       13
 44
0.0
173
     0
291
     1
 45
0.0
  0
VISUALSTYLE
  5
2A4
102
{ACAD_REACTORS
330
296
102
}
330
296
100
AcDbVisualStyle
  2
Linepattern
 70
    14
 71
     2
 72
     2
 73
     0
 90
        0
 40
-0.6
 41
-30.0
 62
     5
 63
     7
421
 16777215
 74
     1
 91
        4
 64
     7
 65
   257
 75
     7
175
     7
 42
1.0
 92
        8
 66
     7
 43
1.0
 76
     1
 77
     6
 78
     2
 67
     7
 79
     5
170
     0
171
     0
290
     0
174
     0
 93
        1
 44
0.0
173
     0
291
     1
 45
0.0
  0
VISUALSTYLE
  5
2A0
102
{ACAD_REACTORS
330
296
102
}
330
296
100
AcDbVisualStyle
  2
Realistic
 70
     8
 71
     2
 72
     2
 73
     0
 90
        0
 40
-0.6
 41
-30.0
 62
     5
 63
     7
421
 16777215
 74
     1
 91
        0
 64
     7
 65
   257
 75
     1
175
     1
 42
1.0
 92
        8
 66
     8
424
  7895160
 43
1.0
 76
     1
 77
     6
 78
     2
 67
     7
 79
     5
170
     0
171
     0
290
     0
174
     0
 93
       13
 44
0.0
173
     0
291
     0
 45
0.0
  0
VISUALSTYLE
  5
2A3
102
{ACAD_REACTORS
330
296
102
}
330
296
100
AcDbVisualStyle
  2
Thicken
 70
    13
 71
     2
 72
     2
 73
     0
 90
        0
 40
-0.6
 41
-30.0
 62
     5
 63
     7
421
 16777215
 74
     1
 91
        4
 64
     7
 65
   257
 75
     1
175
     1
 42
1.0
 92
       12
 66
     7
 43
1.0
 76
     1
 77
     6
 78
     2
 67
     7
 79
     5
170
     0
171
     0
290
     0
174
     0
 93
        1
 44
0.0
173
     0
291
     1
 45
0.0
  0
DICTIONARYVAR
  5
310
102
{ACAD_REACTORS
330
9E
102
}
330
9E
100
DictionaryVariables
280
     0
  1
1:1
  0
DICTIONARYVAR
  5
30E
102
{ACAD_REACTORS
330
9E
102
}
330
9E
100
DictionaryVariables
280
     0
  1
STANDARD
  0
DICTIONARYVAR
  5
144
102
{ACAD_REACTORS
330
9E
102
}
330
9E
100
DictionaryVariables
280
     0
  1
STANDARD
  0
DICTIONARYVAR
  5
A0
102
{ACAD_REACTORS
330
9E
102
}
330
9E
100
DictionaryVariables
280
     0
  1
2
  0
DICTIONARYVAR
  5
9F
102
{ACAD_REACTORS
330
9E
102
}
330
9E
100
DictionaryVariables
280
     0
  1
1
  0
DICTIONARYVAR
  5
36B
102
{ACAD_REACTORS
330
9E
102
}
330
9E
100
DictionaryVariables
280
     0
  1
1
  0
DICTIONARYVAR
  5
36C
102
{ACAD_REACTORS
330
9E
102
}
330
9E
100
DictionaryVariables
280
     0
  1
15
  0
DICTIONARYVAR
  5
311
102
{ACAD_REACTORS
330
9E
102
}
330
9E
100
DictionaryVariables
280
     0
  1
0
  0
DICTIONARYVAR
  5
30F
102
{ACAD_REACTORS
330
9E
102
}
330
9E
100
DictionaryVariables
280
     0
  1
0
  0
DICTIONARY
  5
69
102
{ACAD_REACTORS
330
63
102
}
330
63
100
AcDbDictionary
281
     1
  0
XRECORD
  5
12C
102
{ACAD_REACTORS
330
63
102
}
330
63
100
AcDbXrecord
280
     1
 90
-1023410169
  0
DICTIONARY
  5
30B
330
124
100
AcDbDictionary
280
     1
281
     1
  3
ACAD_ROUNDTRIP_2008_TABLESTYLE_CELLSTYLEMAP
360
5A5
  0
CELLSTYLEMAP
  5
5A5
102
{ACAD_REACTORS
330
30B
102
}
330
30B
100
AcDbCellStyleMap
 90
        3
300
CELLSTYLE
  1
TABLEFORMAT_BEGIN
 90
        5
170
     1
 91
        0
 92
    32768
 62
   257
 93
        1
300
CONTENTFORMAT
  1
CONTENTFORMAT_BEGIN
 90
        0
 91
        0
 92
      512
 93
        0
300

 40
0.0
140
1.0
 94
        5
 62
     0
340
11
144
0.25
309
CONTENTFORMAT_END
171
     0
 94
        6
 95
        1
302
GRIDFORMAT
  1
GRIDFORMAT_BEGIN
 90
        0
 91
        1
 62
     0
 92
       -2
340
0
 93
        0
 40
0.045
309
GRIDFORMAT_END
 95
        2
302
GRIDFORMAT
  1
GRIDFORMAT_BEGIN
 90
        0
 91
        1
 62
     0
 92
       -2
340
0
 93
        0
 40
0.045
309
GRIDFORMAT_END
 95
        4
302
GRIDFORMAT
  1
GRIDFORMAT_BEGIN
 90
        0
 91
        1
 62
     0
 92
       -2
340
0
 93
        0
 40
0.045
309
GRIDFORMAT_END
 95
        8
302
GRIDFORMAT
  1
GRIDFORMAT_BEGIN
 90
        0
 91
        1
 62
     0
 92
       -2
340
0
 93
        0
 40
0.045
309
GRIDFORMAT_END
 95
       16
302
GRIDFORMAT
  1
GRIDFORMAT_BEGIN
 90
        0
 91
        1
 62
     0
 92
       -2
340
0
 93
        0
 40
0.045
309
GRIDFORMAT_END
 95
       32
302
GRIDFORMAT
  1
GRIDFORMAT_BEGIN
 90
        0
 91
        1
 62
     0
 92
       -2
340
0
 93
        0
 40
0.045
309
GRIDFORMAT_END
309
TABLEFORMAT_END
  1
CELLSTYLE_BEGIN
 90
        1
 91
        1
300
_TITLE
309
CELLSTYLE_END
300
CELLSTYLE
  1
TABLEFORMAT_BEGIN
 90
        5
170
     1
 91
        0
 92
        0
 62
   257
 93
        1
300
CONTENTFORMAT
  1
CONTENTFORMAT_BEGIN
 90
        0
 91
        0
 92
      512
 93
        0
300

 40
0.0
140
1.0
 94
        5
 62
     0
340
11
144
0.18
309
CONTENTFORMAT_END
171
     0
 94
        6
 95
        1
302
GRIDFORMAT
  1
GRIDFORMAT_BEGIN
 90
        0
 91
        1
 62
     0
 92
       -2
340
0
 93
        0
 40
0.045
309
GRIDFORMAT_END
 95
        2
302
GRIDFORMAT
  1
GRIDFORMAT_BEGIN
 90
        0
 91
        1
 62
     0
 92
       -2
340
0
 93
        0
 40
0.045
309
GRIDFORMAT_END
 95
        4
302
GRIDFORMAT
  1
GRIDFORMAT_BEGIN
 90
        0
 91
        1
 62
     0
 92
       -2
340
0
 93
        0
 40
0.045
309
GRIDFORMAT_END
 95
        8
302
GRIDFORMAT
  1
GRIDFORMAT_BEGIN
 90
        0
 91
        1
 62
     0
 92
       -2
340
0
 93
        0
 40
0.045
309
GRIDFORMAT_END
 95
       16
302
GRIDFORMAT
  1
GRIDFORMAT_BEGIN
 90
        0
 91
        1
 62
     0
 92
       -2
340
0
 93
        0
 40
0.045
309
GRIDFORMAT_END
 95
       32
302
GRIDFORMAT
  1
GRIDFORMAT_BEGIN
 90
        0
 91
        1
 62
     0
 92
       -2
340
0
 93
        0
 40
0.045
309
GRIDFORMAT_END
309
TABLEFORMAT_END
  1
CELLSTYLE_BEGIN
 90
        2
 91
        1
300
_HEADER
309
CELLSTYLE_END
300
CELLSTYLE
  1
TABLEFORMAT_BEGIN
 90
        5
170
     1
 91
        0
 92
        0
 62
   257
 93
        1
300
CONTENTFORMAT
  1
CONTENTFORMAT_BEGIN
 90
        0
 91
        0
 92
      512
 93
        0
300

 40
0.0
140
1.0
 94
        2
 62
     0
340
11
144
0.18
309
CONTENTFORMAT_END
171
     0
 94
        6
 95
        1
302
GRIDFORMAT
  1
GRIDFORMAT_BEGIN
 90
        0
 91
        1
 62
     0
 92
       -2
340
0
 93
        0
 40
0.045
309
GRIDFORMAT_END
 95
        2
302
GRIDFORMAT
  1
GRIDFORMAT_BEGIN
 90
        0
 91
        1
 62
     0
 92
       -2
340
0
 93
        0
 40
0.045
309
GRIDFORMAT_END
 95
        4
302
GRIDFORMAT
  1
GRIDFORMAT_BEGIN
 90
        0
 91
        1
 62
     0
 92
       -2
340
0
 93
        0
 40
0.045
309
GRIDFORMAT_END
 95
        8
302
GRIDFORMAT
  1
GRIDFORMAT_BEGIN
 90
        0
 91
        1
 62
     0
 92
       -2
340
0
 93
        0
 40
0.045
309
GRIDFORMAT_END
 95
       16
302
GRIDFORMAT
  1
GRIDFORMAT_BEGIN
 90
        0
 91
        1
 62
     0
 92
       -2
340
0
 93
        0
 40
0.045
309
GRIDFORMAT_END
 95
       32
302
GRIDFORMAT
  1
GRIDFORMAT_BEGIN
 90
        0
 91
        1
 62
     0
 92
       -2
340
0
 93
        0
 40
0.045
309
GRIDFORMAT_END
309
TABLEFORMAT_END
  1
CELLSTYLE_BEGIN
 90
        3
 91
        2
300
_DATA
309
CELLSTYLE_END
  0
ENDSEC
  0
EOF
